  0
SECTION
  2
HEADER
  9
$ACADVER
  1
AC1014
  9
$ACADMAINTVER
 70
     8
  9
$DWGCODEPAGE
  3
ANSI_1252
  9
$INSBASE
 10
0.0
 20
0.0
 30
0.0
  9
$EXTMIN
 10
4.258061
 20
4.961431
 30
0.0
  9
$EXTMAX
 10
76.028926
 20
76.790595
 30
0.0
  9
$LIMMIN
 10
0.0
 20
0.0
  9
$LIMMAX
 10
85.0
 20
110.0
  9
$ORTHOMODE
 70
     1
  9
$REGENMODE
 70
     1
  9
$FILLMODE
 70
     1
  9
$QTEXTMODE
 70
     0
  9
$MIRRTEXT
 70
     1
  9
$DRAGMODE
 70
     2
  9
$LTSCALE
 40
3.0
  9
$OSMODE
 70
    37
  9
$ATTMODE
 70
     1
  9
$TEXTSIZE
 40
0.2
  9
$TRACEWID
 40
0.05
  9
$TEXTSTYLE
  7
STANDARD
  9
$CLAYER
  8
0
  9
$CELTYPE
  6
BYLAYER
  9
$CECOLOR
 62
   256
  9
$CELTSCALE
 40
1.0
  9
$DELOBJ
 70
     1
  9
$DISPSILH
 70
     0
  9
$DIMSCALE
 40
1.0
  9
$DIMASZ
 40
0.18
  9
$DIMEXO
 40
0.0625
  9
$DIMDLI
 40
0.38
  9
$DIMRND
 40
0.0
  9
$DIMDLE
 40
0.0
  9
$DIMEXE
 40
0.18
  9
$DIMTP
 40
0.0
  9
$DIMTM
 40
0.0
  9
$DIMTXT
 40
0.18
  9
$DIMCEN
 40
0.09
  9
$DIMTSZ
 40
0.0
  9
$DIMTOL
 70
     0
  9
$DIMLIM
 70
     0
  9
$DIMTIH
 70
     1
  9
$DIMTOH
 70
     1
  9
$DIMSE1
 70
     0
  9
$DIMSE2
 70
     0
  9
$DIMTAD
 70
     0
  9
$DIMZIN
 70
     0
  9
$DIMBLK
  1

  9
$DIMASO
 70
     1
  9
$DIMSHO
 70
     1
  9
$DIMPOST
  1

  9
$DIMAPOST
  1

  9
$DIMALT
 70
     0
  9
$DIMALTD
 70
     2
  9
$DIMALTF
 40
25.4
  9
$DIMLFAC
 40
1.0
  9
$DIMTOFL
 70
     0
  9
$DIMTVP
 40
0.0
  9
$DIMTIX
 70
     0
  9
$DIMSOXD
 70
     0
  9
$DIMSAH
 70
     0
  9
$DIMBLK1
  1

  9
$DIMBLK2
  1

  9
$DIMSTYLE
  2
STANDARD
  9
$DIMCLRD
 70
     0
  9
$DIMCLRE
 70
     0
  9
$DIMCLRT
 70
     0
  9
$DIMTFAC
 40
1.0
  9
$DIMGAP
 40
0.09
  9
$DIMJUST
 70
     0
  9
$DIMSD1
 70
     0
  9
$DIMSD2
 70
     0
  9
$DIMTOLJ
 70
     1
  9
$DIMTZIN
 70
     0
  9
$DIMALTZ
 70
     0
  9
$DIMALTTZ
 70
     0
  9
$DIMFIT
 70
     5
  9
$DIMUPT
 70
     0
  9
$DIMUNIT
 70
     4
  9
$DIMDEC
 70
     4
  9
$DIMTDEC
 70
     4
  9
$DIMALTU
 70
     4
  9
$DIMALTTD
 70
     2
  9
$DIMTXSTY
  7
STANDARD
  9
$DIMAUNIT
 70
     2
  9
$LUNITS
 70
     4
  9
$LUPREC
 70
     4
  9
$SKETCHINC
 40
0.1
  9
$FILLETRAD
 40
0.0
  9
$AUNITS
 70
     2
  9
$AUPREC
 70
     0
  9
$MENU
  1
acad
  9
$ELEVATION
 40
0.0
  9
$PELEVATION
 40
0.0
  9
$THICKNESS
 40
0.0
  9
$LIMCHECK
 70
     0
  9
$BLIPMODE
 70
     1
  9
$CHAMFERA
 40
0.0
  9
$CHAMFERB
 40
0.0
  9
$CHAMFERC
 40
0.0
  9
$CHAMFERD
 40
0.0
  9
$SKPOLY
 70
     0
  9
$TDCREATE
 40
2451166.526217940
  9
$TDUPDATE
 40
2452234.599403009
  9
$TDINDWG
 40
0.1547681713
  9
$TDUSRTIMER
 40
0.1547681713
  9
$USRTIMER
 70
     1
  9
$ANGBASE
 50
0.0
  9
$ANGDIR
 70
     0
  9
$PDMODE
 70
     0
  9
$PDSIZE
 40
0.0
  9
$PLINEWID
 40
0.0
  9
$COORDS
 70
     1
  9
$SPLFRAME
 70
     0
  9
$SPLINETYPE
 70
     6
  9
$SPLINESEGS
 70
     8
  9
$ATTDIA
 70
     0
  9
$ATTREQ
 70
     1
  9
$HANDLING
 70
     1
  9
$HANDSEED
  5
6EA
  9
$SURFTAB1
 70
     6
  9
$SURFTAB2
 70
     6
  9
$SURFTYPE
 70
     6
  9
$SURFU
 70
     6
  9
$SURFV
 70
     6
  9
$UCSNAME
  2

  9
$UCSORG
 10
0.0
 20
0.0
 30
0.0
  9
$UCSXDIR
 10
1.0
 20
0.0
 30
0.0
  9
$UCSYDIR
 10
0.0
 20
1.0
 30
0.0
  9
$PUCSNAME
  2

  9
$PUCSORG
 10
0.0
 20
0.0
 30
0.0
  9
$PUCSXDIR
 10
1.0
 20
0.0
 30
0.0
  9
$PUCSYDIR
 10
0.0
 20
1.0
 30
0.0
  9
$USERI1
 70
     0
  9
$USERI2
 70
     0
  9
$USERI3
 70
     0
  9
$USERI4
 70
     0
  9
$USERI5
 70
     0
  9
$USERR1
 40
0.0
  9
$USERR2
 40
0.0
  9
$USERR3
 40
0.0
  9
$USERR4
 40
0.0
  9
$USERR5
 40
0.0
  9
$WORLDVIEW
 70
     1
  9
$SHADEDGE
 70
     3
  9
$SHADEDIF
 70
    70
  9
$TILEMODE
 70
     1
  9
$MAXACTVP
 70
    16
  9
$PINSBASE
 10
0.0
 20
0.0
 30
0.0
  9
$PLIMCHECK
 70
     0
  9
$PEXTMIN
 10
1.000000E+20
 20
1.000000E+20
 30
1.000000E+20
  9
$PEXTMAX
 10
-1.000000E+20
 20
-1.000000E+20
 30
-1.000000E+20
  9
$PLIMMIN
 10
0.0
 20
0.0
  9
$PLIMMAX
 10
12.0
 20
9.0
  9
$UNITMODE
 70
     0
  9
$VISRETAIN
 70
     0
  9
$PLINEGEN
 70
     0
  9
$PSLTSCALE
 70
     1
  9
$TREEDEPTH
 70
  3020
  9
$PICKSTYLE
 70
     1
  9
$CMLSTYLE
  2
STANDARD
  9
$CMLJUST
 70
     0
  9
$CMLSCALE
 40
1.0
  9
$PROXYGRAPHICS
 70
     1
  9
$MEASUREMENT
 70
     0
  0
ENDSEC
  0
SECTION
  2
CLASSES
  0
CLASS
  1
DICTIONARYVAR
  2
AcDbDictionaryVar
  3
"AutoCAD"
 90
        0
280
     0
281
     0
  0
ENDSEC
  0
SECTION
  2
TABLES
  0
TABLE
  2
VPORT
  5
8
100
AcDbSymbolTable
 70
     1
  0
VPORT
  5
6E4
100
AcDbSymbolTableRecord
100
AcDbViewportTableRecord
  2
*ACTIVE
 70
     0
 10
0.0
 20
0.0
 11
1.0
 21
1.0
 12
40.606812
 22
41.433333
 13
0.0
 23
0.0
 14
1.0
 24
1.0
 15
1.0
 25
1.0
 16
0.0
 26
0.0
 36
1.0
 17
0.0
 27
0.0
 37
0.0
 40
78.711111
 41
1.474388
 42
50.0
 43
0.0
 44
0.0
 50
0.0
 51
0.0
 71
     0
 72
   100
 73
     1
 74
     1
 75
     0
 76
     0
 77
     0
 78
     0
  0
ENDTAB
  0
TABLE
  2
LTYPE
  5
5
100
AcDbSymbolTable
 70
     1
  0
LTYPE
  5
11
100
AcDbSymbolTableRecord
100
AcDbLinetypeTableRecord
  2
BYBLOCK
 70
     0
  3

 72
    65
 73
     0
 40
0.0
  0
LTYPE
  5
12
100
AcDbSymbolTableRecord
100
AcDbLinetypeTableRecord
  2
BYLAYER
 70
     0
  3

 72
    65
 73
     0
 40
0.0
  0
LTYPE
  5
13
100
AcDbSymbolTableRecord
100
AcDbLinetypeTableRecord
  2
CONTINUOUS
 70
     0
  3
Solid line
 72
    65
 73
     0
 40
0.0
  0
ENDTAB
  0
TABLE
  2
LAYER
  5
2
100
AcDbSymbolTable
 70
     4
  0
LAYER
  5
E
100
AcDbSymbolTableRecord
100
AcDbLayerTableRecord
  2
0
 70
     0
 62
     7
  6
CONTINUOUS
  0
LAYER
  5
27
100
AcDbSymbolTableRecord
100
AcDbLayerTableRecord
  2
DRAWING
 70
     0
 62
     7
  6
CONTINUOUS
  0
LAYER
  5
28
100
AcDbSymbolTableRecord
100
AcDbLayerTableRecord
  2
HATCH
 70
     0
 62
     3
  6
CONTINUOUS
  0
LAYER
  5
29
100
AcDbSymbolTableRecord
100
AcDbLayerTableRecord
  2
DIM_TEXT
 70
     0
 62
     6
  6
CONTINUOUS
  0
ENDTAB
  0
TABLE
  2
STYLE
  5
3
100
AcDbSymbolTable
 70
     3
  0
STYLE
  5
F
100
AcDbSymbolTableRecord
100
AcDbTextStyleTableRecord
  2
STANDARD
 70
     0
 40
0.0
 41
1.0
 50
0.0
 71
     0
 42
0.2
  3
txt
  4

  0
STYLE
  5
21
100
AcDbSymbolTableRecord
100
AcDbTextStyleTableRecord
  2
INFO
 70
     0
 40
0.0
 41
1.0
 50
15.0
 71
     0
 42
1.08
  3
C:\ACADWIN\FONTS\ROMANS.SHX
  4

  0
STYLE
  5
22
100
AcDbSymbolTableRecord
100
AcDbTextStyleTableRecord
  2
TITLE
 70
     0
 40
0.0
 41
1.0
 50
0.0
 71
     0
 42
2.8
  3
C:\ACADWIN\FONTS\ROMANC.SHX
  4

  0
ENDTAB
  0
TABLE
  2
VIEW
  5
6
100
AcDbSymbolTable
 70
     0
  0
ENDTAB
  0
TABLE
  2
UCS
  5
7
100
AcDbSymbolTable
 70
     0
  0
ENDTAB
  0
TABLE
  2
APPID
  5
9
100
AcDbSymbolTable
 70
     2
  0
APPID
  5
10
100
AcDbSymbolTableRecord
100
AcDbRegAppTableRecord
  2
ACAD
 70
     0
  0
APPID
  5
26
100
AcDbSymbolTableRecord
100
AcDbRegAppTableRecord
  2
ZIMM
 70
     0
  0
ENDTAB
  0
TABLE
  2
DIMSTYLE
  5
A
100
AcDbSymbolTable
 70
     1
  0
DIMSTYLE
105
6D0
100
AcDbSymbolTableRecord
100
AcDbDimStyleTableRecord
  2
STANDARD
 70
     0
  3

  4

  5

  6

  7

 40
1.0
 41
0.18
 42
0.0625
 43
0.38
 44
0.18
 45
0.0
 46
0.0
 47
0.0
 48
0.0
140
0.18
141
0.09
142
0.0
143
25.4
144
1.0
145
0.0
146
1.0
147
0.09
 71
     0
 72
     0
 73
     1
 74
     1
 75
     0
 76
     0
 77
     0
 78
     0
170
     0
171
     2
172
     0
173
     0
174
     0
175
     0
176
     0
177
     0
178
     0
270
     2
271
     4
272
     4
273
     2
274
     2
340
F
275
     0
280
     0
281
     0
282
     0
283
     1
284
     0
285
     0
286
     0
287
     3
288
     0
  0
ENDTAB
  0
TABLE
  2
BLOCK_RECORD
  5
1
100
AcDbSymbolTable
 70
     5
  0
BLOCK_RECORD
  5
17
100
AcDbSymbolTableRecord
100
AcDbBlockTableRecord
  2
*MODEL_SPACE
  0
BLOCK_RECORD
  5
14
100
AcDbSymbolTableRecord
100
AcDbBlockTableRecord
  2
*PAPER_SPACE
  0
BLOCK_RECORD
  5
1C
100
AcDbSymbolTableRecord
100
AcDbBlockTableRecord
  2
*X0
  0
BLOCK_RECORD
  5
1D
100
AcDbSymbolTableRecord
100
AcDbBlockTableRecord
  2
*X1
  0
BLOCK_RECORD
  5
1E
100
AcDbSymbolTableRecord
100
AcDbBlockTableRecord
  2
*X2
  0
BLOCK_RECORD
  5
1F
100
AcDbSymbolTableRecord
100
AcDbBlockTableRecord
  2
*X3
  0
BLOCK_RECORD
  5
20
100
AcDbSymbolTableRecord
100
AcDbBlockTableRecord
  2
*X4
  0
ENDTAB
  0
ENDSEC
  0
SECTION
  2
BLOCKS
  0
BLOCK
  5
2C
100
AcDbEntity
  8
0
100
AcDbBlockBegin
  2
*MODEL_SPACE
 70
     0
 10
0.0
 20
0.0
 30
0.0
  3
*MODEL_SPACE
  1

  0
ENDBLK
  5
2D
100
AcDbEntity
  8
0
100
AcDbBlockEnd
  0
BLOCK
  5
2A
100
AcDbEntity
 67
     1
  8
0
100
AcDbBlockBegin
  2
*PAPER_SPACE
 70
     0
 10
0.0
 20
0.0
 30
0.0
  3
*PAPER_SPACE
  1

  0
ENDBLK
  5
2B
100
AcDbEntity
 67
     1
  8
0
100
AcDbBlockEnd
  0
BLOCK
  5
30
100
AcDbEntity
  8
0
100
AcDbBlockBegin
  2
*X0
 70
     1
 10
0.0
 20
0.0
 30
0.0
  3
*X0
  1

  0
LINE
  5
31
100
AcDbEntity
  8
0
 62
     0
100
AcDbLine
 10
35.9375
 20
58.125
 30
0.0
 11
35.9375
 21
58.125
 31
0.0
  0
LINE
  5
32
100
AcDbEntity
  8
0
 62
     0
100
AcDbLine
 10
36.5625
 20
58.125
 30
0.0
 11
36.5625
 21
58.125
 31
0.0
  0
LINE
  5
33
100
AcDbEntity
  8
0
 62
     0
100
AcDbLine
 10
37.1875
 20
58.125
 30
0.0
 11
37.1875
 21
58.125
 31
0.0
  0
LINE
  5
34
100
AcDbEntity
  8
0
 62
     0
100
AcDbLine
 10
37.8125
 20
58.125
 30
0.0
 11
37.8125
 21
58.125
 31
0.0
  0
LINE
  5
35
100
AcDbEntity
  8
0
 62
     0
100
AcDbLine
 10
38.4375
 20
58.125
 30
0.0
 11
38.4375
 21
58.125
 31
0.0
  0
LINE
  5
36
100
AcDbEntity
  8
0
 62
     0
100
AcDbLine
 10
39.0625
 20
58.125
 30
0.0
 11
39.0625
 21
58.125
 31
0.0
  0
LINE
  5
37
100
AcDbEntity
  8
0
 62
     0
100
AcDbLine
 10
39.6875
 20
58.125
 30
0.0
 11
39.6875
 21
58.125
 31
0.0
  0
LINE
  5
38
100
AcDbEntity
  8
0
 62
     0
100
AcDbLine
 10
40.3125
 20
58.125
 30
0.0
 11
40.3125
 21
58.125
 31
0.0
  0
LINE
  5
39
100
AcDbEntity
  8
0
 62
     0
100
AcDbLine
 10
40.9375
 20
58.125
 30
0.0
 11
40.9375
 21
58.125
 31
0.0
  0
LINE
  5
3A
100
AcDbEntity
  8
0
 62
     0
100
AcDbLine
 10
41.5625
 20
58.125
 30
0.0
 11
41.5625
 21
58.125
 31
0.0
  0
LINE
  5
3B
100
AcDbEntity
  8
0
 62
     0
100
AcDbLine
 10
42.1875
 20
58.125
 30
0.0
 11
42.1875
 21
58.125
 31
0.0
  0
LINE
  5
3C
100
AcDbEntity
  8
0
 62
     0
100
AcDbLine
 10
42.8125
 20
58.125
 30
0.0
 11
42.8125
 21
58.125
 31
0.0
  0
LINE
  5
3D
100
AcDbEntity
  8
0
 62
     0
100
AcDbLine
 10
43.4375
 20
58.125
 30
0.0
 11
43.4375
 21
58.125
 31
0.0
  0
LINE
  5
3E
100
AcDbEntity
  8
0
 62
     0
100
AcDbLine
 10
44.0625
 20
58.125
 30
0.0
 11
44.0625
 21
58.125
 31
0.0
  0
LINE
  5
3F
100
AcDbEntity
  8
0
 62
     0
100
AcDbLine
 10
44.6875
 20
58.125
 30
0.0
 11
44.6875
 21
58.125
 31
0.0
  0
LINE
  5
40
100
AcDbEntity
  8
0
 62
     0
100
AcDbLine
 10
45.3125
 20
58.125
 30
0.0
 11
45.3125
 21
58.125
 31
0.0
  0
LINE
  5
41
100
AcDbEntity
  8
0
 62
     0
100
AcDbLine
 10
45.9375
 20
58.125
 30
0.0
 11
45.9375
 21
58.125
 31
0.0
  0
LINE
  5
42
100
AcDbEntity
  8
0
 62
     0
100
AcDbLine
 10
36.25
 20
58.75
 30
0.0
 11
36.25
 21
58.75
 31
0.0
  0
LINE
  5
43
100
AcDbEntity
  8
0
 62
     0
100
AcDbLine
 10
36.875
 20
58.75
 30
0.0
 11
36.875
 21
58.75
 31
0.0
  0
LINE
  5
44
100
AcDbEntity
  8
0
 62
     0
100
AcDbLine
 10
37.5
 20
58.75
 30
0.0
 11
37.5
 21
58.75
 31
0.0
  0
LINE
  5
45
100
AcDbEntity
  8
0
 62
     0
100
AcDbLine
 10
38.125
 20
58.75
 30
0.0
 11
38.125
 21
58.75
 31
0.0
  0
LINE
  5
46
100
AcDbEntity
  8
0
 62
     0
100
AcDbLine
 10
38.75
 20
58.75
 30
0.0
 11
38.75
 21
58.75
 31
0.0
  0
LINE
  5
47
100
AcDbEntity
  8
0
 62
     0
100
AcDbLine
 10
39.375
 20
58.75
 30
0.0
 11
39.375
 21
58.75
 31
0.0
  0
LINE
  5
48
100
AcDbEntity
  8
0
 62
     0
100
AcDbLine
 10
40.0
 20
58.75
 30
0.0
 11
40.0
 21
58.75
 31
0.0
  0
LINE
  5
49
100
AcDbEntity
  8
0
 62
     0
100
AcDbLine
 10
40.625
 20
58.75
 30
0.0
 11
40.625
 21
58.75
 31
0.0
  0
LINE
  5
4A
100
AcDbEntity
  8
0
 62
     0
100
AcDbLine
 10
41.25
 20
58.75
 30
0.0
 11
41.25
 21
58.75
 31
0.0
  0
LINE
  5
4B
100
AcDbEntity
  8
0
 62
     0
100
AcDbLine
 10
41.875
 20
58.75
 30
0.0
 11
41.875
 21
58.75
 31
0.0
  0
LINE
  5
4C
100
AcDbEntity
  8
0
 62
     0
100
AcDbLine
 10
42.5
 20
58.75
 30
0.0
 11
42.5
 21
58.75
 31
0.0
  0
LINE
  5
4D
100
AcDbEntity
  8
0
 62
     0
100
AcDbLine
 10
43.125
 20
58.75
 30
0.0
 11
43.125
 21
58.75
 31
0.0
  0
LINE
  5
4E
100
AcDbEntity
  8
0
 62
     0
100
AcDbLine
 10
43.75
 20
58.75
 30
0.0
 11
43.75
 21
58.75
 31
0.0
  0
LINE
  5
4F
100
AcDbEntity
  8
0
 62
     0
100
AcDbLine
 10
44.375
 20
58.75
 30
0.0
 11
44.375
 21
58.75
 31
0.0
  0
LINE
  5
50
100
AcDbEntity
  8
0
 62
     0
100
AcDbLine
 10
45.0
 20
58.75
 30
0.0
 11
45.0
 21
58.75
 31
0.0
  0
LINE
  5
51
100
AcDbEntity
  8
0
 62
     0
100
AcDbLine
 10
45.625
 20
58.75
 30
0.0
 11
45.625
 21
58.75
 31
0.0
  0
LINE
  5
52
100
AcDbEntity
  8
0
 62
     0
100
AcDbLine
 10
35.9375
 20
59.375
 30
0.0
 11
35.9375
 21
59.375
 31
0.0
  0
LINE
  5
53
100
AcDbEntity
  8
0
 62
     0
100
AcDbLine
 10
36.5625
 20
59.375
 30
0.0
 11
36.5625
 21
59.375
 31
0.0
  0
LINE
  5
54
100
AcDbEntity
  8
0
 62
     0
100
AcDbLine
 10
37.1875
 20
59.375
 30
0.0
 11
37.1875
 21
59.375
 31
0.0
  0
LINE
  5
55
100
AcDbEntity
  8
0
 62
     0
100
AcDbLine
 10
37.8125
 20
59.375
 30
0.0
 11
37.8125
 21
59.375
 31
0.0
  0
LINE
  5
56
100
AcDbEntity
  8
0
 62
     0
100
AcDbLine
 10
38.4375
 20
59.375
 30
0.0
 11
38.4375
 21
59.375
 31
0.0
  0
LINE
  5
57
100
AcDbEntity
  8
0
 62
     0
100
AcDbLine
 10
39.0625
 20
59.375
 30
0.0
 11
39.0625
 21
59.375
 31
0.0
  0
LINE
  5
58
100
AcDbEntity
  8
0
 62
     0
100
AcDbLine
 10
39.6875
 20
59.375
 30
0.0
 11
39.6875
 21
59.375
 31
0.0
  0
LINE
  5
59
100
AcDbEntity
  8
0
 62
     0
100
AcDbLine
 10
42.1875
 20
59.375
 30
0.0
 11
42.1875
 21
59.375
 31
0.0
  0
LINE
  5
5A
100
AcDbEntity
  8
0
 62
     0
100
AcDbLine
 10
42.8125
 20
59.375
 30
0.0
 11
42.8125
 21
59.375
 31
0.0
  0
LINE
  5
5B
100
AcDbEntity
  8
0
 62
     0
100
AcDbLine
 10
43.4375
 20
59.375
 30
0.0
 11
43.4375
 21
59.375
 31
0.0
  0
LINE
  5
5C
100
AcDbEntity
  8
0
 62
     0
100
AcDbLine
 10
44.0625
 20
59.375
 30
0.0
 11
44.0625
 21
59.375
 31
0.0
  0
LINE
  5
5D
100
AcDbEntity
  8
0
 62
     0
100
AcDbLine
 10
44.6875
 20
59.375
 30
0.0
 11
44.6875
 21
59.375
 31
0.0
  0
LINE
  5
5E
100
AcDbEntity
  8
0
 62
     0
100
AcDbLine
 10
45.3125
 20
59.375
 30
0.0
 11
45.3125
 21
59.375
 31
0.0
  0
LINE
  5
5F
100
AcDbEntity
  8
0
 62
     0
100
AcDbLine
 10
45.9375
 20
59.375
 30
0.0
 11
45.9375
 21
59.375
 31
0.0
  0
LINE
  5
60
100
AcDbEntity
  8
0
 62
     0
100
AcDbLine
 10
36.25
 20
60.0
 30
0.0
 11
36.25
 21
60.0
 31
0.0
  0
LINE
  5
61
100
AcDbEntity
  8
0
 62
     0
100
AcDbLine
 10
36.875
 20
60.0
 30
0.0
 11
36.875
 21
60.0
 31
0.0
  0
LINE
  5
62
100
AcDbEntity
  8
0
 62
     0
100
AcDbLine
 10
37.5
 20
60.0
 30
0.0
 11
37.5
 21
60.0
 31
0.0
  0
LINE
  5
63
100
AcDbEntity
  8
0
 62
     0
100
AcDbLine
 10
38.125
 20
60.0
 30
0.0
 11
38.125
 21
60.0
 31
0.0
  0
LINE
  5
64
100
AcDbEntity
  8
0
 62
     0
100
AcDbLine
 10
38.75
 20
60.0
 30
0.0
 11
38.75
 21
60.0
 31
0.0
  0
LINE
  5
65
100
AcDbEntity
  8
0
 62
     0
100
AcDbLine
 10
43.125
 20
60.0
 30
0.0
 11
43.125
 21
60.0
 31
0.0
  0
LINE
  5
66
100
AcDbEntity
  8
0
 62
     0
100
AcDbLine
 10
43.75
 20
60.0
 30
0.0
 11
43.75
 21
60.0
 31
0.0
  0
LINE
  5
67
100
AcDbEntity
  8
0
 62
     0
100
AcDbLine
 10
44.375
 20
60.0
 30
0.0
 11
44.375
 21
60.0
 31
0.0
  0
LINE
  5
68
100
AcDbEntity
  8
0
 62
     0
100
AcDbLine
 10
45.0
 20
60.0
 30
0.0
 11
45.0
 21
60.0
 31
0.0
  0
LINE
  5
69
100
AcDbEntity
  8
0
 62
     0
100
AcDbLine
 10
45.625
 20
60.0
 30
0.0
 11
45.625
 21
60.0
 31
0.0
  0
LINE
  5
6A
100
AcDbEntity
  8
0
 62
     0
100
AcDbLine
 10
35.9375
 20
60.625
 30
0.0
 11
35.9375
 21
60.625
 31
0.0
  0
LINE
  5
6B
100
AcDbEntity
  8
0
 62
     0
100
AcDbLine
 10
36.5625
 20
60.625
 30
0.0
 11
36.5625
 21
60.625
 31
0.0
  0
LINE
  5
6C
100
AcDbEntity
  8
0
 62
     0
100
AcDbLine
 10
37.1875
 20
60.625
 30
0.0
 11
37.1875
 21
60.625
 31
0.0
  0
LINE
  5
6D
100
AcDbEntity
  8
0
 62
     0
100
AcDbLine
 10
37.8125
 20
60.625
 30
0.0
 11
37.8125
 21
60.625
 31
0.0
  0
LINE
  5
6E
100
AcDbEntity
  8
0
 62
     0
100
AcDbLine
 10
44.0625
 20
60.625
 30
0.0
 11
44.0625
 21
60.625
 31
0.0
  0
LINE
  5
6F
100
AcDbEntity
  8
0
 62
     0
100
AcDbLine
 10
44.6875
 20
60.625
 30
0.0
 11
44.6875
 21
60.625
 31
0.0
  0
LINE
  5
70
100
AcDbEntity
  8
0
 62
     0
100
AcDbLine
 10
45.3125
 20
60.625
 30
0.0
 11
45.3125
 21
60.625
 31
0.0
  0
LINE
  5
71
100
AcDbEntity
  8
0
 62
     0
100
AcDbLine
 10
45.9375
 20
60.625
 30
0.0
 11
45.9375
 21
60.625
 31
0.0
  0
LINE
  5
72
100
AcDbEntity
  8
0
 62
     0
100
AcDbLine
 10
36.25
 20
61.25
 30
0.0
 11
36.25
 21
61.25
 31
0.0
  0
LINE
  5
73
100
AcDbEntity
  8
0
 62
     0
100
AcDbLine
 10
36.875
 20
61.25
 30
0.0
 11
36.875
 21
61.25
 31
0.0
  0
LINE
  5
74
100
AcDbEntity
  8
0
 62
     0
100
AcDbLine
 10
37.5
 20
61.25
 30
0.0
 11
37.5
 21
61.25
 31
0.0
  0
LINE
  5
75
100
AcDbEntity
  8
0
 62
     0
100
AcDbLine
 10
44.375
 20
61.25
 30
0.0
 11
44.375
 21
61.25
 31
0.0
  0
LINE
  5
76
100
AcDbEntity
  8
0
 62
     0
100
AcDbLine
 10
45.0
 20
61.25
 30
0.0
 11
45.0
 21
61.25
 31
0.0
  0
LINE
  5
77
100
AcDbEntity
  8
0
 62
     0
100
AcDbLine
 10
45.625
 20
61.25
 30
0.0
 11
45.625
 21
61.25
 31
0.0
  0
LINE
  5
78
100
AcDbEntity
  8
0
 62
     0
100
AcDbLine
 10
35.9375
 20
61.875
 30
0.0
 11
35.9375
 21
61.875
 31
0.0
  0
LINE
  5
79
100
AcDbEntity
  8
0
 62
     0
100
AcDbLine
 10
36.5625
 20
61.875
 30
0.0
 11
36.5625
 21
61.875
 31
0.0
  0
LINE
  5
7A
100
AcDbEntity
  8
0
 62
     0
100
AcDbLine
 10
37.1875
 20
61.875
 30
0.0
 11
37.1875
 21
61.875
 31
0.0
  0
LINE
  5
7B
100
AcDbEntity
  8
0
 62
     0
100
AcDbLine
 10
37.8125
 20
61.875
 30
0.0
 11
37.8125
 21
61.875
 31
0.0
  0
LINE
  5
7C
100
AcDbEntity
  8
0
 62
     0
100
AcDbLine
 10
44.0625
 20
61.875
 30
0.0
 11
44.0625
 21
61.875
 31
0.0
  0
LINE
  5
7D
100
AcDbEntity
  8
0
 62
     0
100
AcDbLine
 10
44.6875
 20
61.875
 30
0.0
 11
44.6875
 21
61.875
 31
0.0
  0
LINE
  5
7E
100
AcDbEntity
  8
0
 62
     0
100
AcDbLine
 10
45.3125
 20
61.875
 30
0.0
 11
45.3125
 21
61.875
 31
0.0
  0
LINE
  5
7F
100
AcDbEntity
  8
0
 62
     0
100
AcDbLine
 10
45.9375
 20
61.875
 30
0.0
 11
45.9375
 21
61.875
 31
0.0
  0
LINE
  5
80
100
AcDbEntity
  8
0
 62
     0
100
AcDbLine
 10
36.25
 20
57.5
 30
0.0
 11
36.25
 21
57.5
 31
0.0
  0
LINE
  5
81
100
AcDbEntity
  8
0
 62
     0
100
AcDbLine
 10
36.875
 20
57.5
 30
0.0
 11
36.875
 21
57.5
 31
0.0
  0
LINE
  5
82
100
AcDbEntity
  8
0
 62
     0
100
AcDbLine
 10
37.5
 20
57.5
 30
0.0
 11
37.5
 21
57.5
 31
0.0
  0
LINE
  5
83
100
AcDbEntity
  8
0
 62
     0
100
AcDbLine
 10
38.125
 20
57.5
 30
0.0
 11
38.125
 21
57.5
 31
0.0
  0
LINE
  5
84
100
AcDbEntity
  8
0
 62
     0
100
AcDbLine
 10
38.75
 20
57.5
 30
0.0
 11
38.75
 21
57.5
 31
0.0
  0
LINE
  5
85
100
AcDbEntity
  8
0
 62
     0
100
AcDbLine
 10
39.375
 20
57.5
 30
0.0
 11
39.375
 21
57.5
 31
0.0
  0
LINE
  5
86
100
AcDbEntity
  8
0
 62
     0
100
AcDbLine
 10
40.0
 20
57.5
 30
0.0
 11
40.0
 21
57.5
 31
0.0
  0
LINE
  5
87
100
AcDbEntity
  8
0
 62
     0
100
AcDbLine
 10
40.625
 20
57.5
 30
0.0
 11
40.625
 21
57.5
 31
0.0
  0
LINE
  5
88
100
AcDbEntity
  8
0
 62
     0
100
AcDbLine
 10
41.25
 20
57.5
 30
0.0
 11
41.25
 21
57.5
 31
0.0
  0
LINE
  5
89
100
AcDbEntity
  8
0
 62
     0
100
AcDbLine
 10
41.875
 20
57.5
 30
0.0
 11
41.875
 21
57.5
 31
0.0
  0
LINE
  5
8A
100
AcDbEntity
  8
0
 62
     0
100
AcDbLine
 10
42.5
 20
57.5
 30
0.0
 11
42.5
 21
57.5
 31
0.0
  0
LINE
  5
8B
100
AcDbEntity
  8
0
 62
     0
100
AcDbLine
 10
43.125
 20
57.5
 30
0.0
 11
43.125
 21
57.5
 31
0.0
  0
LINE
  5
8C
100
AcDbEntity
  8
0
 62
     0
100
AcDbLine
 10
43.75
 20
57.5
 30
0.0
 11
43.75
 21
57.5
 31
0.0
  0
LINE
  5
8D
100
AcDbEntity
  8
0
 62
     0
100
AcDbLine
 10
44.375
 20
57.5
 30
0.0
 11
44.375
 21
57.5
 31
0.0
  0
LINE
  5
8E
100
AcDbEntity
  8
0
 62
     0
100
AcDbLine
 10
45.0
 20
57.5
 30
0.0
 11
45.0
 21
57.5
 31
0.0
  0
LINE
  5
8F
100
AcDbEntity
  8
0
 62
     0
100
AcDbLine
 10
45.625
 20
57.5
 30
0.0
 11
45.625
 21
57.5
 31
0.0
  0
LINE
  5
90
100
AcDbEntity
  8
0
 62
     0
100
AcDbLine
 10
35.9375
 20
56.875
 30
0.0
 11
35.9375
 21
56.875
 31
0.0
  0
LINE
  5
91
100
AcDbEntity
  8
0
 62
     0
100
AcDbLine
 10
36.5625
 20
56.875
 30
0.0
 11
36.5625
 21
56.875
 31
0.0
  0
LINE
  5
92
100
AcDbEntity
  8
0
 62
     0
100
AcDbLine
 10
37.1875
 20
56.875
 30
0.0
 11
37.1875
 21
56.875
 31
0.0
  0
LINE
  5
93
100
AcDbEntity
  8
0
 62
     0
100
AcDbLine
 10
37.8125
 20
56.875
 30
0.0
 11
37.8125
 21
56.875
 31
0.0
  0
LINE
  5
94
100
AcDbEntity
  8
0
 62
     0
100
AcDbLine
 10
38.4375
 20
56.875
 30
0.0
 11
38.4375
 21
56.875
 31
0.0
  0
LINE
  5
95
100
AcDbEntity
  8
0
 62
     0
100
AcDbLine
 10
39.0625
 20
56.875
 30
0.0
 11
39.0625
 21
56.875
 31
0.0
  0
LINE
  5
96
100
AcDbEntity
  8
0
 62
     0
100
AcDbLine
 10
39.6875
 20
56.875
 30
0.0
 11
39.6875
 21
56.875
 31
0.0
  0
LINE
  5
97
100
AcDbEntity
  8
0
 62
     0
100
AcDbLine
 10
40.3125
 20
56.875
 30
0.0
 11
40.3125
 21
56.875
 31
0.0
  0
LINE
  5
98
100
AcDbEntity
  8
0
 62
     0
100
AcDbLine
 10
40.9375
 20
56.875
 30
0.0
 11
40.9375
 21
56.875
 31
0.0
  0
LINE
  5
99
100
AcDbEntity
  8
0
 62
     0
100
AcDbLine
 10
41.5625
 20
56.875
 30
0.0
 11
41.5625
 21
56.875
 31
0.0
  0
LINE
  5
9A
100
AcDbEntity
  8
0
 62
     0
100
AcDbLine
 10
42.1875
 20
56.875
 30
0.0
 11
42.1875
 21
56.875
 31
0.0
  0
LINE
  5
9B
100
AcDbEntity
  8
0
 62
     0
100
AcDbLine
 10
42.8125
 20
56.875
 30
0.0
 11
42.8125
 21
56.875
 31
0.0
  0
LINE
  5
9C
100
AcDbEntity
  8
0
 62
     0
100
AcDbLine
 10
43.4375
 20
56.875
 30
0.0
 11
43.4375
 21
56.875
 31
0.0
  0
LINE
  5
9D
100
AcDbEntity
  8
0
 62
     0
100
AcDbLine
 10
44.0625
 20
56.875
 30
0.0
 11
44.0625
 21
56.875
 31
0.0
  0
LINE
  5
9E
100
AcDbEntity
  8
0
 62
     0
100
AcDbLine
 10
44.6875
 20
56.875
 30
0.0
 11
44.6875
 21
56.875
 31
0.0
  0
LINE
  5
9F
100
AcDbEntity
  8
0
 62
     0
100
AcDbLine
 10
45.3125
 20
56.875
 30
0.0
 11
45.3125
 21
56.875
 31
0.0
  0
LINE
  5
A0
100
AcDbEntity
  8
0
 62
     0
100
AcDbLine
 10
45.9375
 20
56.875
 30
0.0
 11
45.9375
 21
56.875
 31
0.0
  0
LINE
  5
A1
100
AcDbEntity
  8
0
 62
     0
100
AcDbLine
 10
36.25
 20
56.25
 30
0.0
 11
36.25
 21
56.25
 31
0.0
  0
LINE
  5
A2
100
AcDbEntity
  8
0
 62
     0
100
AcDbLine
 10
36.875
 20
56.25
 30
0.0
 11
36.875
 21
56.25
 31
0.0
  0
LINE
  5
A3
100
AcDbEntity
  8
0
 62
     0
100
AcDbLine
 10
37.5
 20
56.25
 30
0.0
 11
37.5
 21
56.25
 31
0.0
  0
LINE
  5
A4
100
AcDbEntity
  8
0
 62
     0
100
AcDbLine
 10
38.125
 20
56.25
 30
0.0
 11
38.125
 21
56.25
 31
0.0
  0
LINE
  5
A5
100
AcDbEntity
  8
0
 62
     0
100
AcDbLine
 10
38.75
 20
56.25
 30
0.0
 11
38.75
 21
56.25
 31
0.0
  0
LINE
  5
A6
100
AcDbEntity
  8
0
 62
     0
100
AcDbLine
 10
39.375
 20
56.25
 30
0.0
 11
39.375
 21
56.25
 31
0.0
  0
LINE
  5
A7
100
AcDbEntity
  8
0
 62
     0
100
AcDbLine
 10
40.0
 20
56.25
 30
0.0
 11
40.0
 21
56.25
 31
0.0
  0
LINE
  5
A8
100
AcDbEntity
  8
0
 62
     0
100
AcDbLine
 10
40.625
 20
56.25
 30
0.0
 11
40.625
 21
56.25
 31
0.0
  0
LINE
  5
A9
100
AcDbEntity
  8
0
 62
     0
100
AcDbLine
 10
41.25
 20
56.25
 30
0.0
 11
41.25
 21
56.25
 31
0.0
  0
LINE
  5
AA
100
AcDbEntity
  8
0
 62
     0
100
AcDbLine
 10
41.875
 20
56.25
 30
0.0
 11
41.875
 21
56.25
 31
0.0
  0
LINE
  5
AB
100
AcDbEntity
  8
0
 62
     0
100
AcDbLine
 10
42.5
 20
56.25
 30
0.0
 11
42.5
 21
56.25
 31
0.0
  0
LINE
  5
AC
100
AcDbEntity
  8
0
 62
     0
100
AcDbLine
 10
43.125
 20
56.25
 30
0.0
 11
43.125
 21
56.25
 31
0.0
  0
LINE
  5
AD
100
AcDbEntity
  8
0
 62
     0
100
AcDbLine
 10
43.75
 20
56.25
 30
0.0
 11
43.75
 21
56.25
 31
0.0
  0
LINE
  5
AE
100
AcDbEntity
  8
0
 62
     0
100
AcDbLine
 10
44.375
 20
56.25
 30
0.0
 11
44.375
 21
56.25
 31
0.0
  0
LINE
  5
AF
100
AcDbEntity
  8
0
 62
     0
100
AcDbLine
 10
45.0
 20
56.25
 30
0.0
 11
45.0
 21
56.25
 31
0.0
  0
LINE
  5
B0
100
AcDbEntity
  8
0
 62
     0
100
AcDbLine
 10
45.625
 20
56.25
 30
0.0
 11
45.625
 21
56.25
 31
0.0
  0
LINE
  5
B1
100
AcDbEntity
  8
0
 62
     0
100
AcDbLine
 10
35.9375
 20
55.625
 30
0.0
 11
35.9375
 21
55.625
 31
0.0
  0
LINE
  5
B2
100
AcDbEntity
  8
0
 62
     0
100
AcDbLine
 10
36.5625
 20
55.625
 30
0.0
 11
36.5625
 21
55.625
 31
0.0
  0
LINE
  5
B3
100
AcDbEntity
  8
0
 62
     0
100
AcDbLine
 10
37.1875
 20
55.625
 30
0.0
 11
37.1875
 21
55.625
 31
0.0
  0
LINE
  5
B4
100
AcDbEntity
  8
0
 62
     0
100
AcDbLine
 10
37.8125
 20
55.625
 30
0.0
 11
37.8125
 21
55.625
 31
0.0
  0
LINE
  5
B5
100
AcDbEntity
  8
0
 62
     0
100
AcDbLine
 10
38.4375
 20
55.625
 30
0.0
 11
38.4375
 21
55.625
 31
0.0
  0
LINE
  5
B6
100
AcDbEntity
  8
0
 62
     0
100
AcDbLine
 10
39.0625
 20
55.625
 30
0.0
 11
39.0625
 21
55.625
 31
0.0
  0
LINE
  5
B7
100
AcDbEntity
  8
0
 62
     0
100
AcDbLine
 10
39.6875
 20
55.625
 30
0.0
 11
39.6875
 21
55.625
 31
0.0
  0
LINE
  5
B8
100
AcDbEntity
  8
0
 62
     0
100
AcDbLine
 10
40.3125
 20
55.625
 30
0.0
 11
40.3125
 21
55.625
 31
0.0
  0
LINE
  5
B9
100
AcDbEntity
  8
0
 62
     0
100
AcDbLine
 10
40.9375
 20
55.625
 30
0.0
 11
40.9375
 21
55.625
 31
0.0
  0
LINE
  5
BA
100
AcDbEntity
  8
0
 62
     0
100
AcDbLine
 10
41.5625
 20
55.625
 30
0.0
 11
41.5625
 21
55.625
 31
0.0
  0
LINE
  5
BB
100
AcDbEntity
  8
0
 62
     0
100
AcDbLine
 10
42.1875
 20
55.625
 30
0.0
 11
42.1875
 21
55.625
 31
0.0
  0
LINE
  5
BC
100
AcDbEntity
  8
0
 62
     0
100
AcDbLine
 10
42.8125
 20
55.625
 30
0.0
 11
42.8125
 21
55.625
 31
0.0
  0
LINE
  5
BD
100
AcDbEntity
  8
0
 62
     0
100
AcDbLine
 10
43.4375
 20
55.625
 30
0.0
 11
43.4375
 21
55.625
 31
0.0
  0
LINE
  5
BE
100
AcDbEntity
  8
0
 62
     0
100
AcDbLine
 10
44.0625
 20
55.625
 30
0.0
 11
44.0625
 21
55.625
 31
0.0
  0
LINE
  5
BF
100
AcDbEntity
  8
0
 62
     0
100
AcDbLine
 10
44.6875
 20
55.625
 30
0.0
 11
44.6875
 21
55.625
 31
0.0
  0
LINE
  5
C0
100
AcDbEntity
  8
0
 62
     0
100
AcDbLine
 10
45.3125
 20
55.625
 30
0.0
 11
45.3125
 21
55.625
 31
0.0
  0
LINE
  5
C1
100
AcDbEntity
  8
0
 62
     0
100
AcDbLine
 10
45.9375
 20
55.625
 30
0.0
 11
45.9375
 21
55.625
 31
0.0
  0
LINE
  5
C2
100
AcDbEntity
  8
0
 62
     0
100
AcDbLine
 10
36.25
 20
55.0
 30
0.0
 11
36.25
 21
55.0
 31
0.0
  0
LINE
  5
C3
100
AcDbEntity
  8
0
 62
     0
100
AcDbLine
 10
36.875
 20
55.0
 30
0.0
 11
36.875
 21
55.0
 31
0.0
  0
LINE
  5
C4
100
AcDbEntity
  8
0
 62
     0
100
AcDbLine
 10
37.5
 20
55.0
 30
0.0
 11
37.5
 21
55.0
 31
0.0
  0
LINE
  5
C5
100
AcDbEntity
  8
0
 62
     0
100
AcDbLine
 10
38.125
 20
55.0
 30
0.0
 11
38.125
 21
55.0
 31
0.0
  0
LINE
  5
C6
100
AcDbEntity
  8
0
 62
     0
100
AcDbLine
 10
38.75
 20
55.0
 30
0.0
 11
38.75
 21
55.0
 31
0.0
  0
LINE
  5
C7
100
AcDbEntity
  8
0
 62
     0
100
AcDbLine
 10
39.375
 20
55.0
 30
0.0
 11
39.375
 21
55.0
 31
0.0
  0
LINE
  5
C8
100
AcDbEntity
  8
0
 62
     0
100
AcDbLine
 10
40.0
 20
55.0
 30
0.0
 11
40.0
 21
55.0
 31
0.0
  0
LINE
  5
C9
100
AcDbEntity
  8
0
 62
     0
100
AcDbLine
 10
40.625
 20
55.0
 30
0.0
 11
40.625
 21
55.0
 31
0.0
  0
LINE
  5
CA
100
AcDbEntity
  8
0
 62
     0
100
AcDbLine
 10
41.25
 20
55.0
 30
0.0
 11
41.25
 21
55.0
 31
0.0
  0
LINE
  5
CB
100
AcDbEntity
  8
0
 62
     0
100
AcDbLine
 10
41.875
 20
55.0
 30
0.0
 11
41.875
 21
55.0
 31
0.0
  0
LINE
  5
CC
100
AcDbEntity
  8
0
 62
     0
100
AcDbLine
 10
42.5
 20
55.0
 30
0.0
 11
42.5
 21
55.0
 31
0.0
  0
LINE
  5
CD
100
AcDbEntity
  8
0
 62
     0
100
AcDbLine
 10
43.125
 20
55.0
 30
0.0
 11
43.125
 21
55.0
 31
0.0
  0
LINE
  5
CE
100
AcDbEntity
  8
0
 62
     0
100
AcDbLine
 10
43.75
 20
55.0
 30
0.0
 11
43.75
 21
55.0
 31
0.0
  0
LINE
  5
CF
100
AcDbEntity
  8
0
 62
     0
100
AcDbLine
 10
44.375
 20
55.0
 30
0.0
 11
44.375
 21
55.0
 31
0.0
  0
LINE
  5
D0
100
AcDbEntity
  8
0
 62
     0
100
AcDbLine
 10
45.0
 20
55.0
 30
0.0
 11
45.0
 21
55.0
 31
0.0
  0
LINE
  5
D1
100
AcDbEntity
  8
0
 62
     0
100
AcDbLine
 10
45.625
 20
55.0
 30
0.0
 11
45.625
 21
55.0
 31
0.0
  0
ENDBLK
  5
D2
100
AcDbEntity
  8
0
100
AcDbBlockEnd
  0
BLOCK
  5
D3
100
AcDbEntity
  8
0
100
AcDbBlockBegin
  2
*X1
 70
     1
 10
0.0
 20
0.0
 30
0.0
  3
*X1
  1

  0
LINE
  5
D4
100
AcDbEntity
  8
0
 62
     0
100
AcDbLine
 10
46.5625
 20
58.125
 30
0.0
 11
46.5625
 21
58.125
 31
0.0
  0
LINE
  5
D5
100
AcDbEntity
  8
0
 62
     0
100
AcDbLine
 10
47.1875
 20
58.125
 30
0.0
 11
47.1875
 21
58.125
 31
0.0
  0
LINE
  5
D6
100
AcDbEntity
  8
0
 62
     0
100
AcDbLine
 10
47.8125
 20
58.125
 30
0.0
 11
47.8125
 21
58.125
 31
0.0
  0
LINE
  5
D7
100
AcDbEntity
  8
0
 62
     0
100
AcDbLine
 10
48.4375
 20
58.125
 30
0.0
 11
48.4375
 21
58.125
 31
0.0
  0
LINE
  5
D8
100
AcDbEntity
  8
0
 62
     0
100
AcDbLine
 10
49.0625
 20
58.125
 30
0.0
 11
49.0625
 21
58.125
 31
0.0
  0
LINE
  5
D9
100
AcDbEntity
  8
0
 62
     0
100
AcDbLine
 10
49.6875
 20
58.125
 30
0.0
 11
49.6875
 21
58.125
 31
0.0
  0
LINE
  5
DA
100
AcDbEntity
  8
0
 62
     0
100
AcDbLine
 10
50.3125
 20
58.125
 30
0.0
 11
50.3125
 21
58.125
 31
0.0
  0
LINE
  5
DB
100
AcDbEntity
  8
0
 62
     0
100
AcDbLine
 10
50.9375
 20
58.125
 30
0.0
 11
50.9375
 21
58.125
 31
0.0
  0
LINE
  5
DC
100
AcDbEntity
  8
0
 62
     0
100
AcDbLine
 10
51.5625
 20
58.125
 30
0.0
 11
51.5625
 21
58.125
 31
0.0
  0
LINE
  5
DD
100
AcDbEntity
  8
0
 62
     0
100
AcDbLine
 10
52.1875
 20
58.125
 30
0.0
 11
52.1875
 21
58.125
 31
0.0
  0
LINE
  5
DE
100
AcDbEntity
  8
0
 62
     0
100
AcDbLine
 10
52.8125
 20
58.125
 30
0.0
 11
52.8125
 21
58.125
 31
0.0
  0
LINE
  5
DF
100
AcDbEntity
  8
0
 62
     0
100
AcDbLine
 10
53.4375
 20
58.125
 30
0.0
 11
53.4375
 21
58.125
 31
0.0
  0
LINE
  5
E0
100
AcDbEntity
  8
0
 62
     0
100
AcDbLine
 10
54.0625
 20
58.125
 30
0.0
 11
54.0625
 21
58.125
 31
0.0
  0
LINE
  5
E1
100
AcDbEntity
  8
0
 62
     0
100
AcDbLine
 10
54.6875
 20
58.125
 30
0.0
 11
54.6875
 21
58.125
 31
0.0
  0
LINE
  5
E2
100
AcDbEntity
  8
0
 62
     0
100
AcDbLine
 10
55.3125
 20
58.125
 30
0.0
 11
55.3125
 21
58.125
 31
0.0
  0
LINE
  5
E3
100
AcDbEntity
  8
0
 62
     0
100
AcDbLine
 10
55.9375
 20
58.125
 30
0.0
 11
55.9375
 21
58.125
 31
0.0
  0
LINE
  5
E4
100
AcDbEntity
  8
0
 62
     0
100
AcDbLine
 10
46.25
 20
58.75
 30
0.0
 11
46.25
 21
58.75
 31
0.0
  0
LINE
  5
E5
100
AcDbEntity
  8
0
 62
     0
100
AcDbLine
 10
46.875
 20
58.75
 30
0.0
 11
46.875
 21
58.75
 31
0.0
  0
LINE
  5
E6
100
AcDbEntity
  8
0
 62
     0
100
AcDbLine
 10
47.5
 20
58.75
 30
0.0
 11
47.5
 21
58.75
 31
0.0
  0
LINE
  5
E7
100
AcDbEntity
  8
0
 62
     0
100
AcDbLine
 10
48.125
 20
58.75
 30
0.0
 11
48.125
 21
58.75
 31
0.0
  0
LINE
  5
E8
100
AcDbEntity
  8
0
 62
     0
100
AcDbLine
 10
48.75
 20
58.75
 30
0.0
 11
48.75
 21
58.75
 31
0.0
  0
LINE
  5
E9
100
AcDbEntity
  8
0
 62
     0
100
AcDbLine
 10
49.375
 20
58.75
 30
0.0
 11
49.375
 21
58.75
 31
0.0
  0
LINE
  5
EA
100
AcDbEntity
  8
0
 62
     0
100
AcDbLine
 10
50.0
 20
58.75
 30
0.0
 11
50.0
 21
58.75
 31
0.0
  0
LINE
  5
EB
100
AcDbEntity
  8
0
 62
     0
100
AcDbLine
 10
50.625
 20
58.75
 30
0.0
 11
50.625
 21
58.75
 31
0.0
  0
LINE
  5
EC
100
AcDbEntity
  8
0
 62
     0
100
AcDbLine
 10
51.25
 20
58.75
 30
0.0
 11
51.25
 21
58.75
 31
0.0
  0
LINE
  5
ED
100
AcDbEntity
  8
0
 62
     0
100
AcDbLine
 10
51.875
 20
58.75
 30
0.0
 11
51.875
 21
58.75
 31
0.0
  0
LINE
  5
EE
100
AcDbEntity
  8
0
 62
     0
100
AcDbLine
 10
52.5
 20
58.75
 30
0.0
 11
52.5
 21
58.75
 31
0.0
  0
LINE
  5
EF
100
AcDbEntity
  8
0
 62
     0
100
AcDbLine
 10
53.125
 20
58.75
 30
0.0
 11
53.125
 21
58.75
 31
0.0
  0
LINE
  5
F0
100
AcDbEntity
  8
0
 62
     0
100
AcDbLine
 10
53.75
 20
58.75
 30
0.0
 11
53.75
 21
58.75
 31
0.0
  0
LINE
  5
F1
100
AcDbEntity
  8
0
 62
     0
100
AcDbLine
 10
54.375
 20
58.75
 30
0.0
 11
54.375
 21
58.75
 31
0.0
  0
LINE
  5
F2
100
AcDbEntity
  8
0
 62
     0
100
AcDbLine
 10
55.0
 20
58.75
 30
0.0
 11
55.0
 21
58.75
 31
0.0
  0
LINE
  5
F3
100
AcDbEntity
  8
0
 62
     0
100
AcDbLine
 10
55.625
 20
58.75
 30
0.0
 11
55.625
 21
58.75
 31
0.0
  0
LINE
  5
F4
100
AcDbEntity
  8
0
 62
     0
100
AcDbLine
 10
46.5625
 20
59.375
 30
0.0
 11
46.5625
 21
59.375
 31
0.0
  0
LINE
  5
F5
100
AcDbEntity
  8
0
 62
     0
100
AcDbLine
 10
47.1875
 20
59.375
 30
0.0
 11
47.1875
 21
59.375
 31
0.0
  0
LINE
  5
F6
100
AcDbEntity
  8
0
 62
     0
100
AcDbLine
 10
47.8125
 20
59.375
 30
0.0
 11
47.8125
 21
59.375
 31
0.0
  0
LINE
  5
F7
100
AcDbEntity
  8
0
 62
     0
100
AcDbLine
 10
48.4375
 20
59.375
 30
0.0
 11
48.4375
 21
59.375
 31
0.0
  0
LINE
  5
F8
100
AcDbEntity
  8
0
 62
     0
100
AcDbLine
 10
49.0625
 20
59.375
 30
0.0
 11
49.0625
 21
59.375
 31
0.0
  0
LINE
  5
F9
100
AcDbEntity
  8
0
 62
     0
100
AcDbLine
 10
49.6875
 20
59.375
 30
0.0
 11
49.6875
 21
59.375
 31
0.0
  0
LINE
  5
FA
100
AcDbEntity
  8
0
 62
     0
100
AcDbLine
 10
52.1875
 20
59.375
 30
0.0
 11
52.1875
 21
59.375
 31
0.0
  0
LINE
  5
FB
100
AcDbEntity
  8
0
 62
     0
100
AcDbLine
 10
52.8125
 20
59.375
 30
0.0
 11
52.8125
 21
59.375
 31
0.0
  0
LINE
  5
FC
100
AcDbEntity
  8
0
 62
     0
100
AcDbLine
 10
53.4375
 20
59.375
 30
0.0
 11
53.4375
 21
59.375
 31
0.0
  0
LINE
  5
FD
100
AcDbEntity
  8
0
 62
     0
100
AcDbLine
 10
54.0625
 20
59.375
 30
0.0
 11
54.0625
 21
59.375
 31
0.0
  0
LINE
  5
FE
100
AcDbEntity
  8
0
 62
     0
100
AcDbLine
 10
54.6875
 20
59.375
 30
0.0
 11
54.6875
 21
59.375
 31
0.0
  0
LINE
  5
FF
100
AcDbEntity
  8
0
 62
     0
100
AcDbLine
 10
55.3125
 20
59.375
 30
0.0
 11
55.3125
 21
59.375
 31
0.0
  0
LINE
  5
100
100
AcDbEntity
  8
0
 62
     0
100
AcDbLine
 10
55.9375
 20
59.375
 30
0.0
 11
55.9375
 21
59.375
 31
0.0
  0
LINE
  5
101
100
AcDbEntity
  8
0
 62
     0
100
AcDbLine
 10
46.25
 20
60.0
 30
0.0
 11
46.25
 21
60.0
 31
0.0
  0
LINE
  5
102
100
AcDbEntity
  8
0
 62
     0
100
AcDbLine
 10
46.875
 20
60.0
 30
0.0
 11
46.875
 21
60.0
 31
0.0
  0
LINE
  5
103
100
AcDbEntity
  8
0
 62
     0
100
AcDbLine
 10
47.5
 20
60.0
 30
0.0
 11
47.5
 21
60.0
 31
0.0
  0
LINE
  5
104
100
AcDbEntity
  8
0
 62
     0
100
AcDbLine
 10
48.125
 20
60.0
 30
0.0
 11
48.125
 21
60.0
 31
0.0
  0
LINE
  5
105
100
AcDbEntity
  8
0
 62
     0
100
AcDbLine
 10
48.75
 20
60.0
 30
0.0
 11
48.75
 21
60.0
 31
0.0
  0
LINE
  5
106
100
AcDbEntity
  8
0
 62
     0
100
AcDbLine
 10
53.125
 20
60.0
 30
0.0
 11
53.125
 21
60.0
 31
0.0
  0
LINE
  5
107
100
AcDbEntity
  8
0
 62
     0
100
AcDbLine
 10
53.75
 20
60.0
 30
0.0
 11
53.75
 21
60.0
 31
0.0
  0
LINE
  5
108
100
AcDbEntity
  8
0
 62
     0
100
AcDbLine
 10
54.375
 20
60.0
 30
0.0
 11
54.375
 21
60.0
 31
0.0
  0
LINE
  5
109
100
AcDbEntity
  8
0
 62
     0
100
AcDbLine
 10
55.0
 20
60.0
 30
0.0
 11
55.0
 21
60.0
 31
0.0
  0
LINE
  5
10A
100
AcDbEntity
  8
0
 62
     0
100
AcDbLine
 10
55.625
 20
60.0
 30
0.0
 11
55.625
 21
60.0
 31
0.0
  0
LINE
  5
10B
100
AcDbEntity
  8
0
 62
     0
100
AcDbLine
 10
46.5625
 20
60.625
 30
0.0
 11
46.5625
 21
60.625
 31
0.0
  0
LINE
  5
10C
100
AcDbEntity
  8
0
 62
     0
100
AcDbLine
 10
47.1875
 20
60.625
 30
0.0
 11
47.1875
 21
60.625
 31
0.0
  0
LINE
  5
10D
100
AcDbEntity
  8
0
 62
     0
100
AcDbLine
 10
47.8125
 20
60.625
 30
0.0
 11
47.8125
 21
60.625
 31
0.0
  0
LINE
  5
10E
100
AcDbEntity
  8
0
 62
     0
100
AcDbLine
 10
54.0625
 20
60.625
 30
0.0
 11
54.0625
 21
60.625
 31
0.0
  0
LINE
  5
10F
100
AcDbEntity
  8
0
 62
     0
100
AcDbLine
 10
54.6875
 20
60.625
 30
0.0
 11
54.6875
 21
60.625
 31
0.0
  0
LINE
  5
110
100
AcDbEntity
  8
0
 62
     0
100
AcDbLine
 10
55.3125
 20
60.625
 30
0.0
 11
55.3125
 21
60.625
 31
0.0
  0
LINE
  5
111
100
AcDbEntity
  8
0
 62
     0
100
AcDbLine
 10
55.9375
 20
60.625
 30
0.0
 11
55.9375
 21
60.625
 31
0.0
  0
LINE
  5
112
100
AcDbEntity
  8
0
 62
     0
100
AcDbLine
 10
46.25
 20
61.25
 30
0.0
 11
46.25
 21
61.25
 31
0.0
  0
LINE
  5
113
100
AcDbEntity
  8
0
 62
     0
100
AcDbLine
 10
46.875
 20
61.25
 30
0.0
 11
46.875
 21
61.25
 31
0.0
  0
LINE
  5
114
100
AcDbEntity
  8
0
 62
     0
100
AcDbLine
 10
47.5
 20
61.25
 30
0.0
 11
47.5
 21
61.25
 31
0.0
  0
LINE
  5
115
100
AcDbEntity
  8
0
 62
     0
100
AcDbLine
 10
54.375
 20
61.25
 30
0.0
 11
54.375
 21
61.25
 31
0.0
  0
LINE
  5
116
100
AcDbEntity
  8
0
 62
     0
100
AcDbLine
 10
55.0
 20
61.25
 30
0.0
 11
55.0
 21
61.25
 31
0.0
  0
LINE
  5
117
100
AcDbEntity
  8
0
 62
     0
100
AcDbLine
 10
55.625
 20
61.25
 30
0.0
 11
55.625
 21
61.25
 31
0.0
  0
LINE
  5
118
100
AcDbEntity
  8
0
 62
     0
100
AcDbLine
 10
46.5625
 20
61.875
 30
0.0
 11
46.5625
 21
61.875
 31
0.0
  0
LINE
  5
119
100
AcDbEntity
  8
0
 62
     0
100
AcDbLine
 10
47.1875
 20
61.875
 30
0.0
 11
47.1875
 21
61.875
 31
0.0
  0
LINE
  5
11A
100
AcDbEntity
  8
0
 62
     0
100
AcDbLine
 10
47.8125
 20
61.875
 30
0.0
 11
47.8125
 21
61.875
 31
0.0
  0
LINE
  5
11B
100
AcDbEntity
  8
0
 62
     0
100
AcDbLine
 10
54.0625
 20
61.875
 30
0.0
 11
54.0625
 21
61.875
 31
0.0
  0
LINE
  5
11C
100
AcDbEntity
  8
0
 62
     0
100
AcDbLine
 10
54.6875
 20
61.875
 30
0.0
 11
54.6875
 21
61.875
 31
0.0
  0
LINE
  5
11D
100
AcDbEntity
  8
0
 62
     0
100
AcDbLine
 10
55.3125
 20
61.875
 30
0.0
 11
55.3125
 21
61.875
 31
0.0
  0
LINE
  5
11E
100
AcDbEntity
  8
0
 62
     0
100
AcDbLine
 10
55.9375
 20
61.875
 30
0.0
 11
55.9375
 21
61.875
 31
0.0
  0
LINE
  5
11F
100
AcDbEntity
  8
0
 62
     0
100
AcDbLine
 10
46.25
 20
57.5
 30
0.0
 11
46.25
 21
57.5
 31
0.0
  0
LINE
  5
120
100
AcDbEntity
  8
0
 62
     0
100
AcDbLine
 10
46.875
 20
57.5
 30
0.0
 11
46.875
 21
57.5
 31
0.0
  0
LINE
  5
121
100
AcDbEntity
  8
0
 62
     0
100
AcDbLine
 10
47.5
 20
57.5
 30
0.0
 11
47.5
 21
57.5
 31
0.0
  0
LINE
  5
122
100
AcDbEntity
  8
0
 62
     0
100
AcDbLine
 10
48.125
 20
57.5
 30
0.0
 11
48.125
 21
57.5
 31
0.0
  0
LINE
  5
123
100
AcDbEntity
  8
0
 62
     0
100
AcDbLine
 10
48.75
 20
57.5
 30
0.0
 11
48.75
 21
57.5
 31
0.0
  0
LINE
  5
124
100
AcDbEntity
  8
0
 62
     0
100
AcDbLine
 10
49.375
 20
57.5
 30
0.0
 11
49.375
 21
57.5
 31
0.0
  0
LINE
  5
125
100
AcDbEntity
  8
0
 62
     0
100
AcDbLine
 10
50.0
 20
57.5
 30
0.0
 11
50.0
 21
57.5
 31
0.0
  0
LINE
  5
126
100
AcDbEntity
  8
0
 62
     0
100
AcDbLine
 10
50.625
 20
57.5
 30
0.0
 11
50.625
 21
57.5
 31
0.0
  0
LINE
  5
127
100
AcDbEntity
  8
0
 62
     0
100
AcDbLine
 10
51.25
 20
57.5
 30
0.0
 11
51.25
 21
57.5
 31
0.0
  0
LINE
  5
128
100
AcDbEntity
  8
0
 62
     0
100
AcDbLine
 10
51.875
 20
57.5
 30
0.0
 11
51.875
 21
57.5
 31
0.0
  0
LINE
  5
129
100
AcDbEntity
  8
0
 62
     0
100
AcDbLine
 10
52.5
 20
57.5
 30
0.0
 11
52.5
 21
57.5
 31
0.0
  0
LINE
  5
12A
100
AcDbEntity
  8
0
 62
     0
100
AcDbLine
 10
53.125
 20
57.5
 30
0.0
 11
53.125
 21
57.5
 31
0.0
  0
LINE
  5
12B
100
AcDbEntity
  8
0
 62
     0
100
AcDbLine
 10
53.75
 20
57.5
 30
0.0
 11
53.75
 21
57.5
 31
0.0
  0
LINE
  5
12C
100
AcDbEntity
  8
0
 62
     0
100
AcDbLine
 10
54.375
 20
57.5
 30
0.0
 11
54.375
 21
57.5
 31
0.0
  0
LINE
  5
12D
100
AcDbEntity
  8
0
 62
     0
100
AcDbLine
 10
55.0
 20
57.5
 30
0.0
 11
55.0
 21
57.5
 31
0.0
  0
LINE
  5
12E
100
AcDbEntity
  8
0
 62
     0
100
AcDbLine
 10
55.625
 20
57.5
 30
0.0
 11
55.625
 21
57.5
 31
0.0
  0
LINE
  5
12F
100
AcDbEntity
  8
0
 62
     0
100
AcDbLine
 10
46.5625
 20
56.875
 30
0.0
 11
46.5625
 21
56.875
 31
0.0
  0
LINE
  5
130
100
AcDbEntity
  8
0
 62
     0
100
AcDbLine
 10
47.1875
 20
56.875
 30
0.0
 11
47.1875
 21
56.875
 31
0.0
  0
LINE
  5
131
100
AcDbEntity
  8
0
 62
     0
100
AcDbLine
 10
47.8125
 20
56.875
 30
0.0
 11
47.8125
 21
56.875
 31
0.0
  0
LINE
  5
132
100
AcDbEntity
  8
0
 62
     0
100
AcDbLine
 10
48.4375
 20
56.875
 30
0.0
 11
48.4375
 21
56.875
 31
0.0
  0
LINE
  5
133
100
AcDbEntity
  8
0
 62
     0
100
AcDbLine
 10
49.0625
 20
56.875
 30
0.0
 11
49.0625
 21
56.875
 31
0.0
  0
LINE
  5
134
100
AcDbEntity
  8
0
 62
     0
100
AcDbLine
 10
49.6875
 20
56.875
 30
0.0
 11
49.6875
 21
56.875
 31
0.0
  0
LINE
  5
135
100
AcDbEntity
  8
0
 62
     0
100
AcDbLine
 10
50.3125
 20
56.875
 30
0.0
 11
50.3125
 21
56.875
 31
0.0
  0
LINE
  5
136
100
AcDbEntity
  8
0
 62
     0
100
AcDbLine
 10
50.9375
 20
56.875
 30
0.0
 11
50.9375
 21
56.875
 31
0.0
  0
LINE
  5
137
100
AcDbEntity
  8
0
 62
     0
100
AcDbLine
 10
51.5625
 20
56.875
 30
0.0
 11
51.5625
 21
56.875
 31
0.0
  0
LINE
  5
138
100
AcDbEntity
  8
0
 62
     0
100
AcDbLine
 10
52.1875
 20
56.875
 30
0.0
 11
52.1875
 21
56.875
 31
0.0
  0
LINE
  5
139
100
AcDbEntity
  8
0
 62
     0
100
AcDbLine
 10
52.8125
 20
56.875
 30
0.0
 11
52.8125
 21
56.875
 31
0.0
  0
LINE
  5
13A
100
AcDbEntity
  8
0
 62
     0
100
AcDbLine
 10
53.4375
 20
56.875
 30
0.0
 11
53.4375
 21
56.875
 31
0.0
  0
LINE
  5
13B
100
AcDbEntity
  8
0
 62
     0
100
AcDbLine
 10
54.0625
 20
56.875
 30
0.0
 11
54.0625
 21
56.875
 31
0.0
  0
LINE
  5
13C
100
AcDbEntity
  8
0
 62
     0
100
AcDbLine
 10
54.6875
 20
56.875
 30
0.0
 11
54.6875
 21
56.875
 31
0.0
  0
LINE
  5
13D
100
AcDbEntity
  8
0
 62
     0
100
AcDbLine
 10
55.3125
 20
56.875
 30
0.0
 11
55.3125
 21
56.875
 31
0.0
  0
LINE
  5
13E
100
AcDbEntity
  8
0
 62
     0
100
AcDbLine
 10
55.9375
 20
56.875
 30
0.0
 11
55.9375
 21
56.875
 31
0.0
  0
LINE
  5
13F
100
AcDbEntity
  8
0
 62
     0
100
AcDbLine
 10
46.25
 20
56.25
 30
0.0
 11
46.25
 21
56.25
 31
0.0
  0
LINE
  5
140
100
AcDbEntity
  8
0
 62
     0
100
AcDbLine
 10
46.875
 20
56.25
 30
0.0
 11
46.875
 21
56.25
 31
0.0
  0
LINE
  5
141
100
AcDbEntity
  8
0
 62
     0
100
AcDbLine
 10
47.5
 20
56.25
 30
0.0
 11
47.5
 21
56.25
 31
0.0
  0
LINE
  5
142
100
AcDbEntity
  8
0
 62
     0
100
AcDbLine
 10
48.125
 20
56.25
 30
0.0
 11
48.125
 21
56.25
 31
0.0
  0
LINE
  5
143
100
AcDbEntity
  8
0
 62
     0
100
AcDbLine
 10
48.75
 20
56.25
 30
0.0
 11
48.75
 21
56.25
 31
0.0
  0
LINE
  5
144
100
AcDbEntity
  8
0
 62
     0
100
AcDbLine
 10
49.375
 20
56.25
 30
0.0
 11
49.375
 21
56.25
 31
0.0
  0
LINE
  5
145
100
AcDbEntity
  8
0
 62
     0
100
AcDbLine
 10
50.0
 20
56.25
 30
0.0
 11
50.0
 21
56.25
 31
0.0
  0
LINE
  5
146
100
AcDbEntity
  8
0
 62
     0
100
AcDbLine
 10
50.625
 20
56.25
 30
0.0
 11
50.625
 21
56.25
 31
0.0
  0
LINE
  5
147
100
AcDbEntity
  8
0
 62
     0
100
AcDbLine
 10
51.25
 20
56.25
 30
0.0
 11
51.25
 21
56.25
 31
0.0
  0
LINE
  5
148
100
AcDbEntity
  8
0
 62
     0
100
AcDbLine
 10
51.875
 20
56.25
 30
0.0
 11
51.875
 21
56.25
 31
0.0
  0
LINE
  5
149
100
AcDbEntity
  8
0
 62
     0
100
AcDbLine
 10
52.5
 20
56.25
 30
0.0
 11
52.5
 21
56.25
 31
0.0
  0
LINE
  5
14A
100
AcDbEntity
  8
0
 62
     0
100
AcDbLine
 10
53.125
 20
56.25
 30
0.0
 11
53.125
 21
56.25
 31
0.0
  0
LINE
  5
14B
100
AcDbEntity
  8
0
 62
     0
100
AcDbLine
 10
53.75
 20
56.25
 30
0.0
 11
53.75
 21
56.25
 31
0.0
  0
LINE
  5
14C
100
AcDbEntity
  8
0
 62
     0
100
AcDbLine
 10
54.375
 20
56.25
 30
0.0
 11
54.375
 21
56.25
 31
0.0
  0
LINE
  5
14D
100
AcDbEntity
  8
0
 62
     0
100
AcDbLine
 10
55.0
 20
56.25
 30
0.0
 11
55.0
 21
56.25
 31
0.0
  0
LINE
  5
14E
100
AcDbEntity
  8
0
 62
     0
100
AcDbLine
 10
55.625
 20
56.25
 30
0.0
 11
55.625
 21
56.25
 31
0.0
  0
LINE
  5
14F
100
AcDbEntity
  8
0
 62
     0
100
AcDbLine
 10
46.5625
 20
55.625
 30
0.0
 11
46.5625
 21
55.625
 31
0.0
  0
LINE
  5
150
100
AcDbEntity
  8
0
 62
     0
100
AcDbLine
 10
47.1875
 20
55.625
 30
0.0
 11
47.1875
 21
55.625
 31
0.0
  0
LINE
  5
151
100
AcDbEntity
  8
0
 62
     0
100
AcDbLine
 10
47.8125
 20
55.625
 30
0.0
 11
47.8125
 21
55.625
 31
0.0
  0
LINE
  5
152
100
AcDbEntity
  8
0
 62
     0
100
AcDbLine
 10
48.4375
 20
55.625
 30
0.0
 11
48.4375
 21
55.625
 31
0.0
  0
LINE
  5
153
100
AcDbEntity
  8
0
 62
     0
100
AcDbLine
 10
49.0625
 20
55.625
 30
0.0
 11
49.0625
 21
55.625
 31
0.0
  0
LINE
  5
154
100
AcDbEntity
  8
0
 62
     0
100
AcDbLine
 10
49.6875
 20
55.625
 30
0.0
 11
49.6875
 21
55.625
 31
0.0
  0
LINE
  5
155
100
AcDbEntity
  8
0
 62
     0
100
AcDbLine
 10
50.3125
 20
55.625
 30
0.0
 11
50.3125
 21
55.625
 31
0.0
  0
LINE
  5
156
100
AcDbEntity
  8
0
 62
     0
100
AcDbLine
 10
50.9375
 20
55.625
 30
0.0
 11
50.9375
 21
55.625
 31
0.0
  0
LINE
  5
157
100
AcDbEntity
  8
0
 62
     0
100
AcDbLine
 10
51.5625
 20
55.625
 30
0.0
 11
51.5625
 21
55.625
 31
0.0
  0
LINE
  5
158
100
AcDbEntity
  8
0
 62
     0
100
AcDbLine
 10
52.1875
 20
55.625
 30
0.0
 11
52.1875
 21
55.625
 31
0.0
  0
LINE
  5
159
100
AcDbEntity
  8
0
 62
     0
100
AcDbLine
 10
52.8125
 20
55.625
 30
0.0
 11
52.8125
 21
55.625
 31
0.0
  0
LINE
  5
15A
100
AcDbEntity
  8
0
 62
     0
100
AcDbLine
 10
53.4375
 20
55.625
 30
0.0
 11
53.4375
 21
55.625
 31
0.0
  0
LINE
  5
15B
100
AcDbEntity
  8
0
 62
     0
100
AcDbLine
 10
54.0625
 20
55.625
 30
0.0
 11
54.0625
 21
55.625
 31
0.0
  0
LINE
  5
15C
100
AcDbEntity
  8
0
 62
     0
100
AcDbLine
 10
54.6875
 20
55.625
 30
0.0
 11
54.6875
 21
55.625
 31
0.0
  0
LINE
  5
15D
100
AcDbEntity
  8
0
 62
     0
100
AcDbLine
 10
55.3125
 20
55.625
 30
0.0
 11
55.3125
 21
55.625
 31
0.0
  0
LINE
  5
15E
100
AcDbEntity
  8
0
 62
     0
100
AcDbLine
 10
55.9375
 20
55.625
 30
0.0
 11
55.9375
 21
55.625
 31
0.0
  0
LINE
  5
15F
100
AcDbEntity
  8
0
 62
     0
100
AcDbLine
 10
46.25
 20
55.0
 30
0.0
 11
46.25
 21
55.0
 31
0.0
  0
LINE
  5
160
100
AcDbEntity
  8
0
 62
     0
100
AcDbLine
 10
46.875
 20
55.0
 30
0.0
 11
46.875
 21
55.0
 31
0.0
  0
LINE
  5
161
100
AcDbEntity
  8
0
 62
     0
100
AcDbLine
 10
47.5
 20
55.0
 30
0.0
 11
47.5
 21
55.0
 31
0.0
  0
LINE
  5
162
100
AcDbEntity
  8
0
 62
     0
100
AcDbLine
 10
48.125
 20
55.0
 30
0.0
 11
48.125
 21
55.0
 31
0.0
  0
LINE
  5
163
100
AcDbEntity
  8
0
 62
     0
100
AcDbLine
 10
48.75
 20
55.0
 30
0.0
 11
48.75
 21
55.0
 31
0.0
  0
LINE
  5
164
100
AcDbEntity
  8
0
 62
     0
100
AcDbLine
 10
49.375
 20
55.0
 30
0.0
 11
49.375
 21
55.0
 31
0.0
  0
LINE
  5
165
100
AcDbEntity
  8
0
 62
     0
100
AcDbLine
 10
50.0
 20
55.0
 30
0.0
 11
50.0
 21
55.0
 31
0.0
  0
LINE
  5
166
100
AcDbEntity
  8
0
 62
     0
100
AcDbLine
 10
50.625
 20
55.0
 30
0.0
 11
50.625
 21
55.0
 31
0.0
  0
LINE
  5
167
100
AcDbEntity
  8
0
 62
     0
100
AcDbLine
 10
51.25
 20
55.0
 30
0.0
 11
51.25
 21
55.0
 31
0.0
  0
LINE
  5
168
100
AcDbEntity
  8
0
 62
     0
100
AcDbLine
 10
51.875
 20
55.0
 30
0.0
 11
51.875
 21
55.0
 31
0.0
  0
LINE
  5
169
100
AcDbEntity
  8
0
 62
     0
100
AcDbLine
 10
52.5
 20
55.0
 30
0.0
 11
52.5
 21
55.0
 31
0.0
  0
LINE
  5
16A
100
AcDbEntity
  8
0
 62
     0
100
AcDbLine
 10
53.125
 20
55.0
 30
0.0
 11
53.125
 21
55.0
 31
0.0
  0
LINE
  5
16B
100
AcDbEntity
  8
0
 62
     0
100
AcDbLine
 10
53.75
 20
55.0
 30
0.0
 11
53.75
 21
55.0
 31
0.0
  0
LINE
  5
16C
100
AcDbEntity
  8
0
 62
     0
100
AcDbLine
 10
54.375
 20
55.0
 30
0.0
 11
54.375
 21
55.0
 31
0.0
  0
LINE
  5
16D
100
AcDbEntity
  8
0
 62
     0
100
AcDbLine
 10
55.0
 20
55.0
 30
0.0
 11
55.0
 21
55.0
 31
0.0
  0
LINE
  5
16E
100
AcDbEntity
  8
0
 62
     0
100
AcDbLine
 10
55.625
 20
55.0
 30
0.0
 11
55.625
 21
55.0
 31
0.0
  0
ENDBLK
  5
16F
100
AcDbEntity
  8
0
100
AcDbBlockEnd
  0
BLOCK
  5
170
100
AcDbEntity
  8
0
100
AcDbBlockBegin
  2
*X2
 70
     1
 10
0.0
 20
0.0
 30
0.0
  3
*X2
  1

  0
LINE
  5
171
100
AcDbEntity
  8
0
 62
     0
100
AcDbLine
 10
56.5625
 20
58.125
 30
0.0
 11
56.5625
 21
58.125
 31
0.0
  0
LINE
  5
172
100
AcDbEntity
  8
0
 62
     0
100
AcDbLine
 10
57.1875
 20
58.125
 30
0.0
 11
57.1875
 21
58.125
 31
0.0
  0
LINE
  5
173
100
AcDbEntity
  8
0
 62
     0
100
AcDbLine
 10
57.8125
 20
58.125
 30
0.0
 11
57.8125
 21
58.125
 31
0.0
  0
LINE
  5
174
100
AcDbEntity
  8
0
 62
     0
100
AcDbLine
 10
58.4375
 20
58.125
 30
0.0
 11
58.4375
 21
58.125
 31
0.0
  0
LINE
  5
175
100
AcDbEntity
  8
0
 62
     0
100
AcDbLine
 10
59.0625
 20
58.125
 30
0.0
 11
59.0625
 21
58.125
 31
0.0
  0
LINE
  5
176
100
AcDbEntity
  8
0
 62
     0
100
AcDbLine
 10
59.6875
 20
58.125
 30
0.0
 11
59.6875
 21
58.125
 31
0.0
  0
LINE
  5
177
100
AcDbEntity
  8
0
 62
     0
100
AcDbLine
 10
60.3125
 20
58.125
 30
0.0
 11
60.3125
 21
58.125
 31
0.0
  0
LINE
  5
178
100
AcDbEntity
  8
0
 62
     0
100
AcDbLine
 10
60.9375
 20
58.125
 30
0.0
 11
60.9375
 21
58.125
 31
0.0
  0
LINE
  5
179
100
AcDbEntity
  8
0
 62
     0
100
AcDbLine
 10
61.5625
 20
58.125
 30
0.0
 11
61.5625
 21
58.125
 31
0.0
  0
LINE
  5
17A
100
AcDbEntity
  8
0
 62
     0
100
AcDbLine
 10
62.1875
 20
58.125
 30
0.0
 11
62.1875
 21
58.125
 31
0.0
  0
LINE
  5
17B
100
AcDbEntity
  8
0
 62
     0
100
AcDbLine
 10
62.8125
 20
58.125
 30
0.0
 11
62.8125
 21
58.125
 31
0.0
  0
LINE
  5
17C
100
AcDbEntity
  8
0
 62
     0
100
AcDbLine
 10
63.4375
 20
58.125
 30
0.0
 11
63.4375
 21
58.125
 31
0.0
  0
LINE
  5
17D
100
AcDbEntity
  8
0
 62
     0
100
AcDbLine
 10
64.0625
 20
58.125
 30
0.0
 11
64.0625
 21
58.125
 31
0.0
  0
LINE
  5
17E
100
AcDbEntity
  8
0
 62
     0
100
AcDbLine
 10
64.6875
 20
58.125
 30
0.0
 11
64.6875
 21
58.125
 31
0.0
  0
LINE
  5
17F
100
AcDbEntity
  8
0
 62
     0
100
AcDbLine
 10
65.3125
 20
58.125
 30
0.0
 11
65.3125
 21
58.125
 31
0.0
  0
LINE
  5
180
100
AcDbEntity
  8
0
 62
     0
100
AcDbLine
 10
65.9375
 20
58.125
 30
0.0
 11
65.9375
 21
58.125
 31
0.0
  0
LINE
  5
181
100
AcDbEntity
  8
0
 62
     0
100
AcDbLine
 10
56.25
 20
58.75
 30
0.0
 11
56.25
 21
58.75
 31
0.0
  0
LINE
  5
182
100
AcDbEntity
  8
0
 62
     0
100
AcDbLine
 10
56.875
 20
58.75
 30
0.0
 11
56.875
 21
58.75
 31
0.0
  0
LINE
  5
183
100
AcDbEntity
  8
0
 62
     0
100
AcDbLine
 10
57.5
 20
58.75
 30
0.0
 11
57.5
 21
58.75
 31
0.0
  0
LINE
  5
184
100
AcDbEntity
  8
0
 62
     0
100
AcDbLine
 10
58.125
 20
58.75
 30
0.0
 11
58.125
 21
58.75
 31
0.0
  0
LINE
  5
185
100
AcDbEntity
  8
0
 62
     0
100
AcDbLine
 10
58.75
 20
58.75
 30
0.0
 11
58.75
 21
58.75
 31
0.0
  0
LINE
  5
186
100
AcDbEntity
  8
0
 62
     0
100
AcDbLine
 10
59.375
 20
58.75
 30
0.0
 11
59.375
 21
58.75
 31
0.0
  0
LINE
  5
187
100
AcDbEntity
  8
0
 62
     0
100
AcDbLine
 10
60.0
 20
58.75
 30
0.0
 11
60.0
 21
58.75
 31
0.0
  0
LINE
  5
188
100
AcDbEntity
  8
0
 62
     0
100
AcDbLine
 10
60.625
 20
58.75
 30
0.0
 11
60.625
 21
58.75
 31
0.0
  0
LINE
  5
189
100
AcDbEntity
  8
0
 62
     0
100
AcDbLine
 10
61.25
 20
58.75
 30
0.0
 11
61.25
 21
58.75
 31
0.0
  0
LINE
  5
18A
100
AcDbEntity
  8
0
 62
     0
100
AcDbLine
 10
61.875
 20
58.75
 30
0.0
 11
61.875
 21
58.75
 31
0.0
  0
LINE
  5
18B
100
AcDbEntity
  8
0
 62
     0
100
AcDbLine
 10
62.5
 20
58.75
 30
0.0
 11
62.5
 21
58.75
 31
0.0
  0
LINE
  5
18C
100
AcDbEntity
  8
0
 62
     0
100
AcDbLine
 10
63.125
 20
58.75
 30
0.0
 11
63.125
 21
58.75
 31
0.0
  0
LINE
  5
18D
100
AcDbEntity
  8
0
 62
     0
100
AcDbLine
 10
63.75
 20
58.75
 30
0.0
 11
63.75
 21
58.75
 31
0.0
  0
LINE
  5
18E
100
AcDbEntity
  8
0
 62
     0
100
AcDbLine
 10
64.375
 20
58.75
 30
0.0
 11
64.375
 21
58.75
 31
0.0
  0
LINE
  5
18F
100
AcDbEntity
  8
0
 62
     0
100
AcDbLine
 10
65.0
 20
58.75
 30
0.0
 11
65.0
 21
58.75
 31
0.0
  0
LINE
  5
190
100
AcDbEntity
  8
0
 62
     0
100
AcDbLine
 10
65.625
 20
58.75
 30
0.0
 11
65.625
 21
58.75
 31
0.0
  0
LINE
  5
191
100
AcDbEntity
  8
0
 62
     0
100
AcDbLine
 10
56.5625
 20
59.375
 30
0.0
 11
56.5625
 21
59.375
 31
0.0
  0
LINE
  5
192
100
AcDbEntity
  8
0
 62
     0
100
AcDbLine
 10
57.1875
 20
59.375
 30
0.0
 11
57.1875
 21
59.375
 31
0.0
  0
LINE
  5
193
100
AcDbEntity
  8
0
 62
     0
100
AcDbLine
 10
57.8125
 20
59.375
 30
0.0
 11
57.8125
 21
59.375
 31
0.0
  0
LINE
  5
194
100
AcDbEntity
  8
0
 62
     0
100
AcDbLine
 10
58.4375
 20
59.375
 30
0.0
 11
58.4375
 21
59.375
 31
0.0
  0
LINE
  5
195
100
AcDbEntity
  8
0
 62
     0
100
AcDbLine
 10
59.0625
 20
59.375
 30
0.0
 11
59.0625
 21
59.375
 31
0.0
  0
LINE
  5
196
100
AcDbEntity
  8
0
 62
     0
100
AcDbLine
 10
59.6875
 20
59.375
 30
0.0
 11
59.6875
 21
59.375
 31
0.0
  0
LINE
  5
197
100
AcDbEntity
  8
0
 62
     0
100
AcDbLine
 10
62.1875
 20
59.375
 30
0.0
 11
62.1875
 21
59.375
 31
0.0
  0
LINE
  5
198
100
AcDbEntity
  8
0
 62
     0
100
AcDbLine
 10
62.8125
 20
59.375
 30
0.0
 11
62.8125
 21
59.375
 31
0.0
  0
LINE
  5
199
100
AcDbEntity
  8
0
 62
     0
100
AcDbLine
 10
63.4375
 20
59.375
 30
0.0
 11
63.4375
 21
59.375
 31
0.0
  0
LINE
  5
19A
100
AcDbEntity
  8
0
 62
     0
100
AcDbLine
 10
64.0625
 20
59.375
 30
0.0
 11
64.0625
 21
59.375
 31
0.0
  0
LINE
  5
19B
100
AcDbEntity
  8
0
 62
     0
100
AcDbLine
 10
64.6875
 20
59.375
 30
0.0
 11
64.6875
 21
59.375
 31
0.0
  0
LINE
  5
19C
100
AcDbEntity
  8
0
 62
     0
100
AcDbLine
 10
65.3125
 20
59.375
 30
0.0
 11
65.3125
 21
59.375
 31
0.0
  0
LINE
  5
19D
100
AcDbEntity
  8
0
 62
     0
100
AcDbLine
 10
65.9375
 20
59.375
 30
0.0
 11
65.9375
 21
59.375
 31
0.0
  0
LINE
  5
19E
100
AcDbEntity
  8
0
 62
     0
100
AcDbLine
 10
56.25
 20
60.0
 30
0.0
 11
56.25
 21
60.0
 31
0.0
  0
LINE
  5
19F
100
AcDbEntity
  8
0
 62
     0
100
AcDbLine
 10
56.875
 20
60.0
 30
0.0
 11
56.875
 21
60.0
 31
0.0
  0
LINE
  5
1A0
100
AcDbEntity
  8
0
 62
     0
100
AcDbLine
 10
57.5
 20
60.0
 30
0.0
 11
57.5
 21
60.0
 31
0.0
  0
LINE
  5
1A1
100
AcDbEntity
  8
0
 62
     0
100
AcDbLine
 10
58.125
 20
60.0
 30
0.0
 11
58.125
 21
60.0
 31
0.0
  0
LINE
  5
1A2
100
AcDbEntity
  8
0
 62
     0
100
AcDbLine
 10
58.75
 20
60.0
 30
0.0
 11
58.75
 21
60.0
 31
0.0
  0
LINE
  5
1A3
100
AcDbEntity
  8
0
 62
     0
100
AcDbLine
 10
63.75
 20
60.0
 30
0.0
 11
63.75
 21
60.0
 31
0.0
  0
LINE
  5
1A4
100
AcDbEntity
  8
0
 62
     0
100
AcDbLine
 10
64.375
 20
60.0
 30
0.0
 11
64.375
 21
60.0
 31
0.0
  0
LINE
  5
1A5
100
AcDbEntity
  8
0
 62
     0
100
AcDbLine
 10
65.0
 20
60.0
 30
0.0
 11
65.0
 21
60.0
 31
0.0
  0
LINE
  5
1A6
100
AcDbEntity
  8
0
 62
     0
100
AcDbLine
 10
65.625
 20
60.0
 30
0.0
 11
65.625
 21
60.0
 31
0.0
  0
LINE
  5
1A7
100
AcDbEntity
  8
0
 62
     0
100
AcDbLine
 10
56.5625
 20
60.625
 30
0.0
 11
56.5625
 21
60.625
 31
0.0
  0
LINE
  5
1A8
100
AcDbEntity
  8
0
 62
     0
100
AcDbLine
 10
57.1875
 20
60.625
 30
0.0
 11
57.1875
 21
60.625
 31
0.0
  0
LINE
  5
1A9
100
AcDbEntity
  8
0
 62
     0
100
AcDbLine
 10
57.8125
 20
60.625
 30
0.0
 11
57.8125
 21
60.625
 31
0.0
  0
LINE
  5
1AA
100
AcDbEntity
  8
0
 62
     0
100
AcDbLine
 10
58.4375
 20
60.625
 30
0.0
 11
58.4375
 21
60.625
 31
0.0
  0
LINE
  5
1AB
100
AcDbEntity
  8
0
 62
     0
100
AcDbLine
 10
64.0625
 20
60.625
 30
0.0
 11
64.0625
 21
60.625
 31
0.0
  0
LINE
  5
1AC
100
AcDbEntity
  8
0
 62
     0
100
AcDbLine
 10
64.6875
 20
60.625
 30
0.0
 11
64.6875
 21
60.625
 31
0.0
  0
LINE
  5
1AD
100
AcDbEntity
  8
0
 62
     0
100
AcDbLine
 10
65.3125
 20
60.625
 30
0.0
 11
65.3125
 21
60.625
 31
0.0
  0
LINE
  5
1AE
100
AcDbEntity
  8
0
 62
     0
100
AcDbLine
 10
65.9375
 20
60.625
 30
0.0
 11
65.9375
 21
60.625
 31
0.0
  0
LINE
  5
1AF
100
AcDbEntity
  8
0
 62
     0
100
AcDbLine
 10
56.25
 20
61.25
 30
0.0
 11
56.25
 21
61.25
 31
0.0
  0
LINE
  5
1B0
100
AcDbEntity
  8
0
 62
     0
100
AcDbLine
 10
56.875
 20
61.25
 30
0.0
 11
56.875
 21
61.25
 31
0.0
  0
LINE
  5
1B1
100
AcDbEntity
  8
0
 62
     0
100
AcDbLine
 10
57.5
 20
61.25
 30
0.0
 11
57.5
 21
61.25
 31
0.0
  0
LINE
  5
1B2
100
AcDbEntity
  8
0
 62
     0
100
AcDbLine
 10
58.125
 20
61.25
 30
0.0
 11
58.125
 21
61.25
 31
0.0
  0
LINE
  5
1B3
100
AcDbEntity
  8
0
 62
     0
100
AcDbLine
 10
64.375
 20
61.25
 30
0.0
 11
64.375
 21
61.25
 31
0.0
  0
LINE
  5
1B4
100
AcDbEntity
  8
0
 62
     0
100
AcDbLine
 10
65.0
 20
61.25
 30
0.0
 11
65.0
 21
61.25
 31
0.0
  0
LINE
  5
1B5
100
AcDbEntity
  8
0
 62
     0
100
AcDbLine
 10
65.625
 20
61.25
 30
0.0
 11
65.625
 21
61.25
 31
0.0
  0
LINE
  5
1B6
100
AcDbEntity
  8
0
 62
     0
100
AcDbLine
 10
56.5625
 20
61.875
 30
0.0
 11
56.5625
 21
61.875
 31
0.0
  0
LINE
  5
1B7
100
AcDbEntity
  8
0
 62
     0
100
AcDbLine
 10
57.1875
 20
61.875
 30
0.0
 11
57.1875
 21
61.875
 31
0.0
  0
LINE
  5
1B8
100
AcDbEntity
  8
0
 62
     0
100
AcDbLine
 10
57.8125
 20
61.875
 30
0.0
 11
57.8125
 21
61.875
 31
0.0
  0
LINE
  5
1B9
100
AcDbEntity
  8
0
 62
     0
100
AcDbLine
 10
64.6875
 20
61.875
 30
0.0
 11
64.6875
 21
61.875
 31
0.0
  0
LINE
  5
1BA
100
AcDbEntity
  8
0
 62
     0
100
AcDbLine
 10
65.3125
 20
61.875
 30
0.0
 11
65.3125
 21
61.875
 31
0.0
  0
LINE
  5
1BB
100
AcDbEntity
  8
0
 62
     0
100
AcDbLine
 10
65.9375
 20
61.875
 30
0.0
 11
65.9375
 21
61.875
 31
0.0
  0
LINE
  5
1BC
100
AcDbEntity
  8
0
 62
     0
100
AcDbLine
 10
56.25
 20
57.5
 30
0.0
 11
56.25
 21
57.5
 31
0.0
  0
LINE
  5
1BD
100
AcDbEntity
  8
0
 62
     0
100
AcDbLine
 10
56.875
 20
57.5
 30
0.0
 11
56.875
 21
57.5
 31
0.0
  0
LINE
  5
1BE
100
AcDbEntity
  8
0
 62
     0
100
AcDbLine
 10
57.5
 20
57.5
 30
0.0
 11
57.5
 21
57.5
 31
0.0
  0
LINE
  5
1BF
100
AcDbEntity
  8
0
 62
     0
100
AcDbLine
 10
58.125
 20
57.5
 30
0.0
 11
58.125
 21
57.5
 31
0.0
  0
LINE
  5
1C0
100
AcDbEntity
  8
0
 62
     0
100
AcDbLine
 10
58.75
 20
57.5
 30
0.0
 11
58.75
 21
57.5
 31
0.0
  0
LINE
  5
1C1
100
AcDbEntity
  8
0
 62
     0
100
AcDbLine
 10
59.375
 20
57.5
 30
0.0
 11
59.375
 21
57.5
 31
0.0
  0
LINE
  5
1C2
100
AcDbEntity
  8
0
 62
     0
100
AcDbLine
 10
60.0
 20
57.5
 30
0.0
 11
60.0
 21
57.5
 31
0.0
  0
LINE
  5
1C3
100
AcDbEntity
  8
0
 62
     0
100
AcDbLine
 10
60.625
 20
57.5
 30
0.0
 11
60.625
 21
57.5
 31
0.0
  0
LINE
  5
1C4
100
AcDbEntity
  8
0
 62
     0
100
AcDbLine
 10
61.25
 20
57.5
 30
0.0
 11
61.25
 21
57.5
 31
0.0
  0
LINE
  5
1C5
100
AcDbEntity
  8
0
 62
     0
100
AcDbLine
 10
61.875
 20
57.5
 30
0.0
 11
61.875
 21
57.5
 31
0.0
  0
LINE
  5
1C6
100
AcDbEntity
  8
0
 62
     0
100
AcDbLine
 10
62.5
 20
57.5
 30
0.0
 11
62.5
 21
57.5
 31
0.0
  0
LINE
  5
1C7
100
AcDbEntity
  8
0
 62
     0
100
AcDbLine
 10
63.125
 20
57.5
 30
0.0
 11
63.125
 21
57.5
 31
0.0
  0
LINE
  5
1C8
100
AcDbEntity
  8
0
 62
     0
100
AcDbLine
 10
63.75
 20
57.5
 30
0.0
 11
63.75
 21
57.5
 31
0.0
  0
LINE
  5
1C9
100
AcDbEntity
  8
0
 62
     0
100
AcDbLine
 10
64.375
 20
57.5
 30
0.0
 11
64.375
 21
57.5
 31
0.0
  0
LINE
  5
1CA
100
AcDbEntity
  8
0
 62
     0
100
AcDbLine
 10
65.0
 20
57.5
 30
0.0
 11
65.0
 21
57.5
 31
0.0
  0
LINE
  5
1CB
100
AcDbEntity
  8
0
 62
     0
100
AcDbLine
 10
65.625
 20
57.5
 30
0.0
 11
65.625
 21
57.5
 31
0.0
  0
LINE
  5
1CC
100
AcDbEntity
  8
0
 62
     0
100
AcDbLine
 10
56.5625
 20
56.875
 30
0.0
 11
56.5625
 21
56.875
 31
0.0
  0
LINE
  5
1CD
100
AcDbEntity
  8
0
 62
     0
100
AcDbLine
 10
57.1875
 20
56.875
 30
0.0
 11
57.1875
 21
56.875
 31
0.0
  0
LINE
  5
1CE
100
AcDbEntity
  8
0
 62
     0
100
AcDbLine
 10
57.8125
 20
56.875
 30
0.0
 11
57.8125
 21
56.875
 31
0.0
  0
LINE
  5
1CF
100
AcDbEntity
  8
0
 62
     0
100
AcDbLine
 10
58.4375
 20
56.875
 30
0.0
 11
58.4375
 21
56.875
 31
0.0
  0
LINE
  5
1D0
100
AcDbEntity
  8
0
 62
     0
100
AcDbLine
 10
59.0625
 20
56.875
 30
0.0
 11
59.0625
 21
56.875
 31
0.0
  0
LINE
  5
1D1
100
AcDbEntity
  8
0
 62
     0
100
AcDbLine
 10
59.6875
 20
56.875
 30
0.0
 11
59.6875
 21
56.875
 31
0.0
  0
LINE
  5
1D2
100
AcDbEntity
  8
0
 62
     0
100
AcDbLine
 10
60.3125
 20
56.875
 30
0.0
 11
60.3125
 21
56.875
 31
0.0
  0
LINE
  5
1D3
100
AcDbEntity
  8
0
 62
     0
100
AcDbLine
 10
60.9375
 20
56.875
 30
0.0
 11
60.9375
 21
56.875
 31
0.0
  0
LINE
  5
1D4
100
AcDbEntity
  8
0
 62
     0
100
AcDbLine
 10
61.5625
 20
56.875
 30
0.0
 11
61.5625
 21
56.875
 31
0.0
  0
LINE
  5
1D5
100
AcDbEntity
  8
0
 62
     0
100
AcDbLine
 10
62.1875
 20
56.875
 30
0.0
 11
62.1875
 21
56.875
 31
0.0
  0
LINE
  5
1D6
100
AcDbEntity
  8
0
 62
     0
100
AcDbLine
 10
62.8125
 20
56.875
 30
0.0
 11
62.8125
 21
56.875
 31
0.0
  0
LINE
  5
1D7
100
AcDbEntity
  8
0
 62
     0
100
AcDbLine
 10
63.4375
 20
56.875
 30
0.0
 11
63.4375
 21
56.875
 31
0.0
  0
LINE
  5
1D8
100
AcDbEntity
  8
0
 62
     0
100
AcDbLine
 10
64.0625
 20
56.875
 30
0.0
 11
64.0625
 21
56.875
 31
0.0
  0
LINE
  5
1D9
100
AcDbEntity
  8
0
 62
     0
100
AcDbLine
 10
64.6875
 20
56.875
 30
0.0
 11
64.6875
 21
56.875
 31
0.0
  0
LINE
  5
1DA
100
AcDbEntity
  8
0
 62
     0
100
AcDbLine
 10
65.3125
 20
56.875
 30
0.0
 11
65.3125
 21
56.875
 31
0.0
  0
LINE
  5
1DB
100
AcDbEntity
  8
0
 62
     0
100
AcDbLine
 10
65.9375
 20
56.875
 30
0.0
 11
65.9375
 21
56.875
 31
0.0
  0
LINE
  5
1DC
100
AcDbEntity
  8
0
 62
     0
100
AcDbLine
 10
56.25
 20
56.25
 30
0.0
 11
56.25
 21
56.25
 31
0.0
  0
LINE
  5
1DD
100
AcDbEntity
  8
0
 62
     0
100
AcDbLine
 10
56.875
 20
56.25
 30
0.0
 11
56.875
 21
56.25
 31
0.0
  0
LINE
  5
1DE
100
AcDbEntity
  8
0
 62
     0
100
AcDbLine
 10
57.5
 20
56.25
 30
0.0
 11
57.5
 21
56.25
 31
0.0
  0
LINE
  5
1DF
100
AcDbEntity
  8
0
 62
     0
100
AcDbLine
 10
58.125
 20
56.25
 30
0.0
 11
58.125
 21
56.25
 31
0.0
  0
LINE
  5
1E0
100
AcDbEntity
  8
0
 62
     0
100
AcDbLine
 10
58.75
 20
56.25
 30
0.0
 11
58.75
 21
56.25
 31
0.0
  0
LINE
  5
1E1
100
AcDbEntity
  8
0
 62
     0
100
AcDbLine
 10
59.375
 20
56.25
 30
0.0
 11
59.375
 21
56.25
 31
0.0
  0
LINE
  5
1E2
100
AcDbEntity
  8
0
 62
     0
100
AcDbLine
 10
60.0
 20
56.25
 30
0.0
 11
60.0
 21
56.25
 31
0.0
  0
LINE
  5
1E3
100
AcDbEntity
  8
0
 62
     0
100
AcDbLine
 10
60.625
 20
56.25
 30
0.0
 11
60.625
 21
56.25
 31
0.0
  0
LINE
  5
1E4
100
AcDbEntity
  8
0
 62
     0
100
AcDbLine
 10
61.25
 20
56.25
 30
0.0
 11
61.25
 21
56.25
 31
0.0
  0
LINE
  5
1E5
100
AcDbEntity
  8
0
 62
     0
100
AcDbLine
 10
61.875
 20
56.25
 30
0.0
 11
61.875
 21
56.25
 31
0.0
  0
LINE
  5
1E6
100
AcDbEntity
  8
0
 62
     0
100
AcDbLine
 10
62.5
 20
56.25
 30
0.0
 11
62.5
 21
56.25
 31
0.0
  0
LINE
  5
1E7
100
AcDbEntity
  8
0
 62
     0
100
AcDbLine
 10
63.125
 20
56.25
 30
0.0
 11
63.125
 21
56.25
 31
0.0
  0
LINE
  5
1E8
100
AcDbEntity
  8
0
 62
     0
100
AcDbLine
 10
63.75
 20
56.25
 30
0.0
 11
63.75
 21
56.25
 31
0.0
  0
LINE
  5
1E9
100
AcDbEntity
  8
0
 62
     0
100
AcDbLine
 10
64.375
 20
56.25
 30
0.0
 11
64.375
 21
56.25
 31
0.0
  0
LINE
  5
1EA
100
AcDbEntity
  8
0
 62
     0
100
AcDbLine
 10
65.0
 20
56.25
 30
0.0
 11
65.0
 21
56.25
 31
0.0
  0
LINE
  5
1EB
100
AcDbEntity
  8
0
 62
     0
100
AcDbLine
 10
65.625
 20
56.25
 30
0.0
 11
65.625
 21
56.25
 31
0.0
  0
LINE
  5
1EC
100
AcDbEntity
  8
0
 62
     0
100
AcDbLine
 10
56.5625
 20
55.625
 30
0.0
 11
56.5625
 21
55.625
 31
0.0
  0
LINE
  5
1ED
100
AcDbEntity
  8
0
 62
     0
100
AcDbLine
 10
57.1875
 20
55.625
 30
0.0
 11
57.1875
 21
55.625
 31
0.0
  0
LINE
  5
1EE
100
AcDbEntity
  8
0
 62
     0
100
AcDbLine
 10
57.8125
 20
55.625
 30
0.0
 11
57.8125
 21
55.625
 31
0.0
  0
LINE
  5
1EF
100
AcDbEntity
  8
0
 62
     0
100
AcDbLine
 10
58.4375
 20
55.625
 30
0.0
 11
58.4375
 21
55.625
 31
0.0
  0
LINE
  5
1F0
100
AcDbEntity
  8
0
 62
     0
100
AcDbLine
 10
59.0625
 20
55.625
 30
0.0
 11
59.0625
 21
55.625
 31
0.0
  0
LINE
  5
1F1
100
AcDbEntity
  8
0
 62
     0
100
AcDbLine
 10
59.6875
 20
55.625
 30
0.0
 11
59.6875
 21
55.625
 31
0.0
  0
LINE
  5
1F2
100
AcDbEntity
  8
0
 62
     0
100
AcDbLine
 10
60.3125
 20
55.625
 30
0.0
 11
60.3125
 21
55.625
 31
0.0
  0
LINE
  5
1F3
100
AcDbEntity
  8
0
 62
     0
100
AcDbLine
 10
60.9375
 20
55.625
 30
0.0
 11
60.9375
 21
55.625
 31
0.0
  0
LINE
  5
1F4
100
AcDbEntity
  8
0
 62
     0
100
AcDbLine
 10
61.5625
 20
55.625
 30
0.0
 11
61.5625
 21
55.625
 31
0.0
  0
LINE
  5
1F5
100
AcDbEntity
  8
0
 62
     0
100
AcDbLine
 10
62.1875
 20
55.625
 30
0.0
 11
62.1875
 21
55.625
 31
0.0
  0
LINE
  5
1F6
100
AcDbEntity
  8
0
 62
     0
100
AcDbLine
 10
62.8125
 20
55.625
 30
0.0
 11
62.8125
 21
55.625
 31
0.0
  0
LINE
  5
1F7
100
AcDbEntity
  8
0
 62
     0
100
AcDbLine
 10
63.4375
 20
55.625
 30
0.0
 11
63.4375
 21
55.625
 31
0.0
  0
LINE
  5
1F8
100
AcDbEntity
  8
0
 62
     0
100
AcDbLine
 10
64.0625
 20
55.625
 30
0.0
 11
64.0625
 21
55.625
 31
0.0
  0
LINE
  5
1F9
100
AcDbEntity
  8
0
 62
     0
100
AcDbLine
 10
64.6875
 20
55.625
 30
0.0
 11
64.6875
 21
55.625
 31
0.0
  0
LINE
  5
1FA
100
AcDbEntity
  8
0
 62
     0
100
AcDbLine
 10
65.3125
 20
55.625
 30
0.0
 11
65.3125
 21
55.625
 31
0.0
  0
LINE
  5
1FB
100
AcDbEntity
  8
0
 62
     0
100
AcDbLine
 10
65.9375
 20
55.625
 30
0.0
 11
65.9375
 21
55.625
 31
0.0
  0
LINE
  5
1FC
100
AcDbEntity
  8
0
 62
     0
100
AcDbLine
 10
56.25
 20
55.0
 30
0.0
 11
56.25
 21
55.0
 31
0.0
  0
LINE
  5
1FD
100
AcDbEntity
  8
0
 62
     0
100
AcDbLine
 10
56.875
 20
55.0
 30
0.0
 11
56.875
 21
55.0
 31
0.0
  0
LINE
  5
1FE
100
AcDbEntity
  8
0
 62
     0
100
AcDbLine
 10
57.5
 20
55.0
 30
0.0
 11
57.5
 21
55.0
 31
0.0
  0
LINE
  5
1FF
100
AcDbEntity
  8
0
 62
     0
100
AcDbLine
 10
58.125
 20
55.0
 30
0.0
 11
58.125
 21
55.0
 31
0.0
  0
LINE
  5
200
100
AcDbEntity
  8
0
 62
     0
100
AcDbLine
 10
58.75
 20
55.0
 30
0.0
 11
58.75
 21
55.0
 31
0.0
  0
LINE
  5
201
100
AcDbEntity
  8
0
 62
     0
100
AcDbLine
 10
59.375
 20
55.0
 30
0.0
 11
59.375
 21
55.0
 31
0.0
  0
LINE
  5
202
100
AcDbEntity
  8
0
 62
     0
100
AcDbLine
 10
60.0
 20
55.0
 30
0.0
 11
60.0
 21
55.0
 31
0.0
  0
LINE
  5
203
100
AcDbEntity
  8
0
 62
     0
100
AcDbLine
 10
60.625
 20
55.0
 30
0.0
 11
60.625
 21
55.0
 31
0.0
  0
LINE
  5
204
100
AcDbEntity
  8
0
 62
     0
100
AcDbLine
 10
61.25
 20
55.0
 30
0.0
 11
61.25
 21
55.0
 31
0.0
  0
LINE
  5
205
100
AcDbEntity
  8
0
 62
     0
100
AcDbLine
 10
61.875
 20
55.0
 30
0.0
 11
61.875
 21
55.0
 31
0.0
  0
LINE
  5
206
100
AcDbEntity
  8
0
 62
     0
100
AcDbLine
 10
62.5
 20
55.0
 30
0.0
 11
62.5
 21
55.0
 31
0.0
  0
LINE
  5
207
100
AcDbEntity
  8
0
 62
     0
100
AcDbLine
 10
63.125
 20
55.0
 30
0.0
 11
63.125
 21
55.0
 31
0.0
  0
LINE
  5
208
100
AcDbEntity
  8
0
 62
     0
100
AcDbLine
 10
63.75
 20
55.0
 30
0.0
 11
63.75
 21
55.0
 31
0.0
  0
LINE
  5
209
100
AcDbEntity
  8
0
 62
     0
100
AcDbLine
 10
64.375
 20
55.0
 30
0.0
 11
64.375
 21
55.0
 31
0.0
  0
LINE
  5
20A
100
AcDbEntity
  8
0
 62
     0
100
AcDbLine
 10
65.0
 20
55.0
 30
0.0
 11
65.0
 21
55.0
 31
0.0
  0
LINE
  5
20B
100
AcDbEntity
  8
0
 62
     0
100
AcDbLine
 10
65.625
 20
55.0
 30
0.0
 11
65.625
 21
55.0
 31
0.0
  0
ENDBLK
  5
20C
100
AcDbEntity
  8
0
100
AcDbBlockEnd
  0
BLOCK
  5
20D
100
AcDbEntity
  8
0
100
AcDbBlockBegin
  2
*X3
 70
     1
 10
0.0
 20
0.0
 30
0.0
  3
*X3
  1

  0
LINE
  5
20E
100
AcDbEntity
  8
0
 62
     0
100
AcDbLine
 10
66.5625
 20
58.125
 30
0.0
 11
66.5625
 21
58.125
 31
0.0
  0
LINE
  5
20F
100
AcDbEntity
  8
0
 62
     0
100
AcDbLine
 10
66.25
 20
58.75
 30
0.0
 11
66.25
 21
58.75
 31
0.0
  0
LINE
  5
210
100
AcDbEntity
  8
0
 62
     0
100
AcDbLine
 10
66.875
 20
58.75
 30
0.0
 11
66.875
 21
58.75
 31
0.0
  0
LINE
  5
211
100
AcDbEntity
  8
0
 62
     0
100
AcDbLine
 10
67.5
 20
58.75
 30
0.0
 11
67.5
 21
58.75
 31
0.0
  0
LINE
  5
212
100
AcDbEntity
  8
0
 62
     0
100
AcDbLine
 10
66.5625
 20
59.375
 30
0.0
 11
66.5625
 21
59.375
 31
0.0
  0
LINE
  5
213
100
AcDbEntity
  8
0
 62
     0
100
AcDbLine
 10
67.1875
 20
59.375
 30
0.0
 11
67.1875
 21
59.375
 31
0.0
  0
LINE
  5
214
100
AcDbEntity
  8
0
 62
     0
100
AcDbLine
 10
67.8125
 20
59.375
 30
0.0
 11
67.8125
 21
59.375
 31
0.0
  0
LINE
  5
215
100
AcDbEntity
  8
0
 62
     0
100
AcDbLine
 10
68.4375
 20
59.375
 30
0.0
 11
68.4375
 21
59.375
 31
0.0
  0
LINE
  5
216
100
AcDbEntity
  8
0
 62
     0
100
AcDbLine
 10
66.25
 20
60.0
 30
0.0
 11
66.25
 21
60.0
 31
0.0
  0
LINE
  5
217
100
AcDbEntity
  8
0
 62
     0
100
AcDbLine
 10
66.875
 20
60.0
 30
0.0
 11
66.875
 21
60.0
 31
0.0
  0
LINE
  5
218
100
AcDbEntity
  8
0
 62
     0
100
AcDbLine
 10
67.5
 20
60.0
 30
0.0
 11
67.5
 21
60.0
 31
0.0
  0
LINE
  5
219
100
AcDbEntity
  8
0
 62
     0
100
AcDbLine
 10
68.125
 20
60.0
 30
0.0
 11
68.125
 21
60.0
 31
0.0
  0
LINE
  5
21A
100
AcDbEntity
  8
0
 62
     0
100
AcDbLine
 10
68.75
 20
60.0
 30
0.0
 11
68.75
 21
60.0
 31
0.0
  0
LINE
  5
21B
100
AcDbEntity
  8
0
 62
     0
100
AcDbLine
 10
66.5625
 20
60.625
 30
0.0
 11
66.5625
 21
60.625
 31
0.0
  0
LINE
  5
21C
100
AcDbEntity
  8
0
 62
     0
100
AcDbLine
 10
67.1875
 20
60.625
 30
0.0
 11
67.1875
 21
60.625
 31
0.0
  0
LINE
  5
21D
100
AcDbEntity
  8
0
 62
     0
100
AcDbLine
 10
67.8125
 20
60.625
 30
0.0
 11
67.8125
 21
60.625
 31
0.0
  0
LINE
  5
21E
100
AcDbEntity
  8
0
 62
     0
100
AcDbLine
 10
68.4375
 20
60.625
 30
0.0
 11
68.4375
 21
60.625
 31
0.0
  0
LINE
  5
21F
100
AcDbEntity
  8
0
 62
     0
100
AcDbLine
 10
66.25
 20
61.25
 30
0.0
 11
66.25
 21
61.25
 31
0.0
  0
LINE
  5
220
100
AcDbEntity
  8
0
 62
     0
100
AcDbLine
 10
66.875
 20
61.25
 30
0.0
 11
66.875
 21
61.25
 31
0.0
  0
LINE
  5
221
100
AcDbEntity
  8
0
 62
     0
100
AcDbLine
 10
67.5
 20
61.25
 30
0.0
 11
67.5
 21
61.25
 31
0.0
  0
LINE
  5
222
100
AcDbEntity
  8
0
 62
     0
100
AcDbLine
 10
68.125
 20
61.25
 30
0.0
 11
68.125
 21
61.25
 31
0.0
  0
LINE
  5
223
100
AcDbEntity
  8
0
 62
     0
100
AcDbLine
 10
66.5625
 20
61.875
 30
0.0
 11
66.5625
 21
61.875
 31
0.0
  0
LINE
  5
224
100
AcDbEntity
  8
0
 62
     0
100
AcDbLine
 10
67.1875
 20
61.875
 30
0.0
 11
67.1875
 21
61.875
 31
0.0
  0
LINE
  5
225
100
AcDbEntity
  8
0
 62
     0
100
AcDbLine
 10
67.8125
 20
61.875
 30
0.0
 11
67.8125
 21
61.875
 31
0.0
  0
LINE
  5
226
100
AcDbEntity
  8
0
 62
     0
100
AcDbLine
 10
66.25
 20
57.5
 30
0.0
 11
66.25
 21
57.5
 31
0.0
  0
LINE
  5
227
100
AcDbEntity
  8
0
 62
     0
100
AcDbLine
 10
66.875
 20
57.5
 30
0.0
 11
66.875
 21
57.5
 31
0.0
  0
LINE
  5
228
100
AcDbEntity
  8
0
 62
     0
100
AcDbLine
 10
67.5
 20
57.5
 30
0.0
 11
67.5
 21
57.5
 31
0.0
  0
LINE
  5
229
100
AcDbEntity
  8
0
 62
     0
100
AcDbLine
 10
68.125
 20
57.5
 30
0.0
 11
68.125
 21
57.5
 31
0.0
  0
LINE
  5
22A
100
AcDbEntity
  8
0
 62
     0
100
AcDbLine
 10
68.75
 20
57.5
 30
0.0
 11
68.75
 21
57.5
 31
0.0
  0
LINE
  5
22B
100
AcDbEntity
  8
0
 62
     0
100
AcDbLine
 10
69.375
 20
57.5
 30
0.0
 11
69.375
 21
57.5
 31
0.0
  0
LINE
  5
22C
100
AcDbEntity
  8
0
 62
     0
100
AcDbLine
 10
66.5625
 20
56.875
 30
0.0
 11
66.5625
 21
56.875
 31
0.0
  0
LINE
  5
22D
100
AcDbEntity
  8
0
 62
     0
100
AcDbLine
 10
67.1875
 20
56.875
 30
0.0
 11
67.1875
 21
56.875
 31
0.0
  0
LINE
  5
22E
100
AcDbEntity
  8
0
 62
     0
100
AcDbLine
 10
67.8125
 20
56.875
 30
0.0
 11
67.8125
 21
56.875
 31
0.0
  0
LINE
  5
22F
100
AcDbEntity
  8
0
 62
     0
100
AcDbLine
 10
68.4375
 20
56.875
 30
0.0
 11
68.4375
 21
56.875
 31
0.0
  0
LINE
  5
230
100
AcDbEntity
  8
0
 62
     0
100
AcDbLine
 10
69.0625
 20
56.875
 30
0.0
 11
69.0625
 21
56.875
 31
0.0
  0
LINE
  5
231
100
AcDbEntity
  8
0
 62
     0
100
AcDbLine
 10
69.6875
 20
56.875
 30
0.0
 11
69.6875
 21
56.875
 31
0.0
  0
LINE
  5
232
100
AcDbEntity
  8
0
 62
     0
100
AcDbLine
 10
70.3125
 20
56.875
 30
0.0
 11
70.3125
 21
56.875
 31
0.0
  0
LINE
  5
233
100
AcDbEntity
  8
0
 62
     0
100
AcDbLine
 10
70.9375
 20
56.875
 30
0.0
 11
70.9375
 21
56.875
 31
0.0
  0
LINE
  5
234
100
AcDbEntity
  8
0
 62
     0
100
AcDbLine
 10
71.5625
 20
56.875
 30
0.0
 11
71.5625
 21
56.875
 31
0.0
  0
LINE
  5
235
100
AcDbEntity
  8
0
 62
     0
100
AcDbLine
 10
66.25
 20
56.25
 30
0.0
 11
66.25
 21
56.25
 31
0.0
  0
LINE
  5
236
100
AcDbEntity
  8
0
 62
     0
100
AcDbLine
 10
66.875
 20
56.25
 30
0.0
 11
66.875
 21
56.25
 31
0.0
  0
LINE
  5
237
100
AcDbEntity
  8
0
 62
     0
100
AcDbLine
 10
67.5
 20
56.25
 30
0.0
 11
67.5
 21
56.25
 31
0.0
  0
LINE
  5
238
100
AcDbEntity
  8
0
 62
     0
100
AcDbLine
 10
68.125
 20
56.25
 30
0.0
 11
68.125
 21
56.25
 31
0.0
  0
LINE
  5
239
100
AcDbEntity
  8
0
 62
     0
100
AcDbLine
 10
68.75
 20
56.25
 30
0.0
 11
68.75
 21
56.25
 31
0.0
  0
LINE
  5
23A
100
AcDbEntity
  8
0
 62
     0
100
AcDbLine
 10
69.375
 20
56.25
 30
0.0
 11
69.375
 21
56.25
 31
0.0
  0
LINE
  5
23B
100
AcDbEntity
  8
0
 62
     0
100
AcDbLine
 10
70.0
 20
56.25
 30
0.0
 11
70.0
 21
56.25
 31
0.0
  0
LINE
  5
23C
100
AcDbEntity
  8
0
 62
     0
100
AcDbLine
 10
70.625
 20
56.25
 30
0.0
 11
70.625
 21
56.25
 31
0.0
  0
LINE
  5
23D
100
AcDbEntity
  8
0
 62
     0
100
AcDbLine
 10
71.25
 20
56.25
 30
0.0
 11
71.25
 21
56.25
 31
0.0
  0
LINE
  5
23E
100
AcDbEntity
  8
0
 62
     0
100
AcDbLine
 10
66.5625
 20
55.625
 30
0.0
 11
66.5625
 21
55.625
 31
0.0
  0
LINE
  5
23F
100
AcDbEntity
  8
0
 62
     0
100
AcDbLine
 10
67.1875
 20
55.625
 30
0.0
 11
67.1875
 21
55.625
 31
0.0
  0
LINE
  5
240
100
AcDbEntity
  8
0
 62
     0
100
AcDbLine
 10
67.8125
 20
55.625
 30
0.0
 11
67.8125
 21
55.625
 31
0.0
  0
LINE
  5
241
100
AcDbEntity
  8
0
 62
     0
100
AcDbLine
 10
68.4375
 20
55.625
 30
0.0
 11
68.4375
 21
55.625
 31
0.0
  0
LINE
  5
242
100
AcDbEntity
  8
0
 62
     0
100
AcDbLine
 10
69.0625
 20
55.625
 30
0.0
 11
69.0625
 21
55.625
 31
0.0
  0
LINE
  5
243
100
AcDbEntity
  8
0
 62
     0
100
AcDbLine
 10
69.6875
 20
55.625
 30
0.0
 11
69.6875
 21
55.625
 31
0.0
  0
LINE
  5
244
100
AcDbEntity
  8
0
 62
     0
100
AcDbLine
 10
70.3125
 20
55.625
 30
0.0
 11
70.3125
 21
55.625
 31
0.0
  0
LINE
  5
245
100
AcDbEntity
  8
0
 62
     0
100
AcDbLine
 10
70.9375
 20
55.625
 30
0.0
 11
70.9375
 21
55.625
 31
0.0
  0
LINE
  5
246
100
AcDbEntity
  8
0
 62
     0
100
AcDbLine
 10
71.5625
 20
55.625
 30
0.0
 11
71.5625
 21
55.625
 31
0.0
  0
LINE
  5
247
100
AcDbEntity
  8
0
 62
     0
100
AcDbLine
 10
66.25
 20
55.0
 30
0.0
 11
66.25
 21
55.0
 31
0.0
  0
LINE
  5
248
100
AcDbEntity
  8
0
 62
     0
100
AcDbLine
 10
66.875
 20
55.0
 30
0.0
 11
66.875
 21
55.0
 31
0.0
  0
LINE
  5
249
100
AcDbEntity
  8
0
 62
     0
100
AcDbLine
 10
67.5
 20
55.0
 30
0.0
 11
67.5
 21
55.0
 31
0.0
  0
LINE
  5
24A
100
AcDbEntity
  8
0
 62
     0
100
AcDbLine
 10
68.125
 20
55.0
 30
0.0
 11
68.125
 21
55.0
 31
0.0
  0
LINE
  5
24B
100
AcDbEntity
  8
0
 62
     0
100
AcDbLine
 10
68.75
 20
55.0
 30
0.0
 11
68.75
 21
55.0
 31
0.0
  0
LINE
  5
24C
100
AcDbEntity
  8
0
 62
     0
100
AcDbLine
 10
69.375
 20
55.0
 30
0.0
 11
69.375
 21
55.0
 31
0.0
  0
LINE
  5
24D
100
AcDbEntity
  8
0
 62
     0
100
AcDbLine
 10
70.0
 20
55.0
 30
0.0
 11
70.0
 21
55.0
 31
0.0
  0
LINE
  5
24E
100
AcDbEntity
  8
0
 62
     0
100
AcDbLine
 10
70.625
 20
55.0
 30
0.0
 11
70.625
 21
55.0
 31
0.0
  0
LINE
  5
24F
100
AcDbEntity
  8
0
 62
     0
100
AcDbLine
 10
71.25
 20
55.0
 30
0.0
 11
71.25
 21
55.0
 31
0.0
  0
LINE
  5
250
100
AcDbEntity
  8
0
 62
     0
100
AcDbLine
 10
71.875
 20
55.0
 30
0.0
 11
71.875
 21
55.0
 31
0.0
  0
ENDBLK
  5
251
100
AcDbEntity
  8
0
100
AcDbBlockEnd
  0
BLOCK
  5
252
100
AcDbEntity
  8
0
100
AcDbBlockBegin
  2
*X4
 70
     1
 10
0.0
 20
0.0
 30
0.0
  3
*X4
  1

  0
LINE
  5
253
100
AcDbEntity
  8
0
 62
     0
100
AcDbLine
 10
51.894024
 20
59.571288
 30
0.0
 11
51.894024
 21
59.571288
 31
0.0
  0
LINE
  5
254
100
AcDbEntity
  8
0
 62
     0
100
AcDbLine
 10
53.183223
 20
60.560525
 30
0.0
 11
53.183223
 21
60.560525
 31
0.0
  0
LINE
  5
255
100
AcDbEntity
  8
0
 62
     0
100
AcDbLine
 10
55.737821
 20
62.520737
 30
0.0
 11
55.737821
 21
62.520737
 31
0.0
  0
LINE
  5
256
100
AcDbEntity
  8
0
 62
     0
100
AcDbLine
 10
57.02702
 20
63.509975
 30
0.0
 11
57.02702
 21
63.509975
 31
0.0
  0
LINE
  5
257
100
AcDbEntity
  8
0
 62
     0
100
AcDbLine
 10
58.232918
 20
64.435292
 30
0.0
 11
58.232918
 21
64.435292
 31
0.0
  0
LINE
  5
258
100
AcDbEntity
  8
0
 62
     0
100
AcDbLine
 10
50.48233
 20
60.463217
 30
0.0
 11
50.48233
 21
60.463217
 31
0.0
  0
LINE
  5
259
100
AcDbEntity
  8
0
 62
     0
100
AcDbLine
 10
51.831031
 20
61.498112
 30
0.0
 11
51.831031
 21
61.498112
 31
0.0
  0
LINE
  5
25A
100
AcDbEntity
  8
0
 62
     0
100
AcDbLine
 10
53.12023
 20
62.487349
 30
0.0
 11
53.12023
 21
62.487349
 31
0.0
  0
LINE
  5
25B
100
AcDbEntity
  8
0
 62
     0
100
AcDbLine
 10
54.326127
 20
63.412667
 30
0.0
 11
54.326127
 21
63.412667
 31
0.0
  0
LINE
  5
25C
100
AcDbEntity
  8
0
 62
     0
100
AcDbLine
 10
55.674828
 20
64.447561
 30
0.0
 11
55.674828
 21
64.447561
 31
0.0
  0
LINE
  5
25D
100
AcDbEntity
  8
0
 62
     0
100
AcDbLine
 10
49.21344
 20
61.464724
 30
0.0
 11
49.21344
 21
61.464724
 31
0.0
  0
LINE
  5
25E
100
AcDbEntity
  8
0
 62
     0
100
AcDbLine
 10
50.419337
 20
62.390041
 30
0.0
 11
50.419337
 21
62.390041
 31
0.0
  0
LINE
  5
25F
100
AcDbEntity
  8
0
 62
     0
100
AcDbLine
 10
51.768038
 20
63.424936
 30
0.0
 11
51.768038
 21
63.424936
 31
0.0
  0
LINE
  5
260
100
AcDbEntity
  8
0
 62
     0
100
AcDbLine
 10
53.057237
 20
64.414173
 30
0.0
 11
53.057237
 21
64.414173
 31
0.0
  0
LINE
  5
261
100
AcDbEntity
  8
0
 62
     0
100
AcDbLine
 10
47.861247
 20
62.40231
 30
0.0
 11
47.861247
 21
62.40231
 31
0.0
  0
LINE
  5
262
100
AcDbEntity
  8
0
 62
     0
100
AcDbLine
 10
49.150446
 20
63.391548
 30
0.0
 11
49.150446
 21
63.391548
 31
0.0
  0
LINE
  5
263
100
AcDbEntity
  8
0
 62
     0
100
AcDbLine
 10
50.356344
 20
64.316865
 30
0.0
 11
50.356344
 21
64.316865
 31
0.0
  0
LINE
  5
264
100
AcDbEntity
  8
0
 62
     0
100
AcDbLine
 10
32.423066
 20
52.531338
 30
0.0
 11
32.423066
 21
52.531338
 31
0.0
  0
LINE
  5
265
100
AcDbEntity
  8
0
 62
     0
100
AcDbLine
 10
33.712265
 20
53.520575
 30
0.0
 11
33.712265
 21
53.520575
 31
0.0
  0
LINE
  5
266
100
AcDbEntity
  8
0
 62
     0
100
AcDbLine
 10
34.918162
 20
54.445892
 30
0.0
 11
34.918162
 21
54.445892
 31
0.0
  0
LINE
  5
267
100
AcDbEntity
  8
0
 62
     0
100
AcDbLine
 10
45.243656
 20
62.368922
 30
0.0
 11
45.243656
 21
62.368922
 31
0.0
  0
LINE
  5
268
100
AcDbEntity
  8
0
 62
     0
100
AcDbLine
 10
46.449553
 20
63.29424
 30
0.0
 11
46.449553
 21
63.29424
 31
0.0
  0
LINE
  5
269
100
AcDbEntity
  8
0
 62
     0
100
AcDbLine
 10
47.798254
 20
64.329134
 30
0.0
 11
47.798254
 21
64.329134
 31
0.0
  0
LINE
  5
26A
100
AcDbEntity
  8
0
 62
     0
100
AcDbLine
 10
41.399859
 20
59.419473
 30
0.0
 11
41.399859
 21
59.419473
 31
0.0
  0
LINE
  5
26B
100
AcDbEntity
  8
0
 62
     0
100
AcDbLine
 10
42.605756
 20
60.34479
 30
0.0
 11
42.605756
 21
60.34479
 31
0.0
  0
LINE
  5
26C
100
AcDbEntity
  8
0
 62
     0
100
AcDbLine
 10
31.011372
 20
53.423267
 30
0.0
 11
31.011372
 21
53.423267
 31
0.0
  0
LINE
  5
26D
100
AcDbEntity
  8
0
 62
     0
100
AcDbLine
 10
32.360073
 20
54.458161
 30
0.0
 11
32.360073
 21
54.458161
 31
0.0
  0
LINE
  5
26E
100
AcDbEntity
  8
0
 62
     0
100
AcDbLine
 10
33.649272
 20
55.447399
 30
0.0
 11
33.649272
 21
55.447399
 31
0.0
  0
LINE
  5
26F
100
AcDbEntity
  8
0
 62
     0
100
AcDbLine
 10
34.855169
 20
56.372716
 30
0.0
 11
34.855169
 21
56.372716
 31
0.0
  0
LINE
  5
270
100
AcDbEntity
  8
0
 62
     0
100
AcDbLine
 10
40.047667
 20
60.35706
 30
0.0
 11
40.047667
 21
60.35706
 31
0.0
  0
LINE
  5
271
100
AcDbEntity
  8
0
 62
     0
100
AcDbLine
 10
41.336866
 20
61.346297
 30
0.0
 11
41.336866
 21
61.346297
 31
0.0
  0
LINE
  5
272
100
AcDbEntity
  8
0
 62
     0
100
AcDbLine
 10
42.542763
 20
62.271614
 30
0.0
 11
42.542763
 21
62.271614
 31
0.0
  0
LINE
  5
273
100
AcDbEntity
  8
0
 62
     0
100
AcDbLine
 10
43.891464
 20
63.306509
 30
0.0
 11
43.891464
 21
63.306509
 31
0.0
  0
LINE
  5
274
100
AcDbEntity
  8
0
 62
     0
100
AcDbLine
 10
45.180663
 20
64.295746
 30
0.0
 11
45.180663
 21
64.295746
 31
0.0
  0
LINE
  5
275
100
AcDbEntity
  8
0
 62
     0
100
AcDbLine
 10
29.742482
 20
54.424773
 30
0.0
 11
29.742482
 21
54.424773
 31
0.0
  0
LINE
  5
276
100
AcDbEntity
  8
0
 62
     0
100
AcDbLine
 10
30.948379
 20
55.350091
 30
0.0
 11
30.948379
 21
55.350091
 31
0.0
  0
LINE
  5
277
100
AcDbEntity
  8
0
 62
     0
100
AcDbLine
 10
32.297079
 20
56.384985
 30
0.0
 11
32.297079
 21
56.384985
 31
0.0
  0
LINE
  5
278
100
AcDbEntity
  8
0
 62
     0
100
AcDbLine
 10
33.586279
 20
57.374222
 30
0.0
 11
33.586279
 21
57.374222
 31
0.0
  0
LINE
  5
279
100
AcDbEntity
  8
0
 62
     0
100
AcDbLine
 10
34.792176
 20
58.29954
 30
0.0
 11
34.792176
 21
58.29954
 31
0.0
  0
LINE
  5
27A
100
AcDbEntity
  8
0
 62
     0
100
AcDbLine
 10
38.635973
 20
61.248989
 30
0.0
 11
38.635973
 21
61.248989
 31
0.0
  0
LINE
  5
27B
100
AcDbEntity
  8
0
 62
     0
100
AcDbLine
 10
39.984673
 20
62.283883
 30
0.0
 11
39.984673
 21
62.283883
 31
0.0
  0
LINE
  5
27C
100
AcDbEntity
  8
0
 62
     0
100
AcDbLine
 10
41.273873
 20
63.273121
 30
0.0
 11
41.273873
 21
63.273121
 31
0.0
  0
LINE
  5
27D
100
AcDbEntity
  8
0
 62
     0
100
AcDbLine
 10
42.47977
 20
64.198438
 30
0.0
 11
42.47977
 21
64.198438
 31
0.0
  0
LINE
  5
27E
100
AcDbEntity
  8
0
 62
     0
100
AcDbLine
 10
29.679488
 20
56.351597
 30
0.0
 11
29.679488
 21
56.351597
 31
0.0
  0
LINE
  5
27F
100
AcDbEntity
  8
0
 62
     0
100
AcDbLine
 10
30.885385
 20
57.276914
 30
0.0
 11
30.885385
 21
57.276914
 31
0.0
  0
LINE
  5
280
100
AcDbEntity
  8
0
 62
     0
100
AcDbLine
 10
32.234086
 20
58.311809
 30
0.0
 11
32.234086
 21
58.311809
 31
0.0
  0
LINE
  5
281
100
AcDbEntity
  8
0
 62
     0
100
AcDbLine
 10
33.523285
 20
59.301046
 30
0.0
 11
33.523285
 21
59.301046
 31
0.0
  0
LINE
  5
282
100
AcDbEntity
  8
0
 62
     0
100
AcDbLine
 10
34.729182
 20
60.226364
 30
0.0
 11
34.729182
 21
60.226364
 31
0.0
  0
LINE
  5
283
100
AcDbEntity
  8
0
 62
     0
100
AcDbLine
 10
37.367082
 20
62.250495
 30
0.0
 11
37.367082
 21
62.250495
 31
0.0
  0
LINE
  5
284
100
AcDbEntity
  8
0
 62
     0
100
AcDbLine
 10
38.572979
 20
63.175813
 30
0.0
 11
38.572979
 21
63.175813
 31
0.0
  0
LINE
  5
285
100
AcDbEntity
  8
0
 62
     0
100
AcDbLine
 10
39.92168
 20
64.210707
 30
0.0
 11
39.92168
 21
64.210707
 31
0.0
  0
LINE
  5
286
100
AcDbEntity
  8
0
 62
     0
100
AcDbLine
 10
29.616495
 20
58.278421
 30
0.0
 11
29.616495
 21
58.278421
 31
0.0
  0
LINE
  5
287
100
AcDbEntity
  8
0
 62
     0
100
AcDbLine
 10
30.822392
 20
59.203738
 30
0.0
 11
30.822392
 21
59.203738
 31
0.0
  0
LINE
  5
288
100
AcDbEntity
  8
0
 62
     0
100
AcDbLine
 10
32.171093
 20
60.238633
 30
0.0
 11
32.171093
 21
60.238633
 31
0.0
  0
LINE
  5
289
100
AcDbEntity
  8
0
 62
     0
100
AcDbLine
 10
33.460292
 20
61.22787
 30
0.0
 11
33.460292
 21
61.22787
 31
0.0
  0
LINE
  5
28A
100
AcDbEntity
  8
0
 62
     0
100
AcDbLine
 10
34.666189
 20
62.153187
 30
0.0
 11
34.666189
 21
62.153187
 31
0.0
  0
LINE
  5
28B
100
AcDbEntity
  8
0
 62
     0
100
AcDbLine
 10
36.01489
 20
63.188082
 30
0.0
 11
36.01489
 21
63.188082
 31
0.0
  0
LINE
  5
28C
100
AcDbEntity
  8
0
 62
     0
100
AcDbLine
 10
37.304089
 20
64.177319
 30
0.0
 11
37.304089
 21
64.177319
 31
0.0
  0
LINE
  5
28D
100
AcDbEntity
  8
0
 62
     0
100
AcDbLine
 10
38.509986
 20
65.102636
 30
0.0
 11
38.509986
 21
65.102636
 31
0.0
  0
LINE
  5
28E
100
AcDbEntity
  8
0
 62
     0
100
AcDbLine
 10
29.553502
 20
60.205245
 30
0.0
 11
29.553502
 21
60.205245
 31
0.0
  0
LINE
  5
28F
100
AcDbEntity
  8
0
 62
     0
100
AcDbLine
 10
30.759399
 20
61.130562
 30
0.0
 11
30.759399
 21
61.130562
 31
0.0
  0
LINE
  5
290
100
AcDbEntity
  8
0
 62
     0
100
AcDbLine
 10
32.108099
 20
62.165456
 30
0.0
 11
32.108099
 21
62.165456
 31
0.0
  0
LINE
  5
291
100
AcDbEntity
  8
0
 62
     0
100
AcDbLine
 10
33.397299
 20
63.154694
 30
0.0
 11
33.397299
 21
63.154694
 31
0.0
  0
LINE
  5
292
100
AcDbEntity
  8
0
 62
     0
100
AcDbLine
 10
34.603196
 20
64.080011
 30
0.0
 11
34.603196
 21
64.080011
 31
0.0
  0
LINE
  5
293
100
AcDbEntity
  8
0
 62
     0
100
AcDbLine
 10
35.951896
 20
65.114906
 30
0.0
 11
35.951896
 21
65.114906
 31
0.0
  0
LINE
  5
294
100
AcDbEntity
  8
0
 62
     0
100
AcDbLine
 10
29.490508
 20
62.132068
 30
0.0
 11
29.490508
 21
62.132068
 31
0.0
  0
LINE
  5
295
100
AcDbEntity
  8
0
 62
     0
100
AcDbLine
 10
30.696405
 20
63.057386
 30
0.0
 11
30.696405
 21
63.057386
 31
0.0
  0
LINE
  5
296
100
AcDbEntity
  8
0
 62
     0
100
AcDbLine
 10
32.045106
 20
64.09228
 30
0.0
 11
32.045106
 21
64.09228
 31
0.0
  0
LINE
  5
297
100
AcDbEntity
  8
0
 62
     0
100
AcDbLine
 10
33.334305
 20
65.081517
 30
0.0
 11
33.334305
 21
65.081517
 31
0.0
  0
LINE
  5
298
100
AcDbEntity
  8
0
 62
     0
100
AcDbLine
 10
29.427515
 20
64.058892
 30
0.0
 11
29.427515
 21
64.058892
 31
0.0
  0
LINE
  5
299
100
AcDbEntity
  8
0
 62
     0
100
AcDbLine
 10
30.633412
 20
64.98421
 30
0.0
 11
30.633412
 21
64.98421
 31
0.0
  0
LINE
  5
29A
100
AcDbEntity
  8
0
 62
     0
100
AcDbLine
 10
58.295911
 20
62.508468
 30
0.0
 11
58.295911
 21
62.508468
 31
0.0
  0
LINE
  5
29B
100
AcDbEntity
  8
0
 62
     0
100
AcDbLine
 10
59.644612
 20
63.543363
 30
0.0
 11
59.644612
 21
63.543363
 31
0.0
  0
LINE
  5
29C
100
AcDbEntity
  8
0
 62
     0
100
AcDbLine
 10
60.933811
 20
64.5326
 30
0.0
 11
60.933811
 21
64.5326
 31
0.0
  0
LINE
  5
29D
100
AcDbEntity
  8
0
 62
     0
100
AcDbLine
 10
59.707605
 20
61.616539
 30
0.0
 11
59.707605
 21
61.616539
 31
0.0
  0
LINE
  5
29E
100
AcDbEntity
  8
0
 62
     0
100
AcDbLine
 10
60.996804
 20
62.605776
 30
0.0
 11
60.996804
 21
62.605776
 31
0.0
  0
LINE
  5
29F
100
AcDbEntity
  8
0
 62
     0
100
AcDbLine
 10
62.202701
 20
63.531094
 30
0.0
 11
62.202701
 21
63.531094
 31
0.0
  0
LINE
  5
2A0
100
AcDbEntity
  8
0
 62
     0
100
AcDbLine
 10
63.551402
 20
64.565988
 30
0.0
 11
63.551402
 21
64.565988
 31
0.0
  0
LINE
  5
2A1
100
AcDbEntity
  8
0
 62
     0
100
AcDbLine
 10
59.770598
 20
59.689715
 30
0.0
 11
59.770598
 21
59.689715
 31
0.0
  0
LINE
  5
2A2
100
AcDbEntity
  8
0
 62
     0
100
AcDbLine
 10
61.059797
 20
60.678952
 30
0.0
 11
61.059797
 21
60.678952
 31
0.0
  0
LINE
  5
2A3
100
AcDbEntity
  8
0
 62
     0
100
AcDbLine
 10
62.265695
 20
61.60427
 30
0.0
 11
62.265695
 21
61.60427
 31
0.0
  0
LINE
  5
2A4
100
AcDbEntity
  8
0
 62
     0
100
AcDbLine
 10
63.614395
 20
62.639164
 30
0.0
 11
63.614395
 21
62.639164
 31
0.0
  0
LINE
  5
2A5
100
AcDbEntity
  8
0
 62
     0
100
AcDbLine
 10
64.903594
 20
63.628401
 30
0.0
 11
64.903594
 21
63.628401
 31
0.0
  0
LINE
  5
2A6
100
AcDbEntity
  8
0
 62
     0
100
AcDbLine
 10
66.109491
 20
64.553719
 30
0.0
 11
66.109491
 21
64.553719
 31
0.0
  0
LINE
  5
2A7
100
AcDbEntity
  8
0
 62
     0
100
AcDbLine
 10
62.328688
 20
59.677446
 30
0.0
 11
62.328688
 21
59.677446
 31
0.0
  0
LINE
  5
2A8
100
AcDbEntity
  8
0
 62
     0
100
AcDbLine
 10
63.677389
 20
60.71234
 30
0.0
 11
63.677389
 21
60.71234
 31
0.0
  0
LINE
  5
2A9
100
AcDbEntity
  8
0
 62
     0
100
AcDbLine
 10
66.172485
 20
62.626895
 30
0.0
 11
66.172485
 21
62.626895
 31
0.0
  0
LINE
  5
2AA
100
AcDbEntity
  8
0
 62
     0
100
AcDbLine
 10
67.521185
 20
63.66179
 30
0.0
 11
67.521185
 21
63.66179
 31
0.0
  0
LINE
  5
2AB
100
AcDbEntity
  8
0
 62
     0
100
AcDbLine
 10
68.810385
 20
64.651027
 30
0.0
 11
68.810385
 21
64.651027
 31
0.0
  0
LINE
  5
2AC
100
AcDbEntity
  8
0
 62
     0
100
AcDbLine
 10
68.873378
 20
62.724203
 30
0.0
 11
68.873378
 21
62.724203
 31
0.0
  0
LINE
  5
2AD
100
AcDbEntity
  8
0
 62
     0
100
AcDbLine
 10
68.936371
 20
60.797379
 30
0.0
 11
68.936371
 21
60.797379
 31
0.0
  0
LINE
  5
2AE
100
AcDbEntity
  8
0
 62
     0
100
AcDbLine
 10
70.142268
 20
61.722697
 30
0.0
 11
70.142268
 21
61.722697
 31
0.0
  0
LINE
  5
2AF
100
AcDbEntity
  8
0
 62
     0
100
AcDbLine
 10
29.49148
 20
55.665638
 30
0.0
 11
29.49148
 21
55.665638
 31
0.0
  0
LINE
  5
2B0
100
AcDbEntity
  8
0
 62
     0
100
AcDbLine
 10
30.011989
 20
55.734164
 30
0.0
 11
30.011989
 21
55.734164
 31
0.0
  0
LINE
  5
2B1
100
AcDbEntity
  8
0
 62
     0
100
AcDbLine
 10
30.824973
 20
55.841196
 30
0.0
 11
30.824973
 21
55.841196
 31
0.0
  0
LINE
  5
2B2
100
AcDbEntity
  8
0
 62
     0
100
AcDbLine
 10
32.183253
 20
56.020016
 30
0.0
 11
32.183253
 21
56.020016
 31
0.0
  0
LINE
  5
2B3
100
AcDbEntity
  8
0
 62
     0
100
AcDbLine
 10
32.703761
 20
56.088543
 30
0.0
 11
32.703761
 21
56.088543
 31
0.0
  0
LINE
  5
2B4
100
AcDbEntity
  8
0
 62
     0
100
AcDbLine
 10
33.516746
 20
56.195574
 30
0.0
 11
33.516746
 21
56.195574
 31
0.0
  0
LINE
  5
2B5
100
AcDbEntity
  8
0
 62
     0
100
AcDbLine
 10
34.875026
 20
56.374395
 30
0.0
 11
34.875026
 21
56.374395
 31
0.0
  0
LINE
  5
2B6
100
AcDbEntity
  8
0
 62
     0
100
AcDbLine
 10
35.395534
 20
56.442921
 30
0.0
 11
35.395534
 21
56.442921
 31
0.0
  0
LINE
  5
2B7
100
AcDbEntity
  8
0
 62
     0
100
AcDbLine
 10
68.509792
 20
60.802496
 30
0.0
 11
68.509792
 21
60.802496
 31
0.0
  0
LINE
  5
2B8
100
AcDbEntity
  8
0
 62
     0
100
AcDbLine
 10
69.868072
 20
60.981317
 30
0.0
 11
69.868072
 21
60.981317
 31
0.0
  0
LINE
  5
2B9
100
AcDbEntity
  8
0
 62
     0
100
AcDbLine
 10
70.38858
 20
61.049843
 30
0.0
 11
70.38858
 21
61.049843
 31
0.0
  0
LINE
  5
2BA
100
AcDbEntity
  8
0
 62
     0
100
AcDbLine
 10
71.201565
 20
61.156875
 30
0.0
 11
71.201565
 21
61.156875
 31
0.0
  0
LINE
  5
2BB
100
AcDbEntity
  8
0
 62
     0
100
AcDbLine
 10
59.621489
 20
59.632329
 30
0.0
 11
59.621489
 21
59.632329
 31
0.0
  0
LINE
  5
2BC
100
AcDbEntity
  8
0
 62
     0
100
AcDbLine
 10
60.434474
 20
59.73936
 30
0.0
 11
60.434474
 21
59.73936
 31
0.0
  0
LINE
  5
2BD
100
AcDbEntity
  8
0
 62
     0
100
AcDbLine
 10
61.792754
 20
59.918181
 30
0.0
 11
61.792754
 21
59.918181
 31
0.0
  0
LINE
  5
2BE
100
AcDbEntity
  8
0
 62
     0
100
AcDbLine
 10
62.313262
 20
59.986707
 30
0.0
 11
62.313262
 21
59.986707
 31
0.0
  0
LINE
  5
2BF
100
AcDbEntity
  8
0
 62
     0
100
AcDbLine
 10
63.126247
 20
60.093739
 30
0.0
 11
63.126247
 21
60.093739
 31
0.0
  0
LINE
  5
2C0
100
AcDbEntity
  8
0
 62
     0
100
AcDbLine
 10
29.902977
 20
58.308963
 30
0.0
 11
29.902977
 21
58.308963
 31
0.0
  0
LINE
  5
2C1
100
AcDbEntity
  8
0
 62
     0
100
AcDbLine
 10
31.261257
 20
58.487784
 30
0.0
 11
31.261257
 21
58.487784
 31
0.0
  0
LINE
  5
2C2
100
AcDbEntity
  8
0
 62
     0
100
AcDbLine
 10
31.781765
 20
58.55631
 30
0.0
 11
31.781765
 21
58.55631
 31
0.0
  0
LINE
  5
2C3
100
AcDbEntity
  8
0
 62
     0
100
AcDbLine
 10
32.59475
 20
58.663342
 30
0.0
 11
32.59475
 21
58.663342
 31
0.0
  0
LINE
  5
2C4
100
AcDbEntity
  8
0
 62
     0
100
AcDbLine
 10
33.953029
 20
58.842163
 30
0.0
 11
33.953029
 21
58.842163
 31
0.0
  0
LINE
  5
2C5
100
AcDbEntity
  8
0
 62
     0
100
AcDbLine
 10
34.473538
 20
58.910689
 30
0.0
 11
34.473538
 21
58.910689
 31
0.0
  0
LINE
  5
2C6
100
AcDbEntity
  8
0
 62
     0
100
AcDbLine
 10
35.286523
 20
59.01772
 30
0.0
 11
35.286523
 21
59.01772
 31
0.0
  0
LINE
  5
2C7
100
AcDbEntity
  8
0
 62
     0
100
AcDbLine
 10
58.178985
 20
62.03157
 30
0.0
 11
58.178985
 21
62.03157
 31
0.0
  0
LINE
  5
2C8
100
AcDbEntity
  8
0
 62
     0
100
AcDbLine
 10
58.699493
 20
62.100096
 30
0.0
 11
58.699493
 21
62.100096
 31
0.0
  0
LINE
  5
2C9
100
AcDbEntity
  8
0
 62
     0
100
AcDbLine
 10
59.512478
 20
62.207128
 30
0.0
 11
59.512478
 21
62.207128
 31
0.0
  0
LINE
  5
2CA
100
AcDbEntity
  8
0
 62
     0
100
AcDbLine
 10
60.870757
 20
62.385949
 30
0.0
 11
60.870757
 21
62.385949
 31
0.0
  0
LINE
  5
2CB
100
AcDbEntity
  8
0
 62
     0
100
AcDbLine
 10
61.391266
 20
62.454475
 30
0.0
 11
61.391266
 21
62.454475
 31
0.0
  0
LINE
  5
2CC
100
AcDbEntity
  8
0
 62
     0
100
AcDbLine
 10
62.204251
 20
62.561506
 30
0.0
 11
62.204251
 21
62.561506
 31
0.0
  0
LINE
  5
2CD
100
AcDbEntity
  8
0
 62
     0
100
AcDbLine
 10
63.56253
 20
62.740327
 30
0.0
 11
63.56253
 21
62.740327
 31
0.0
  0
LINE
  5
2CE
100
AcDbEntity
  8
0
 62
     0
100
AcDbLine
 10
64.083039
 20
62.808853
 30
0.0
 11
64.083039
 21
62.808853
 31
0.0
  0
LINE
  5
2CF
100
AcDbEntity
  8
0
 62
     0
100
AcDbLine
 10
64.896024
 20
62.915885
 30
0.0
 11
64.896024
 21
62.915885
 31
0.0
  0
LINE
  5
2D0
100
AcDbEntity
  8
0
 62
     0
100
AcDbLine
 10
66.254303
 20
63.094706
 30
0.0
 11
66.254303
 21
63.094706
 31
0.0
  0
LINE
  5
2D1
100
AcDbEntity
  8
0
 62
     0
100
AcDbLine
 10
66.774812
 20
63.163232
 30
0.0
 11
66.774812
 21
63.163232
 31
0.0
  0
LINE
  5
2D2
100
AcDbEntity
  8
0
 62
     0
100
AcDbLine
 10
67.587796
 20
63.270264
 30
0.0
 11
67.587796
 21
63.270264
 31
0.0
  0
LINE
  5
2D3
100
AcDbEntity
  8
0
 62
     0
100
AcDbLine
 10
68.946076
 20
63.449084
 30
0.0
 11
68.946076
 21
63.449084
 31
0.0
  0
LINE
  5
2D4
100
AcDbEntity
  8
0
 62
     0
100
AcDbLine
 10
39.857084
 20
59.619446
 30
0.0
 11
39.857084
 21
59.619446
 31
0.0
  0
LINE
  5
2D5
100
AcDbEntity
  8
0
 62
     0
100
AcDbLine
 10
40.670068
 20
59.726477
 30
0.0
 11
40.670068
 21
59.726477
 31
0.0
  0
LINE
  5
2D6
100
AcDbEntity
  8
0
 62
     0
100
AcDbLine
 10
42.028348
 20
59.905298
 30
0.0
 11
42.028348
 21
59.905298
 31
0.0
  0
LINE
  5
2D7
100
AcDbEntity
  8
0
 62
     0
100
AcDbLine
 10
42.548856
 20
59.973825
 30
0.0
 11
42.548856
 21
59.973825
 31
0.0
  0
LINE
  5
2D8
100
AcDbEntity
  8
0
 62
     0
100
AcDbLine
 10
48.745387
 20
60.789613
 30
0.0
 11
48.745387
 21
60.789613
 31
0.0
  0
LINE
  5
2D9
100
AcDbEntity
  8
0
 62
     0
100
AcDbLine
 10
50.103666
 20
60.968434
 30
0.0
 11
50.103666
 21
60.968434
 31
0.0
  0
LINE
  5
2DA
100
AcDbEntity
  8
0
 62
     0
100
AcDbLine
 10
50.624175
 20
61.03696
 30
0.0
 11
50.624175
 21
61.03696
 31
0.0
  0
LINE
  5
2DB
100
AcDbEntity
  8
0
 62
     0
100
AcDbLine
 10
51.43716
 20
61.143992
 30
0.0
 11
51.43716
 21
61.143992
 31
0.0
  0
LINE
  5
2DC
100
AcDbEntity
  8
0
 62
     0
100
AcDbLine
 10
52.795439
 20
61.322813
 30
0.0
 11
52.795439
 21
61.322813
 31
0.0
  0
LINE
  5
2DD
100
AcDbEntity
  8
0
 62
     0
100
AcDbLine
 10
53.315948
 20
61.391339
 30
0.0
 11
53.315948
 21
61.391339
 31
0.0
  0
LINE
  5
2DE
100
AcDbEntity
  8
0
 62
     0
100
AcDbLine
 10
30.339261
 20
60.955551
 30
0.0
 11
30.339261
 21
60.955551
 31
0.0
  0
LINE
  5
2DF
100
AcDbEntity
  8
0
 62
     0
100
AcDbLine
 10
30.859769
 20
61.024078
 30
0.0
 11
30.859769
 21
61.024078
 31
0.0
  0
LINE
  5
2E0
100
AcDbEntity
  8
0
 62
     0
100
AcDbLine
 10
31.672754
 20
61.131109
 30
0.0
 11
31.672754
 21
61.131109
 31
0.0
  0
LINE
  5
2E1
100
AcDbEntity
  8
0
 62
     0
100
AcDbLine
 10
33.031033
 20
61.30993
 30
0.0
 11
33.031033
 21
61.30993
 31
0.0
  0
LINE
  5
2E2
100
AcDbEntity
  8
0
 62
     0
100
AcDbLine
 10
33.551542
 20
61.378456
 30
0.0
 11
33.551542
 21
61.378456
 31
0.0
  0
LINE
  5
2E3
100
AcDbEntity
  8
0
 62
     0
100
AcDbLine
 10
34.364527
 20
61.485488
 30
0.0
 11
34.364527
 21
61.485488
 31
0.0
  0
LINE
  5
2E4
100
AcDbEntity
  8
0
 62
     0
100
AcDbLine
 10
35.722806
 20
61.664309
 30
0.0
 11
35.722806
 21
61.664309
 31
0.0
  0
LINE
  5
2E5
100
AcDbEntity
  8
0
 62
     0
100
AcDbLine
 10
38.414579
 20
62.018687
 30
0.0
 11
38.414579
 21
62.018687
 31
0.0
  0
LINE
  5
2E6
100
AcDbEntity
  8
0
 62
     0
100
AcDbLine
 10
38.935088
 20
62.087213
 30
0.0
 11
38.935088
 21
62.087213
 31
0.0
  0
LINE
  5
2E7
100
AcDbEntity
  8
0
 62
     0
100
AcDbLine
 10
39.748072
 20
62.194245
 30
0.0
 11
39.748072
 21
62.194245
 31
0.0
  0
LINE
  5
2E8
100
AcDbEntity
  8
0
 62
     0
100
AcDbLine
 10
41.106352
 20
62.373066
 30
0.0
 11
41.106352
 21
62.373066
 31
0.0
  0
LINE
  5
2E9
100
AcDbEntity
  8
0
 62
     0
100
AcDbLine
 10
41.62686
 20
62.441592
 30
0.0
 11
41.62686
 21
62.441592
 31
0.0
  0
LINE
  5
2EA
100
AcDbEntity
  8
0
 62
     0
100
AcDbLine
 10
42.439845
 20
62.548624
 30
0.0
 11
42.439845
 21
62.548624
 31
0.0
  0
LINE
  5
2EB
100
AcDbEntity
  8
0
 62
     0
100
AcDbLine
 10
43.798125
 20
62.727444
 30
0.0
 11
43.798125
 21
62.727444
 31
0.0
  0
LINE
  5
2EC
100
AcDbEntity
  8
0
 62
     0
100
AcDbLine
 10
44.318633
 20
62.795971
 30
0.0
 11
44.318633
 21
62.795971
 31
0.0
  0
LINE
  5
2ED
100
AcDbEntity
  8
0
 62
     0
100
AcDbLine
 10
45.131618
 20
62.903002
 30
0.0
 11
45.131618
 21
62.903002
 31
0.0
  0
LINE
  5
2EE
100
AcDbEntity
  8
0
 62
     0
100
AcDbLine
 10
46.489897
 20
63.081823
 30
0.0
 11
46.489897
 21
63.081823
 31
0.0
  0
LINE
  5
2EF
100
AcDbEntity
  8
0
 62
     0
100
AcDbLine
 10
47.010406
 20
63.150349
 30
0.0
 11
47.010406
 21
63.150349
 31
0.0
  0
LINE
  5
2F0
100
AcDbEntity
  8
0
 62
     0
100
AcDbLine
 10
47.823391
 20
63.257381
 30
0.0
 11
47.823391
 21
63.257381
 31
0.0
  0
LINE
  5
2F1
100
AcDbEntity
  8
0
 62
     0
100
AcDbLine
 10
49.18167
 20
63.436202
 30
0.0
 11
49.18167
 21
63.436202
 31
0.0
  0
LINE
  5
2F2
100
AcDbEntity
  8
0
 62
     0
100
AcDbLine
 10
49.702179
 20
63.504728
 30
0.0
 11
49.702179
 21
63.504728
 31
0.0
  0
LINE
  5
2F3
100
AcDbEntity
  8
0
 62
     0
100
AcDbLine
 10
50.515163
 20
63.611759
 30
0.0
 11
50.515163
 21
63.611759
 31
0.0
  0
LINE
  5
2F4
100
AcDbEntity
  8
0
 62
     0
100
AcDbLine
 10
51.873443
 20
63.79058
 30
0.0
 11
51.873443
 21
63.79058
 31
0.0
  0
LINE
  5
2F5
100
AcDbEntity
  8
0
 62
     0
100
AcDbLine
 10
52.393952
 20
63.859106
 30
0.0
 11
52.393952
 21
63.859106
 31
0.0
  0
LINE
  5
2F6
100
AcDbEntity
  8
0
 62
     0
100
AcDbLine
 10
53.206936
 20
63.966138
 30
0.0
 11
53.206936
 21
63.966138
 31
0.0
  0
LINE
  5
2F7
100
AcDbEntity
  8
0
 62
     0
100
AcDbLine
 10
54.565216
 20
64.144959
 30
0.0
 11
54.565216
 21
64.144959
 31
0.0
  0
LINE
  5
2F8
100
AcDbEntity
  8
0
 62
     0
100
AcDbLine
 10
55.085724
 20
64.213485
 30
0.0
 11
55.085724
 21
64.213485
 31
0.0
  0
LINE
  5
2F9
100
AcDbEntity
  8
0
 62
     0
100
AcDbLine
 10
55.898709
 20
64.320517
 30
0.0
 11
55.898709
 21
64.320517
 31
0.0
  0
LINE
  5
2FA
100
AcDbEntity
  8
0
 62
     0
100
AcDbLine
 10
57.256989
 20
64.499337
 30
0.0
 11
57.256989
 21
64.499337
 31
0.0
  0
LINE
  5
2FB
100
AcDbEntity
  8
0
 62
     0
100
AcDbLine
 10
57.777497
 20
64.567864
 30
0.0
 11
57.777497
 21
64.567864
 31
0.0
  0
LINE
  5
2FC
100
AcDbEntity
  8
0
 62
     0
100
AcDbLine
 10
58.590482
 20
64.674895
 30
0.0
 11
58.590482
 21
64.674895
 31
0.0
  0
LINE
  5
2FD
100
AcDbEntity
  8
0
 62
     0
100
AcDbLine
 10
59.948761
 20
64.853716
 30
0.0
 11
59.948761
 21
64.853716
 31
0.0
  0
LINE
  5
2FE
100
AcDbEntity
  8
0
 62
     0
100
AcDbLine
 10
60.46927
 20
64.922242
 30
0.0
 11
60.46927
 21
64.922242
 31
0.0
  0
LINE
  5
2FF
100
AcDbEntity
  8
0
 62
     0
100
AcDbLine
 10
61.282255
 20
65.029274
 30
0.0
 11
61.282255
 21
65.029274
 31
0.0
  0
LINE
  5
300
100
AcDbEntity
  8
0
 62
     0
100
AcDbLine
 10
29.417264
 20
63.423319
 30
0.0
 11
29.417264
 21
63.423319
 31
0.0
  0
LINE
  5
301
100
AcDbEntity
  8
0
 62
     0
100
AcDbLine
 10
29.937773
 20
63.491845
 30
0.0
 11
29.937773
 21
63.491845
 31
0.0
  0
LINE
  5
302
100
AcDbEntity
  8
0
 62
     0
100
AcDbLine
 10
30.750758
 20
63.598877
 30
0.0
 11
30.750758
 21
63.598877
 31
0.0
  0
LINE
  5
303
100
AcDbEntity
  8
0
 62
     0
100
AcDbLine
 10
32.109037
 20
63.777697
 30
0.0
 11
32.109037
 21
63.777697
 31
0.0
  0
LINE
  5
304
100
AcDbEntity
  8
0
 62
     0
100
AcDbLine
 10
32.629546
 20
63.846224
 30
0.0
 11
32.629546
 21
63.846224
 31
0.0
  0
LINE
  5
305
100
AcDbEntity
  8
0
 62
     0
100
AcDbLine
 10
33.442531
 20
63.953255
 30
0.0
 11
33.442531
 21
63.953255
 31
0.0
  0
LINE
  5
306
100
AcDbEntity
  8
0
 62
     0
100
AcDbLine
 10
34.80081
 20
64.132076
 30
0.0
 11
34.80081
 21
64.132076
 31
0.0
  0
LINE
  5
307
100
AcDbEntity
  8
0
 62
     0
100
AcDbLine
 10
35.321319
 20
64.200602
 30
0.0
 11
35.321319
 21
64.200602
 31
0.0
  0
LINE
  5
308
100
AcDbEntity
  8
0
 62
     0
100
AcDbLine
 10
36.134303
 20
64.307634
 30
0.0
 11
36.134303
 21
64.307634
 31
0.0
  0
LINE
  5
309
100
AcDbEntity
  8
0
 62
     0
100
AcDbLine
 10
37.492583
 20
64.486455
 30
0.0
 11
37.492583
 21
64.486455
 31
0.0
  0
LINE
  5
30A
100
AcDbEntity
  8
0
 62
     0
100
AcDbLine
 10
38.013091
 20
64.554981
 30
0.0
 11
38.013091
 21
64.554981
 31
0.0
  0
LINE
  5
30B
100
AcDbEntity
  8
0
 62
     0
100
AcDbLine
 10
38.826076
 20
64.662012
 30
0.0
 11
38.826076
 21
64.662012
 31
0.0
  0
LINE
  5
30C
100
AcDbEntity
  8
0
 62
     0
100
AcDbLine
 10
40.184356
 20
64.840833
 30
0.0
 11
40.184356
 21
64.840833
 31
0.0
  0
LINE
  5
30D
100
AcDbEntity
  8
0
 62
     0
100
AcDbLine
 10
40.704864
 20
64.90936
 30
0.0
 11
40.704864
 21
64.90936
 31
0.0
  0
LINE
  5
30E
100
AcDbEntity
  8
0
 62
     0
100
AcDbLine
 10
41.517849
 20
65.016391
 30
0.0
 11
41.517849
 21
65.016391
 31
0.0
  0
LINE
  5
30F
100
AcDbEntity
  8
0
 62
     0
100
AcDbLine
 10
30.413476
 20
53.19787
 30
0.0
 11
30.413476
 21
53.19787
 31
0.0
  0
LINE
  5
310
100
AcDbEntity
  8
0
 62
     0
100
AcDbLine
 10
30.933985
 20
53.266397
 30
0.0
 11
30.933985
 21
53.266397
 31
0.0
  0
LINE
  5
311
100
AcDbEntity
  8
0
 62
     0
100
AcDbLine
 10
31.746969
 20
53.373428
 30
0.0
 11
31.746969
 21
53.373428
 31
0.0
  0
LINE
  5
312
100
AcDbEntity
  8
0
 62
     0
100
AcDbLine
 10
33.105249
 20
53.552249
 30
0.0
 11
33.105249
 21
53.552249
 31
0.0
  0
LINE
  5
313
100
AcDbEntity
  8
0
 62
     0
100
AcDbLine
 10
33.625757
 20
53.620775
 30
0.0
 11
33.625757
 21
53.620775
 31
0.0
  0
LINE
  5
314
100
AcDbEntity
  8
0
 62
     0
100
AcDbLine
 10
34.438742
 20
53.727807
 30
0.0
 11
34.438742
 21
53.727807
 31
0.0
  0
LINE
  5
315
100
AcDbEntity
  8
0
 62
     0
100
AcDbLine
 10
40.476196
 20
64.951189
 30
0.0
 11
40.476196
 21
64.951189
 31
0.0
  0
LINE
  5
316
100
AcDbEntity
  8
0
 62
     0
100
AcDbLine
 10
41.9943
 20
63.98405
 30
0.0
 11
41.9943
 21
63.98405
 31
0.0
  0
LINE
  5
317
100
AcDbEntity
  8
0
 62
     0
100
AcDbLine
 10
43.97627
 20
62.721396
 30
0.0
 11
43.97627
 21
62.721396
 31
0.0
  0
LINE
  5
318
100
AcDbEntity
  8
0
 62
     0
100
AcDbLine
 10
44.397966
 20
62.452746
 30
0.0
 11
44.397966
 21
62.452746
 31
0.0
  0
LINE
  5
319
100
AcDbEntity
  8
0
 62
     0
100
AcDbLine
 10
43.590337
 20
64.956848
 30
0.0
 11
43.590337
 21
64.956848
 31
0.0
  0
LINE
  5
31A
100
AcDbEntity
  8
0
 62
     0
100
AcDbLine
 10
45.108442
 20
63.989709
 30
0.0
 11
45.108442
 21
63.989709
 31
0.0
  0
LINE
  5
31B
100
AcDbEntity
  8
0
 62
     0
100
AcDbLine
 10
47.090412
 20
62.727055
 30
0.0
 11
47.090412
 21
62.727055
 31
0.0
  0
LINE
  5
31C
100
AcDbEntity
  8
0
 62
     0
100
AcDbLine
 10
47.512108
 20
62.458405
 30
0.0
 11
47.512108
 21
62.458405
 31
0.0
  0
LINE
  5
31D
100
AcDbEntity
  8
0
 62
     0
100
AcDbLine
 10
49.030212
 20
61.491266
 30
0.0
 11
49.030212
 21
61.491266
 31
0.0
  0
LINE
  5
31E
100
AcDbEntity
  8
0
 62
     0
100
AcDbLine
 10
51.012182
 20
60.228612
 30
0.0
 11
51.012182
 21
60.228612
 31
0.0
  0
LINE
  5
31F
100
AcDbEntity
  8
0
 62
     0
100
AcDbLine
 10
51.433878
 20
59.959962
 30
0.0
 11
51.433878
 21
59.959962
 31
0.0
  0
LINE
  5
320
100
AcDbEntity
  8
0
 62
     0
100
AcDbLine
 10
46.704479
 20
64.962507
 30
0.0
 11
46.704479
 21
64.962507
 31
0.0
  0
LINE
  5
321
100
AcDbEntity
  8
0
 62
     0
100
AcDbLine
 10
48.222584
 20
63.995368
 30
0.0
 11
48.222584
 21
63.995368
 31
0.0
  0
LINE
  5
322
100
AcDbEntity
  8
0
 62
     0
100
AcDbLine
 10
50.204554
 20
62.732714
 30
0.0
 11
50.204554
 21
62.732714
 31
0.0
  0
LINE
  5
323
100
AcDbEntity
  8
0
 62
     0
100
AcDbLine
 10
50.62625
 20
62.464064
 30
0.0
 11
50.62625
 21
62.464064
 31
0.0
  0
LINE
  5
324
100
AcDbEntity
  8
0
 62
     0
100
AcDbLine
 10
52.144354
 20
61.496925
 30
0.0
 11
52.144354
 21
61.496925
 31
0.0
  0
LINE
  5
325
100
AcDbEntity
  8
0
 62
     0
100
AcDbLine
 10
49.818621
 20
64.968166
 30
0.0
 11
49.818621
 21
64.968166
 31
0.0
  0
LINE
  5
326
100
AcDbEntity
  8
0
 62
     0
100
AcDbLine
 10
51.336726
 20
64.001027
 30
0.0
 11
51.336726
 21
64.001027
 31
0.0
  0
LINE
  5
327
100
AcDbEntity
  8
0
 62
     0
100
AcDbLine
 10
53.318696
 20
62.738373
 30
0.0
 11
53.318696
 21
62.738373
 31
0.0
  0
LINE
  5
328
100
AcDbEntity
  8
0
 62
     0
100
AcDbLine
 10
53.740391
 20
62.469723
 30
0.0
 11
53.740391
 21
62.469723
 31
0.0
  0
LINE
  5
329
100
AcDbEntity
  8
0
 62
     0
100
AcDbLine
 10
52.932763
 20
64.973826
 30
0.0
 11
52.932763
 21
64.973826
 31
0.0
  0
LINE
  5
32A
100
AcDbEntity
  8
0
 62
     0
100
AcDbLine
 10
54.450868
 20
64.006686
 30
0.0
 11
54.450868
 21
64.006686
 31
0.0
  0
LINE
  5
32B
100
AcDbEntity
  8
0
 62
     0
100
AcDbLine
 10
56.432838
 20
62.744032
 30
0.0
 11
56.432838
 21
62.744032
 31
0.0
  0
LINE
  5
32C
100
AcDbEntity
  8
0
 62
     0
100
AcDbLine
 10
56.854533
 20
62.475382
 30
0.0
 11
56.854533
 21
62.475382
 31
0.0
  0
LINE
  5
32D
100
AcDbEntity
  8
0
 62
     0
100
AcDbLine
 10
58.372638
 20
61.508243
 30
0.0
 11
58.372638
 21
61.508243
 31
0.0
  0
LINE
  5
32E
100
AcDbEntity
  8
0
 62
     0
100
AcDbLine
 10
60.354608
 20
60.245589
 30
0.0
 11
60.354608
 21
60.245589
 31
0.0
  0
LINE
  5
32F
100
AcDbEntity
  8
0
 62
     0
100
AcDbLine
 10
60.776303
 20
59.976939
 30
0.0
 11
60.776303
 21
59.976939
 31
0.0
  0
LINE
  5
330
100
AcDbEntity
  8
0
 62
     0
100
AcDbLine
 10
56.046905
 20
64.979485
 30
0.0
 11
56.046905
 21
64.979485
 31
0.0
  0
LINE
  5
331
100
AcDbEntity
  8
0
 62
     0
100
AcDbLine
 10
57.565009
 20
64.012345
 30
0.0
 11
57.565009
 21
64.012345
 31
0.0
  0
LINE
  5
332
100
AcDbEntity
  8
0
 62
     0
100
AcDbLine
 10
59.546979
 20
62.749691
 30
0.0
 11
59.546979
 21
62.749691
 31
0.0
  0
LINE
  5
333
100
AcDbEntity
  8
0
 62
     0
100
AcDbLine
 10
59.968675
 20
62.481041
 30
0.0
 11
59.968675
 21
62.481041
 31
0.0
  0
LINE
  5
334
100
AcDbEntity
  8
0
 62
     0
100
AcDbLine
 10
61.48678
 20
61.513902
 30
0.0
 11
61.48678
 21
61.513902
 31
0.0
  0
LINE
  5
335
100
AcDbEntity
  8
0
 62
     0
100
AcDbLine
 10
59.161047
 20
64.985144
 30
0.0
 11
59.161047
 21
64.985144
 31
0.0
  0
LINE
  5
336
100
AcDbEntity
  8
0
 62
     0
100
AcDbLine
 10
60.679151
 20
64.018004
 30
0.0
 11
60.679151
 21
64.018004
 31
0.0
  0
LINE
  5
337
100
AcDbEntity
  8
0
 62
     0
100
AcDbLine
 10
62.661121
 20
62.75535
 30
0.0
 11
62.661121
 21
62.75535
 31
0.0
  0
LINE
  5
338
100
AcDbEntity
  8
0
 62
     0
100
AcDbLine
 10
63.082817
 20
62.4867
 30
0.0
 11
63.082817
 21
62.4867
 31
0.0
  0
LINE
  5
339
100
AcDbEntity
  8
0
 62
     0
100
AcDbLine
 10
62.275189
 20
64.990803
 30
0.0
 11
62.275189
 21
64.990803
 31
0.0
  0
LINE
  5
33A
100
AcDbEntity
  8
0
 62
     0
100
AcDbLine
 10
63.793293
 20
64.023663
 30
0.0
 11
63.793293
 21
64.023663
 31
0.0
  0
LINE
  5
33B
100
AcDbEntity
  8
0
 62
     0
100
AcDbLine
 10
65.775263
 20
62.761009
 30
0.0
 11
65.775263
 21
62.761009
 31
0.0
  0
LINE
  5
33C
100
AcDbEntity
  8
0
 62
     0
100
AcDbLine
 10
66.196959
 20
62.49236
 30
0.0
 11
66.196959
 21
62.49236
 31
0.0
  0
LINE
  5
33D
100
AcDbEntity
  8
0
 62
     0
100
AcDbLine
 10
69.697033
 20
60.262566
 30
0.0
 11
69.697033
 21
60.262566
 31
0.0
  0
LINE
  5
33E
100
AcDbEntity
  8
0
 62
     0
100
AcDbLine
 10
65.38933
 20
64.996462
 30
0.0
 11
65.38933
 21
64.996462
 31
0.0
  0
LINE
  5
33F
100
AcDbEntity
  8
0
 62
     0
100
AcDbLine
 10
66.907435
 20
64.029322
 30
0.0
 11
66.907435
 21
64.029322
 31
0.0
  0
LINE
  5
340
100
AcDbEntity
  8
0
 62
     0
100
AcDbLine
 10
68.889405
 20
62.766668
 30
0.0
 11
68.889405
 21
62.766668
 31
0.0
  0
LINE
  5
341
100
AcDbEntity
  8
0
 62
     0
100
AcDbLine
 10
69.311101
 20
62.498019
 30
0.0
 11
69.311101
 21
62.498019
 31
0.0
  0
LINE
  5
342
100
AcDbEntity
  8
0
 62
     0
100
AcDbLine
 10
70.829205
 20
61.530879
 30
0.0
 11
70.829205
 21
61.530879
 31
0.0
  0
LINE
  5
343
100
AcDbEntity
  8
0
 62
     0
100
AcDbLine
 10
68.503472
 20
65.002121
 30
0.0
 11
68.503472
 21
65.002121
 31
0.0
  0
LINE
  5
344
100
AcDbEntity
  8
0
 62
     0
100
AcDbLine
 10
37.362054
 20
64.94553
 30
0.0
 11
37.362054
 21
64.94553
 31
0.0
  0
LINE
  5
345
100
AcDbEntity
  8
0
 62
     0
100
AcDbLine
 10
38.880158
 20
63.978391
 30
0.0
 11
38.880158
 21
63.978391
 31
0.0
  0
LINE
  5
346
100
AcDbEntity
  8
0
 62
     0
100
AcDbLine
 10
40.862128
 20
62.715737
 30
0.0
 11
40.862128
 21
62.715737
 31
0.0
  0
LINE
  5
347
100
AcDbEntity
  8
0
 62
     0
100
AcDbLine
 10
41.283824
 20
62.447087
 30
0.0
 11
41.283824
 21
62.447087
 31
0.0
  0
LINE
  5
348
100
AcDbEntity
  8
0
 62
     0
100
AcDbLine
 10
42.801929
 20
61.479948
 30
0.0
 11
42.801929
 21
61.479948
 31
0.0
  0
LINE
  5
349
100
AcDbEntity
  8
0
 62
     0
100
AcDbLine
 10
34.247912
 20
64.939871
 30
0.0
 11
34.247912
 21
64.939871
 31
0.0
  0
LINE
  5
34A
100
AcDbEntity
  8
0
 62
     0
100
AcDbLine
 10
35.766016
 20
63.972732
 30
0.0
 11
35.766016
 21
63.972732
 31
0.0
  0
LINE
  5
34B
100
AcDbEntity
  8
0
 62
     0
100
AcDbLine
 10
37.747986
 20
62.710078
 30
0.0
 11
37.747986
 21
62.710078
 31
0.0
  0
LINE
  5
34C
100
AcDbEntity
  8
0
 62
     0
100
AcDbLine
 10
38.169682
 20
62.441428
 30
0.0
 11
38.169682
 21
62.441428
 31
0.0
  0
LINE
  5
34D
100
AcDbEntity
  8
0
 62
     0
100
AcDbLine
 10
39.687787
 20
61.474289
 30
0.0
 11
39.687787
 21
61.474289
 31
0.0
  0
LINE
  5
34E
100
AcDbEntity
  8
0
 62
     0
100
AcDbLine
 10
41.669757
 20
60.211635
 30
0.0
 11
41.669757
 21
60.211635
 31
0.0
  0
LINE
  5
34F
100
AcDbEntity
  8
0
 62
     0
100
AcDbLine
 10
42.091452
 20
59.942985
 30
0.0
 11
42.091452
 21
59.942985
 31
0.0
  0
LINE
  5
350
100
AcDbEntity
  8
0
 62
     0
100
AcDbLine
 10
31.13377
 20
64.934212
 30
0.0
 11
31.13377
 21
64.934212
 31
0.0
  0
LINE
  5
351
100
AcDbEntity
  8
0
 62
     0
100
AcDbLine
 10
32.651875
 20
63.967073
 30
0.0
 11
32.651875
 21
63.967073
 31
0.0
  0
LINE
  5
352
100
AcDbEntity
  8
0
 62
     0
100
AcDbLine
 10
34.633844
 20
62.704419
 30
0.0
 11
34.633844
 21
62.704419
 31
0.0
  0
LINE
  5
353
100
AcDbEntity
  8
0
 62
     0
100
AcDbLine
 10
35.05554
 20
62.435769
 30
0.0
 11
35.05554
 21
62.435769
 31
0.0
  0
LINE
  5
354
100
AcDbEntity
  8
0
 62
     0
100
AcDbLine
 10
38.97731
 20
59.937326
 30
0.0
 11
38.97731
 21
59.937326
 31
0.0
  0
LINE
  5
355
100
AcDbEntity
  8
0
 62
     0
100
AcDbLine
 10
29.537733
 20
63.961414
 30
0.0
 11
29.537733
 21
63.961414
 31
0.0
  0
LINE
  5
356
100
AcDbEntity
  8
0
 62
     0
100
AcDbLine
 10
31.519703
 20
62.69876
 30
0.0
 11
31.519703
 21
62.69876
 31
0.0
  0
LINE
  5
357
100
AcDbEntity
  8
0
 62
     0
100
AcDbLine
 10
31.941398
 20
62.43011
 30
0.0
 11
31.941398
 21
62.43011
 31
0.0
  0
LINE
  5
358
100
AcDbEntity
  8
0
 62
     0
100
AcDbLine
 10
33.459503
 20
61.462971
 30
0.0
 11
33.459503
 21
61.462971
 31
0.0
  0
LINE
  5
359
100
AcDbEntity
  8
0
 62
     0
100
AcDbLine
 10
35.441473
 20
60.200317
 30
0.0
 11
35.441473
 21
60.200317
 31
0.0
  0
LINE
  5
35A
100
AcDbEntity
  8
0
 62
     0
100
AcDbLine
 10
30.345361
 20
61.457312
 30
0.0
 11
30.345361
 21
61.457312
 31
0.0
  0
LINE
  5
35B
100
AcDbEntity
  8
0
 62
     0
100
AcDbLine
 10
32.327331
 20
60.194657
 30
0.0
 11
32.327331
 21
60.194657
 31
0.0
  0
LINE
  5
35C
100
AcDbEntity
  8
0
 62
     0
100
AcDbLine
 10
32.749027
 20
59.926008
 30
0.0
 11
32.749027
 21
59.926008
 31
0.0
  0
LINE
  5
35D
100
AcDbEntity
  8
0
 62
     0
100
AcDbLine
 10
34.267131
 20
58.958868
 30
0.0
 11
34.267131
 21
58.958868
 31
0.0
  0
LINE
  5
35E
100
AcDbEntity
  8
0
 62
     0
100
AcDbLine
 10
29.213189
 20
60.188998
 30
0.0
 11
29.213189
 21
60.188998
 31
0.0
  0
LINE
  5
35F
100
AcDbEntity
  8
0
 62
     0
100
AcDbLine
 10
29.634885
 20
59.920349
 30
0.0
 11
29.634885
 21
59.920349
 31
0.0
  0
LINE
  5
360
100
AcDbEntity
  8
0
 62
     0
100
AcDbLine
 10
31.152989
 20
58.953209
 30
0.0
 11
31.152989
 21
58.953209
 31
0.0
  0
LINE
  5
361
100
AcDbEntity
  8
0
 62
     0
100
AcDbLine
 10
33.134959
 20
57.690555
 30
0.0
 11
33.134959
 21
57.690555
 31
0.0
  0
LINE
  5
362
100
AcDbEntity
  8
0
 62
     0
100
AcDbLine
 10
33.556655
 20
57.421905
 30
0.0
 11
33.556655
 21
57.421905
 31
0.0
  0
LINE
  5
363
100
AcDbEntity
  8
0
 62
     0
100
AcDbLine
 10
35.07476
 20
56.454766
 30
0.0
 11
35.07476
 21
56.454766
 31
0.0
  0
LINE
  5
364
100
AcDbEntity
  8
0
 62
     0
100
AcDbLine
 10
30.020817
 20
57.684896
 30
0.0
 11
30.020817
 21
57.684896
 31
0.0
  0
LINE
  5
365
100
AcDbEntity
  8
0
 62
     0
100
AcDbLine
 10
30.442513
 20
57.416246
 30
0.0
 11
30.442513
 21
57.416246
 31
0.0
  0
LINE
  5
366
100
AcDbEntity
  8
0
 62
     0
100
AcDbLine
 10
31.960618
 20
56.449107
 30
0.0
 11
31.960618
 21
56.449107
 31
0.0
  0
LINE
  5
367
100
AcDbEntity
  8
0
 62
     0
100
AcDbLine
 10
33.942588
 20
55.186453
 30
0.0
 11
33.942588
 21
55.186453
 31
0.0
  0
LINE
  5
368
100
AcDbEntity
  8
0
 62
     0
100
AcDbLine
 10
34.364283
 20
54.917803
 30
0.0
 11
34.364283
 21
54.917803
 31
0.0
  0
LINE
  5
369
100
AcDbEntity
  8
0
 62
     0
100
AcDbLine
 10
30.828446
 20
55.180794
 30
0.0
 11
30.828446
 21
55.180794
 31
0.0
  0
LINE
  5
36A
100
AcDbEntity
  8
0
 62
     0
100
AcDbLine
 10
31.250142
 20
54.912144
 30
0.0
 11
31.250142
 21
54.912144
 31
0.0
  0
LINE
  5
36B
100
AcDbEntity
  8
0
 62
     0
100
AcDbLine
 10
32.768246
 20
53.945005
 30
0.0
 11
32.768246
 21
53.945005
 31
0.0
  0
LINE
  5
36C
100
AcDbEntity
  8
0
 62
     0
100
AcDbLine
 10
29.654104
 20
53.939346
 30
0.0
 11
29.654104
 21
53.939346
 31
0.0
  0
LINE
  5
36D
100
AcDbEntity
  8
0
 62
     0
100
AcDbLine
 10
31.636074
 20
52.676692
 30
0.0
 11
31.636074
 21
52.676692
 31
0.0
  0
LINE
  5
36E
100
AcDbEntity
  8
0
 62
     0
100
AcDbLine
 10
32.05777
 20
52.408042
 30
0.0
 11
32.05777
 21
52.408042
 31
0.0
  0
LINE
  5
36F
100
AcDbEntity
  8
0
 62
     0
100
AcDbLine
 10
42.905421
 20
64.893548
 30
0.0
 11
42.905421
 21
64.893548
 31
0.0
  0
LINE
  5
370
100
AcDbEntity
  8
0
 62
     0
100
AcDbLine
 10
43.08974
 20
64.72465
 30
0.0
 11
43.08974
 21
64.72465
 31
0.0
  0
LINE
  5
371
100
AcDbEntity
  8
0
 62
     0
100
AcDbLine
 10
43.959727
 20
63.927454
 30
0.0
 11
43.959727
 21
63.927454
 31
0.0
  0
LINE
  5
372
100
AcDbEntity
  8
0
 62
     0
100
AcDbLine
 10
44.955052
 20
63.015407
 30
0.0
 11
44.955052
 21
63.015407
 31
0.0
  0
LINE
  5
373
100
AcDbEntity
  8
0
 62
     0
100
AcDbLine
 10
45.139371
 20
62.846509
 30
0.0
 11
45.139371
 21
62.846509
 31
0.0
  0
LINE
  5
374
100
AcDbEntity
  8
0
 62
     0
100
AcDbLine
 10
46.965854
 20
64.805129
 30
0.0
 11
46.965854
 21
64.805129
 31
0.0
  0
LINE
  5
375
100
AcDbEntity
  8
0
 62
     0
100
AcDbLine
 10
47.961178
 20
63.893082
 30
0.0
 11
47.961178
 21
63.893082
 31
0.0
  0
LINE
  5
376
100
AcDbEntity
  8
0
 62
     0
100
AcDbLine
 10
48.145498
 20
63.724185
 30
0.0
 11
48.145498
 21
63.724185
 31
0.0
  0
LINE
  5
377
100
AcDbEntity
  8
0
 62
     0
100
AcDbLine
 10
49.015485
 20
62.926988
 30
0.0
 11
49.015485
 21
62.926988
 31
0.0
  0
LINE
  5
378
100
AcDbEntity
  8
0
 62
     0
100
AcDbLine
 10
50.010809
 20
62.014942
 30
0.0
 11
50.010809
 21
62.014942
 31
0.0
  0
LINE
  5
379
100
AcDbEntity
  8
0
 62
     0
100
AcDbLine
 10
50.195129
 20
61.846044
 30
0.0
 11
50.195129
 21
61.846044
 31
0.0
  0
LINE
  5
37A
100
AcDbEntity
  8
0
 62
     0
100
AcDbLine
 10
51.065116
 20
61.048848
 30
0.0
 11
51.065116
 21
61.048848
 31
0.0
  0
LINE
  5
37B
100
AcDbEntity
  8
0
 62
     0
100
AcDbLine
 10
52.06044
 20
60.136801
 30
0.0
 11
52.06044
 21
60.136801
 31
0.0
  0
LINE
  5
37C
100
AcDbEntity
  8
0
 62
     0
100
AcDbLine
 10
52.24476
 20
59.967903
 30
0.0
 11
52.24476
 21
59.967903
 31
0.0
  0
LINE
  5
37D
100
AcDbEntity
  8
0
 62
     0
100
AcDbLine
 10
50.967305
 20
64.770758
 30
0.0
 11
50.967305
 21
64.770758
 31
0.0
  0
LINE
  5
37E
100
AcDbEntity
  8
0
 62
     0
100
AcDbLine
 10
51.151624
 20
64.601861
 30
0.0
 11
51.151624
 21
64.601861
 31
0.0
  0
LINE
  5
37F
100
AcDbEntity
  8
0
 62
     0
100
AcDbLine
 10
52.021611
 20
63.804664
 30
0.0
 11
52.021611
 21
63.804664
 31
0.0
  0
LINE
  5
380
100
AcDbEntity
  8
0
 62
     0
100
AcDbLine
 10
53.016936
 20
62.892617
 30
0.0
 11
53.016936
 21
62.892617
 31
0.0
  0
LINE
  5
381
100
AcDbEntity
  8
0
 62
     0
100
AcDbLine
 10
53.201255
 20
62.72372
 30
0.0
 11
53.201255
 21
62.72372
 31
0.0
  0
LINE
  5
382
100
AcDbEntity
  8
0
 62
     0
100
AcDbLine
 10
55.027738
 20
64.68234
 30
0.0
 11
55.027738
 21
64.68234
 31
0.0
  0
LINE
  5
383
100
AcDbEntity
  8
0
 62
     0
100
AcDbLine
 10
56.023062
 20
63.770293
 30
0.0
 11
56.023062
 21
63.770293
 31
0.0
  0
LINE
  5
384
100
AcDbEntity
  8
0
 62
     0
100
AcDbLine
 10
56.207382
 20
63.601395
 30
0.0
 11
56.207382
 21
63.601395
 31
0.0
  0
LINE
  5
385
100
AcDbEntity
  8
0
 62
     0
100
AcDbLine
 10
57.077369
 20
62.804199
 30
0.0
 11
57.077369
 21
62.804199
 31
0.0
  0
LINE
  5
386
100
AcDbEntity
  8
0
 62
     0
100
AcDbLine
 10
58.072693
 20
61.892152
 30
0.0
 11
58.072693
 21
61.892152
 31
0.0
  0
LINE
  5
387
100
AcDbEntity
  8
0
 62
     0
100
AcDbLine
 10
58.257013
 20
61.723255
 30
0.0
 11
58.257013
 21
61.723255
 31
0.0
  0
LINE
  5
388
100
AcDbEntity
  8
0
 62
     0
100
AcDbLine
 10
59.127
 20
60.926058
 30
0.0
 11
59.127
 21
60.926058
 31
0.0
  0
LINE
  5
389
100
AcDbEntity
  8
0
 62
     0
100
AcDbLine
 10
60.122324
 20
60.014011
 30
0.0
 11
60.122324
 21
60.014011
 31
0.0
  0
LINE
  5
38A
100
AcDbEntity
  8
0
 62
     0
100
AcDbLine
 10
60.306644
 20
59.845114
 30
0.0
 11
60.306644
 21
59.845114
 31
0.0
  0
LINE
  5
38B
100
AcDbEntity
  8
0
 62
     0
100
AcDbLine
 10
59.029189
 20
64.647968
 30
0.0
 11
59.029189
 21
64.647968
 31
0.0
  0
LINE
  5
38C
100
AcDbEntity
  8
0
 62
     0
100
AcDbLine
 10
59.213508
 20
64.479071
 30
0.0
 11
59.213508
 21
64.479071
 31
0.0
  0
LINE
  5
38D
100
AcDbEntity
  8
0
 62
     0
100
AcDbLine
 10
60.083496
 20
63.681874
 30
0.0
 11
60.083496
 21
63.681874
 31
0.0
  0
LINE
  5
38E
100
AcDbEntity
  8
0
 62
     0
100
AcDbLine
 10
61.07882
 20
62.769828
 30
0.0
 11
61.07882
 21
62.769828
 31
0.0
  0
LINE
  5
38F
100
AcDbEntity
  8
0
 62
     0
100
AcDbLine
 10
61.263139
 20
62.60093
 30
0.0
 11
61.263139
 21
62.60093
 31
0.0
  0
LINE
  5
390
100
AcDbEntity
  8
0
 62
     0
100
AcDbLine
 10
62.133127
 20
61.803734
 30
0.0
 11
62.133127
 21
61.803734
 31
0.0
  0
LINE
  5
391
100
AcDbEntity
  8
0
 62
     0
100
AcDbLine
 10
63.128451
 20
60.891687
 30
0.0
 11
63.128451
 21
60.891687
 31
0.0
  0
LINE
  5
392
100
AcDbEntity
  8
0
 62
     0
100
AcDbLine
 10
63.31277
 20
60.722789
 30
0.0
 11
63.31277
 21
60.722789
 31
0.0
  0
LINE
  5
393
100
AcDbEntity
  8
0
 62
     0
100
AcDbLine
 10
63.089622
 20
64.55955
 30
0.0
 11
63.089622
 21
64.55955
 31
0.0
  0
LINE
  5
394
100
AcDbEntity
  8
0
 62
     0
100
AcDbLine
 10
64.084947
 20
63.647503
 30
0.0
 11
64.084947
 21
63.647503
 31
0.0
  0
LINE
  5
395
100
AcDbEntity
  8
0
 62
     0
100
AcDbLine
 10
64.269266
 20
63.478606
 30
0.0
 11
64.269266
 21
63.478606
 31
0.0
  0
LINE
  5
396
100
AcDbEntity
  8
0
 62
     0
100
AcDbLine
 10
65.139253
 20
62.681409
 30
0.0
 11
65.139253
 21
62.681409
 31
0.0
  0
LINE
  5
397
100
AcDbEntity
  8
0
 62
     0
100
AcDbLine
 10
67.091073
 20
64.525179
 30
0.0
 11
67.091073
 21
64.525179
 31
0.0
  0
LINE
  5
398
100
AcDbEntity
  8
0
 62
     0
100
AcDbLine
 10
67.275393
 20
64.356281
 30
0.0
 11
67.275393
 21
64.356281
 31
0.0
  0
LINE
  5
399
100
AcDbEntity
  8
0
 62
     0
100
AcDbLine
 10
68.14538
 20
63.559085
 30
0.0
 11
68.14538
 21
63.559085
 31
0.0
  0
LINE
  5
39A
100
AcDbEntity
  8
0
 62
     0
100
AcDbLine
 10
69.140704
 20
62.647038
 30
0.0
 11
69.140704
 21
62.647038
 31
0.0
  0
LINE
  5
39B
100
AcDbEntity
  8
0
 62
     0
100
AcDbLine
 10
69.325024
 20
62.47814
 30
0.0
 11
69.325024
 21
62.47814
 31
0.0
  0
LINE
  5
39C
100
AcDbEntity
  8
0
 62
     0
100
AcDbLine
 10
70.195011
 20
61.680944
 30
0.0
 11
70.195011
 21
61.680944
 31
0.0
  0
LINE
  5
39D
100
AcDbEntity
  8
0
 62
     0
100
AcDbLine
 10
38.90397
 20
64.927919
 30
0.0
 11
38.90397
 21
64.927919
 31
0.0
  0
LINE
  5
39E
100
AcDbEntity
  8
0
 62
     0
100
AcDbLine
 10
39.899294
 20
64.015872
 30
0.0
 11
39.899294
 21
64.015872
 31
0.0
  0
LINE
  5
39F
100
AcDbEntity
  8
0
 62
     0
100
AcDbLine
 10
40.083613
 20
63.846975
 30
0.0
 11
40.083613
 21
63.846975
 31
0.0
  0
LINE
  5
3A0
100
AcDbEntity
  8
0
 62
     0
100
AcDbLine
 10
40.953601
 20
63.049778
 30
0.0
 11
40.953601
 21
63.049778
 31
0.0
  0
LINE
  5
3A1
100
AcDbEntity
  8
0
 62
     0
100
AcDbLine
 10
41.948925
 20
62.137731
 30
0.0
 11
41.948925
 21
62.137731
 31
0.0
  0
LINE
  5
3A2
100
AcDbEntity
  8
0
 62
     0
100
AcDbLine
 10
42.133244
 20
61.968834
 30
0.0
 11
42.133244
 21
61.968834
 31
0.0
  0
LINE
  5
3A3
100
AcDbEntity
  8
0
 62
     0
100
AcDbLine
 10
43.003232
 20
61.171637
 30
0.0
 11
43.003232
 21
61.171637
 31
0.0
  0
LINE
  5
3A4
100
AcDbEntity
  8
0
 62
     0
100
AcDbLine
 10
34.843536
 20
65.016337
 30
0.0
 11
34.843536
 21
65.016337
 31
0.0
  0
LINE
  5
3A5
100
AcDbEntity
  8
0
 62
     0
100
AcDbLine
 10
35.027856
 20
64.84744
 30
0.0
 11
35.027856
 21
64.84744
 31
0.0
  0
LINE
  5
3A6
100
AcDbEntity
  8
0
 62
     0
100
AcDbLine
 10
35.897843
 20
64.050243
 30
0.0
 11
35.897843
 21
64.050243
 31
0.0
  0
LINE
  5
3A7
100
AcDbEntity
  8
0
 62
     0
100
AcDbLine
 10
36.893167
 20
63.138197
 30
0.0
 11
36.893167
 21
63.138197
 31
0.0
  0
LINE
  5
3A8
100
AcDbEntity
  8
0
 62
     0
100
AcDbLine
 10
37.077487
 20
62.969299
 30
0.0
 11
37.077487
 21
62.969299
 31
0.0
  0
LINE
  5
3A9
100
AcDbEntity
  8
0
 62
     0
100
AcDbLine
 10
37.947474
 20
62.172103
 30
0.0
 11
37.947474
 21
62.172103
 31
0.0
  0
LINE
  5
3AA
100
AcDbEntity
  8
0
 62
     0
100
AcDbLine
 10
38.942798
 20
61.260056
 30
0.0
 11
38.942798
 21
61.260056
 31
0.0
  0
LINE
  5
3AB
100
AcDbEntity
  8
0
 62
     0
100
AcDbLine
 10
39.127118
 20
61.091158
 30
0.0
 11
39.127118
 21
61.091158
 31
0.0
  0
LINE
  5
3AC
100
AcDbEntity
  8
0
 62
     0
100
AcDbLine
 10
39.997105
 20
60.293962
 30
0.0
 11
39.997105
 21
60.293962
 31
0.0
  0
LINE
  5
3AD
100
AcDbEntity
  8
0
 62
     0
100
AcDbLine
 10
40.992429
 20
59.381915
 30
0.0
 11
40.992429
 21
59.381915
 31
0.0
  0
LINE
  5
3AE
100
AcDbEntity
  8
0
 62
     0
100
AcDbLine
 10
41.176749
 20
59.213017
 30
0.0
 11
41.176749
 21
59.213017
 31
0.0
  0
LINE
  5
3AF
100
AcDbEntity
  8
0
 62
     0
100
AcDbLine
 10
30.842085
 20
65.050709
 30
0.0
 11
30.842085
 21
65.050709
 31
0.0
  0
LINE
  5
3B0
100
AcDbEntity
  8
0
 62
     0
100
AcDbLine
 10
31.83741
 20
64.138662
 30
0.0
 11
31.83741
 21
64.138662
 31
0.0
  0
LINE
  5
3B1
100
AcDbEntity
  8
0
 62
     0
100
AcDbLine
 10
32.021729
 20
63.969764
 30
0.0
 11
32.021729
 21
63.969764
 31
0.0
  0
LINE
  5
3B2
100
AcDbEntity
  8
0
 62
     0
100
AcDbLine
 10
32.891716
 20
63.172568
 30
0.0
 11
32.891716
 21
63.172568
 31
0.0
  0
LINE
  5
3B3
100
AcDbEntity
  8
0
 62
     0
100
AcDbLine
 10
33.887041
 20
62.260521
 30
0.0
 11
33.887041
 21
62.260521
 31
0.0
  0
LINE
  5
3B4
100
AcDbEntity
  8
0
 62
     0
100
AcDbLine
 10
34.07136
 20
62.091623
 30
0.0
 11
34.07136
 21
62.091623
 31
0.0
  0
LINE
  5
3B5
100
AcDbEntity
  8
0
 62
     0
100
AcDbLine
 10
34.941347
 20
61.294427
 30
0.0
 11
34.941347
 21
61.294427
 31
0.0
  0
LINE
  5
3B6
100
AcDbEntity
  8
0
 62
     0
100
AcDbLine
 10
29.88559
 20
62.294892
 30
0.0
 11
29.88559
 21
62.294892
 31
0.0
  0
LINE
  5
3B7
100
AcDbEntity
  8
0
 62
     0
100
AcDbLine
 10
30.880914
 20
61.382845
 30
0.0
 11
30.880914
 21
61.382845
 31
0.0
  0
LINE
  5
3B8
100
AcDbEntity
  8
0
 62
     0
100
AcDbLine
 10
31.065234
 20
61.213948
 30
0.0
 11
31.065234
 21
61.213948
 31
0.0
  0
LINE
  5
3B9
100
AcDbEntity
  8
0
 62
     0
100
AcDbLine
 10
31.935221
 20
60.416751
 30
0.0
 11
31.935221
 21
60.416751
 31
0.0
  0
LINE
  5
3BA
100
AcDbEntity
  8
0
 62
     0
100
AcDbLine
 10
32.930545
 20
59.504705
 30
0.0
 11
32.930545
 21
59.504705
 31
0.0
  0
LINE
  5
3BB
100
AcDbEntity
  8
0
 62
     0
100
AcDbLine
 10
33.114865
 20
59.335807
 30
0.0
 11
33.114865
 21
59.335807
 31
0.0
  0
LINE
  5
3BC
100
AcDbEntity
  8
0
 62
     0
100
AcDbLine
 10
33.984852
 20
58.538611
 30
0.0
 11
33.984852
 21
58.538611
 31
0.0
  0
LINE
  5
3BD
100
AcDbEntity
  8
0
 62
     0
100
AcDbLine
 10
34.980176
 20
57.626564
 30
0.0
 11
34.980176
 21
57.626564
 31
0.0
  0
LINE
  5
3BE
100
AcDbEntity
  8
0
 62
     0
100
AcDbLine
 10
35.164496
 20
57.457666
 30
0.0
 11
35.164496
 21
57.457666
 31
0.0
  0
LINE
  5
3BF
100
AcDbEntity
  8
0
 62
     0
100
AcDbLine
 10
29.924419
 20
58.627029
 30
0.0
 11
29.924419
 21
58.627029
 31
0.0
  0
LINE
  5
3C0
100
AcDbEntity
  8
0
 62
     0
100
AcDbLine
 10
30.108738
 20
58.458132
 30
0.0
 11
30.108738
 21
58.458132
 31
0.0
  0
LINE
  5
3C1
100
AcDbEntity
  8
0
 62
     0
100
AcDbLine
 10
30.978725
 20
57.660935
 30
0.0
 11
30.978725
 21
57.660935
 31
0.0
  0
LINE
  5
3C2
100
AcDbEntity
  8
0
 62
     0
100
AcDbLine
 10
31.97405
 20
56.748888
 30
0.0
 11
31.97405
 21
56.748888
 31
0.0
  0
LINE
  5
3C3
100
AcDbEntity
  8
0
 62
     0
100
AcDbLine
 10
32.158369
 20
56.579991
 30
0.0
 11
32.158369
 21
56.579991
 31
0.0
  0
LINE
  5
3C4
100
AcDbEntity
  8
0
 62
     0
100
AcDbLine
 10
33.028356
 20
55.782794
 30
0.0
 11
33.028356
 21
55.782794
 31
0.0
  0
LINE
  5
3C5
100
AcDbEntity
  8
0
 62
     0
100
AcDbLine
 10
34.023681
 20
54.870748
 30
0.0
 11
34.023681
 21
54.870748
 31
0.0
  0
LINE
  5
3C6
100
AcDbEntity
  8
0
 62
     0
100
AcDbLine
 10
34.208
 20
54.70185
 30
0.0
 11
34.208
 21
54.70185
 31
0.0
  0
LINE
  5
3C7
100
AcDbEntity
  8
0
 62
     0
100
AcDbLine
 10
35.077987
 20
53.904654
 30
0.0
 11
35.077987
 21
53.904654
 31
0.0
  0
LINE
  5
3C8
100
AcDbEntity
  8
0
 62
     0
100
AcDbLine
 10
30.02223
 20
54.905119
 30
0.0
 11
30.02223
 21
54.905119
 31
0.0
  0
LINE
  5
3C9
100
AcDbEntity
  8
0
 62
     0
100
AcDbLine
 10
31.017554
 20
53.993072
 30
0.0
 11
31.017554
 21
53.993072
 31
0.0
  0
LINE
  5
3CA
100
AcDbEntity
  8
0
 62
     0
100
AcDbLine
 10
31.201873
 20
53.824174
 30
0.0
 11
31.201873
 21
53.824174
 31
0.0
  0
LINE
  5
3CB
100
AcDbEntity
  8
0
 62
     0
100
AcDbLine
 10
32.071861
 20
53.026978
 30
0.0
 11
32.071861
 21
53.026978
 31
0.0
  0
LINE
  5
3CC
100
AcDbEntity
  8
0
 62
     0
100
AcDbLine
 10
33.067185
 20
52.114931
 30
0.0
 11
33.067185
 21
52.114931
 31
0.0
  0
LINE
  5
3CD
100
AcDbEntity
  8
0
 62
     0
100
AcDbLine
 10
33.251504
 20
51.946034
 30
0.0
 11
33.251504
 21
51.946034
 31
0.0
  0
ENDBLK
  5
3CE
100
AcDbEntity
  8
0
100
AcDbBlockEnd
  0
ENDSEC
  0
SECTION
  2
ENTITIES
  0
TEXT
  5
3CF
100
AcDbEntity
  8
DRAWING
100
AcDbText
 10
22.700615
 20
9.961431
 30
0.0
 40
2.5
  1
RASTRA SLAB TO
  7
TITLE
 72
     1
 11
39.6649
 21
9.961431
 31
0.0
100
AcDbText
  0
LINE
  5
3D1
100
AcDbEntity
  8
DIM_TEXT
100
AcDbLine
 10
61.060238
 20
53.058065
 30
0.0
 11
75.653926
 21
53.058065
 31
0.0
  0
TEXT
  5
3D2
100
AcDbEntity
  8
DIM_TEXT
100
AcDbText
 10
52.088348
 20
37.91192
 30
0.0
 40
1.125
  1
RASTRA END ELEMENT
 51
15.0
  7
INFO
100
AcDbText
  0
LINE
  5
3D4
100
AcDbEntity
  8
DRAWING
100
AcDbLine
 10
27.280298
 20
59.021995
 30
0.0
 11
68.823505
 21
59.021995
 31
0.0
  0
LINE
  5
3D5
100
AcDbEntity
  8
DRAWING
100
AcDbLine
 10
72.031367
 20
48.521995
 30
0.0
 11
66.100215
 21
48.521995
 31
0.0
  0
LINE
  5
3D6
100
AcDbEntity
  8
DRAWING
100
AcDbLine
 10
68.116193
 20
56.082055
 30
0.0
 11
66.100215
 21
56.082055
 31
0.0
  0
LINE
  5
3D7
100
AcDbEntity
  8
DRAWING
100
AcDbLine
 10
32.359188
 20
57.617595
 30
0.0
 11
69.066573
 21
57.617595
 31
0.0
  0
TEXT
  5
3D8
100
AcDbEntity
  8
DIM_TEXT
100
AcDbText
 10
58.757408
 20
66.743765
 30
0.0
 40
1.134
  1
SLAB REINF.
 51
15.0
  7
INFO
100
AcDbText
  0
TEXT
  5
3D9
100
AcDbEntity
  8
DIM_TEXT
100
AcDbText
 10
62.936428
 20
63.681511
 30
0.0
 40
1.134
  1
SLAB REINF.
 51
15.0
  7
INFO
100
AcDbText
  0
TEXT
  5
3DA
100
AcDbEntity
  8
DIM_TEXT
100
AcDbText
 10
49.943628
 20
69.584095
 30
0.0
 40
1.134
  1
MEMBER ROOF'G 
 51
15.0
  7
INFO
100
AcDbText
  0
TEXT
  5
3DB
100
AcDbEntity
  8
DIM_TEXT
100
AcDbText
 10
43.101366
 20
28.852144
 30
0.0
 40
1.125
  1
VERT. REINF. 
 51
15.0
  7
INFO
100
AcDbText
  0
TEXT
  5
3DC
100
AcDbEntity
  8
DIM_TEXT
100
AcDbText
 10
43.101366
 20
26.923494
 30
0.0
 40
1.125
  1
(MIN #4 @ 15" O.C.
 51
15.0
  7
INFO
100
AcDbText
  0
TEXT
  5
3DD
100
AcDbEntity
  8
DIM_TEXT
100
AcDbText
 10
7.346058
 20
35.606655
 30
0.0
 40
1.134
  1
RASTRA FLAT
 51
15.0
  7
INFO
100
AcDbText
  0
TEXT
  5
3DE
100
AcDbEntity
  8
DIM_TEXT
100
AcDbText
 10
7.346058
 20
33.662625
 30
0.0
 40
1.134
  1
STOCK
 51
15.0
  7
INFO
100
AcDbText
  0
TEXT
  5
3DF
100
AcDbEntity
  8
DIM_TEXT
100
AcDbText
 10
4.042061
 20
23.236645
 30
0.0
 40
1.134
  1
BOND BEAM CONT
 51
15.0
  7
INFO
100
AcDbText
  0
LINE
  5
3E0
100
AcDbEntity
  8
DIM_TEXT
100
AcDbLine
 10
22.403008
 20
29.453945
 30
0.0
 11
22.403008
 21
49.968895
 31
0.0
  0
LINE
  5
3E1
100
AcDbEntity
  8
DRAWING
100
AcDbLine
 10
37.360258
 20
24.609155
 30
0.0
 11
37.360258
 21
33.402065
 31
0.0
  0
LINE
  5
3E2
100
AcDbEntity
  8
DRAWING
100
AcDbLine
 10
27.280298
 20
33.402065
 30
0.0
 11
27.280298
 21
22.987025
 31
0.0
  0
LINE
  5
3E3
100
AcDbEntity
  8
DRAWING
100
AcDbLine
 10
29.170228
 20
33.402065
 30
0.0
 11
29.170228
 21
23.291165
 31
0.0
  0
LINE
  5
3E4
100
AcDbEntity
  8
DRAWING
100
AcDbLine
 10
35.470238
 20
24.305015
 30
0.0
 11
35.470238
 21
33.402065
 31
0.0
  0
ARC
  5
3E5
100
AcDbEntity
  8
DRAWING
100
AcDbCircle
 10
32.320278
 20
33.402065
 30
0.0
 40
3.024
100
AcDbArc
 50
180.0
 51
0.0
  0
LINE
  5
3E6
100
AcDbEntity
  8
DRAWING
100
AcDbLine
 10
33.067988
 20
29.453945
 30
0.0
 11
33.067988
 21
56.577895
 31
0.0
  0
CIRCLE
  5
3E7
100
AcDbEntity
  8
DRAWING
100
AcDbCircle
 10
30.930508
 20
31.631115
 30
0.0
 40
0.315
  0
CIRCLE
  5
3E8
100
AcDbEntity
  8
DRAWING
100
AcDbCircle
 10
33.788238
 20
31.631115
 30
0.0
 40
0.315
  0
LINE
  5
3E9
100
AcDbEntity
  8
DIM_TEXT
100
AcDbLine
 10
45.193616
 20
35.899173
 30
0.0
 11
41.337948
 21
53.940815
 31
0.0
  0
LINE
  5
3EA
100
AcDbEntity
  8
DRAWING
100
AcDbLine
 10
32.414208
 20
49.968895
 30
0.0
 11
32.414208
 21
23.972978
 31
0.0
  0
LINE
  5
3EC
100
AcDbEntity
  8
DIM_TEXT
100
AcDbLine
 10
40.221531
 20
29.513354
 30
0.0
 11
33.584871
 21
33.217574
 31
0.0
  0
LINE
  5
3ED
100
AcDbEntity
  8
HATCH
100
AcDbLine
 10
34.298918
 20
24.116595
 30
0.0
 11
40.217988
 21
25.068935
 31
0.0
  0
LINE
  5
3EE
100
AcDbEntity
  8
DIM_TEXT
100
AcDbLine
 10
32.359278
 20
29.453945
 30
0.0
 11
22.403008
 21
29.453945
 31
0.0
  0
LINE
  5
3F0
100
AcDbEntity
  8
DIM_TEXT
100
AcDbLine
 10
20.785638
 20
23.772415
 30
0.0
 11
24.852508
 21
30.654795
 31
0.0
  0
LINE
  5
3F1
100
AcDbEntity
  8
DIM_TEXT
100
AcDbLine
 10
25.429378
 20
31.631115
 30
0.0
 11
24.527038
 21
30.847055
 31
0.0
  0
LINE
  5
3F2
100
AcDbEntity
  8
DIM_TEXT
100
AcDbLine
 10
25.177978
 20
30.462345
 30
0.0
 11
24.527038
 21
30.847055
 31
0.0
  0
LINE
  5
3F3
100
AcDbEntity
  8
DRAWING
100
AcDbLine
 10
34.895478
 20
31.631115
 30
0.0
 11
24.000608
 21
31.631115
 31
0.0
  0
LINE
  5
3F4
100
AcDbEntity
  8
DIM_TEXT
100
AcDbLine
 10
20.249868
 20
23.772415
 30
0.0
 11
20.785638
 21
23.772415
 31
0.0
  0
LINE
  5
3F5
100
AcDbEntity
  8
DIM_TEXT
100
AcDbLine
 10
22.028008
 20
29.828945
 30
0.0
 11
22.778008
 21
29.078945
 31
0.0
  0
LINE
  5
3F7
100
AcDbEntity
  8
HATCH
100
AcDbLine
 10
31.109128
 20
26.676415
 30
0.0
 11
33.609528
 21
21.496905
 31
0.0
  0
LINE
  5
3F8
100
AcDbEntity
  8
HATCH
100
AcDbLine
 10
30.152948
 20
23.449365
 30
0.0
 11
31.109128
 21
26.676415
 31
0.0
  0
LINE
  5
3F9
100
AcDbEntity
  8
HATCH
100
AcDbLine
 10
24.679288
 20
22.568445
 30
0.0
 11
30.152948
 21
23.449365
 31
0.0
  0
LINE
  5
3FA
100
AcDbEntity
  8
HATCH
100
AcDbLine
 10
27.730648
 20
24.287625
 30
0.0
 11
27.730648
 21
24.287625
 31
0.0
  0
LINE
  5
3FB
100
AcDbEntity
  8
HATCH
100
AcDbLine
 10
28.203148
 20
24.287625
 30
0.0
 11
28.203148
 21
24.287625
 31
0.0
  0
LINE
  5
3FC
100
AcDbEntity
  8
HATCH
100
AcDbLine
 10
27.494348
 20
23.796345
 30
0.0
 11
27.494348
 21
23.796345
 31
0.0
  0
LINE
  5
3FD
100
AcDbEntity
  8
HATCH
100
AcDbLine
 10
27.966858
 20
23.796345
 30
0.0
 11
27.966858
 21
23.796345
 31
0.0
  0
LINE
  5
3FE
100
AcDbEntity
  8
HATCH
100
AcDbLine
 10
27.730648
 20
23.323935
 30
0.0
 11
27.730648
 21
23.323935
 31
0.0
  0
LINE
  5
3FF
100
AcDbEntity
  8
HATCH
100
AcDbLine
 10
28.203148
 20
23.323935
 30
0.0
 11
28.203148
 21
23.323935
 31
0.0
  0
LINE
  5
400
100
AcDbEntity
  8
HATCH
100
AcDbLine
 10
30.569788
 20
24.467065
 30
0.0
 11
30.629118
 21
24.488485
 31
0.0
  0
LINE
  5
401
100
AcDbEntity
  8
HATCH
100
AcDbLine
 10
28.675658
 20
24.287625
 30
0.0
 11
28.675658
 21
24.287625
 31
0.0
  0
LINE
  5
402
100
AcDbEntity
  8
HATCH
100
AcDbLine
 10
29.148158
 20
24.287625
 30
0.0
 11
29.148158
 21
24.287625
 31
0.0
  0
LINE
  5
403
100
AcDbEntity
  8
HATCH
100
AcDbLine
 10
28.439358
 20
23.796345
 30
0.0
 11
28.439358
 21
23.796345
 31
0.0
  0
LINE
  5
404
100
AcDbEntity
  8
HATCH
100
AcDbLine
 10
28.911858
 20
23.796345
 30
0.0
 11
28.911858
 21
23.796345
 31
0.0
  0
LINE
  5
405
100
AcDbEntity
  8
HATCH
100
AcDbLine
 10
28.675658
 20
23.323935
 30
0.0
 11
28.675658
 21
23.323935
 31
0.0
  0
LINE
  5
406
100
AcDbEntity
  8
HATCH
100
AcDbLine
 10
29.148158
 20
23.323935
 30
0.0
 11
29.148158
 21
23.323935
 31
0.0
  0
LINE
  5
408
100
AcDbEntity
  8
DIM_TEXT
100
AcDbLine
 10
25.429378
 20
31.631115
 30
0.0
 11
25.177978
 21
30.462345
 31
0.0
  0
LINE
  5
409
100
AcDbEntity
  8
HATCH
100
AcDbLine
 10
27.494348
 20
31.375085
 30
0.0
 11
27.494348
 21
31.375085
 31
0.0
  0
LINE
  5
40A
100
AcDbEntity
  8
HATCH
100
AcDbLine
 10
27.966858
 20
31.375085
 30
0.0
 11
27.966858
 21
31.375085
 31
0.0
  0
LINE
  5
40B
100
AcDbEntity
  8
HATCH
100
AcDbLine
 10
27.730648
 20
30.902675
 30
0.0
 11
27.730648
 21
30.902675
 31
0.0
  0
LINE
  5
40C
100
AcDbEntity
  8
HATCH
100
AcDbLine
 10
28.203148
 20
30.902675
 30
0.0
 11
28.203148
 21
30.902675
 31
0.0
  0
LINE
  5
40D
100
AcDbEntity
  8
HATCH
100
AcDbLine
 10
27.494348
 20
30.430075
 30
0.0
 11
27.494348
 21
30.430075
 31
0.0
  0
LINE
  5
40E
100
AcDbEntity
  8
HATCH
100
AcDbLine
 10
27.966858
 20
30.430075
 30
0.0
 11
27.966858
 21
30.430075
 31
0.0
  0
LINE
  5
40F
100
AcDbEntity
  8
HATCH
100
AcDbLine
 10
27.730648
 20
29.957665
 30
0.0
 11
27.730648
 21
29.957665
 31
0.0
  0
LINE
  5
410
100
AcDbEntity
  8
HATCH
100
AcDbLine
 10
28.203148
 20
29.957665
 30
0.0
 11
28.203148
 21
29.957665
 31
0.0
  0
LINE
  5
411
100
AcDbEntity
  8
HATCH
100
AcDbLine
 10
27.494348
 20
29.485065
 30
0.0
 11
27.494348
 21
29.485065
 31
0.0
  0
LINE
  5
412
100
AcDbEntity
  8
HATCH
100
AcDbLine
 10
27.966858
 20
29.485065
 30
0.0
 11
27.966858
 21
29.485065
 31
0.0
  0
LINE
  5
413
100
AcDbEntity
  8
HATCH
100
AcDbLine
 10
27.730648
 20
29.012655
 30
0.0
 11
27.730648
 21
29.012655
 31
0.0
  0
LINE
  5
414
100
AcDbEntity
  8
HATCH
100
AcDbLine
 10
28.203148
 20
29.012655
 30
0.0
 11
28.203148
 21
29.012655
 31
0.0
  0
LINE
  5
415
100
AcDbEntity
  8
HATCH
100
AcDbLine
 10
27.494348
 20
28.540065
 30
0.0
 11
27.494348
 21
28.540065
 31
0.0
  0
LINE
  5
416
100
AcDbEntity
  8
HATCH
100
AcDbLine
 10
27.966858
 20
28.540065
 30
0.0
 11
27.966858
 21
28.540065
 31
0.0
  0
LINE
  5
417
100
AcDbEntity
  8
HATCH
100
AcDbLine
 10
27.730648
 20
28.067645
 30
0.0
 11
27.730648
 21
28.067645
 31
0.0
  0
LINE
  5
418
100
AcDbEntity
  8
HATCH
100
AcDbLine
 10
28.203148
 20
28.067645
 30
0.0
 11
28.203148
 21
28.067645
 31
0.0
  0
LINE
  5
419
100
AcDbEntity
  8
HATCH
100
AcDbLine
 10
27.494348
 20
27.595055
 30
0.0
 11
27.494348
 21
27.595055
 31
0.0
  0
LINE
  5
41A
100
AcDbEntity
  8
HATCH
100
AcDbLine
 10
27.966858
 20
27.595055
 30
0.0
 11
27.966858
 21
27.595055
 31
0.0
  0
LINE
  5
41B
100
AcDbEntity
  8
HATCH
100
AcDbLine
 10
27.629758
 20
27.122645
 30
0.0
 11
27.629758
 21
27.122645
 31
0.0
  0
LINE
  5
41C
100
AcDbEntity
  8
HATCH
100
AcDbLine
 10
28.203148
 20
27.122645
 30
0.0
 11
28.203148
 21
27.122645
 31
0.0
  0
LINE
  5
41D
100
AcDbEntity
  8
HATCH
100
AcDbLine
 10
27.393458
 20
26.650045
 30
0.0
 11
27.393458
 21
26.650045
 31
0.0
  0
LINE
  5
41E
100
AcDbEntity
  8
HATCH
100
AcDbLine
 10
27.865968
 20
26.650045
 30
0.0
 11
27.865968
 21
26.650045
 31
0.0
  0
LINE
  5
41F
100
AcDbEntity
  8
HATCH
100
AcDbLine
 10
27.730648
 20
26.177635
 30
0.0
 11
27.730648
 21
26.177635
 31
0.0
  0
LINE
  5
420
100
AcDbEntity
  8
HATCH
100
AcDbLine
 10
28.203148
 20
26.177635
 30
0.0
 11
28.203148
 21
26.177635
 31
0.0
  0
LINE
  5
421
100
AcDbEntity
  8
HATCH
100
AcDbLine
 10
27.494348
 20
25.705035
 30
0.0
 11
27.494348
 21
25.705035
 31
0.0
  0
LINE
  5
422
100
AcDbEntity
  8
HATCH
100
AcDbLine
 10
27.966858
 20
25.705035
 30
0.0
 11
27.966858
 21
25.705035
 31
0.0
  0
LINE
  5
423
100
AcDbEntity
  8
HATCH
100
AcDbLine
 10
27.730648
 20
25.232625
 30
0.0
 11
27.730648
 21
25.232625
 31
0.0
  0
LINE
  5
424
100
AcDbEntity
  8
HATCH
100
AcDbLine
 10
28.203148
 20
25.232625
 30
0.0
 11
28.203148
 21
25.232625
 31
0.0
  0
LINE
  5
425
100
AcDbEntity
  8
HATCH
100
AcDbLine
 10
27.494348
 20
24.760035
 30
0.0
 11
27.494348
 21
24.760035
 31
0.0
  0
LINE
  5
426
100
AcDbEntity
  8
HATCH
100
AcDbLine
 10
27.966858
 20
24.760035
 30
0.0
 11
27.966858
 21
24.760035
 31
0.0
  0
LINE
  5
427
100
AcDbEntity
  8
HATCH
100
AcDbLine
 10
27.494348
 20
25.723895
 30
0.0
 11
27.494348
 21
25.723895
 31
0.0
  0
LINE
  5
428
100
AcDbEntity
  8
HATCH
100
AcDbLine
 10
27.966858
 20
25.723895
 30
0.0
 11
27.966858
 21
25.723895
 31
0.0
  0
LINE
  5
429
100
AcDbEntity
  8
HATCH
100
AcDbLine
 10
27.494348
 20
25.723895
 30
0.0
 11
27.494348
 21
25.723895
 31
0.0
  0
LINE
  5
42A
100
AcDbEntity
  8
HATCH
100
AcDbLine
 10
27.966858
 20
25.723895
 30
0.0
 11
27.966858
 21
25.723895
 31
0.0
  0
LINE
  5
42B
100
AcDbEntity
  8
HATCH
100
AcDbLine
 10
31.214318
 20
30.064965
 30
0.0
 11
31.273648
 21
30.086575
 31
0.0
  0
LINE
  5
42C
100
AcDbEntity
  8
HATCH
100
AcDbLine
 10
29.708008
 20
26.834985
 30
0.0
 11
29.767328
 21
26.856585
 31
0.0
  0
LINE
  5
42D
100
AcDbEntity
  8
HATCH
100
AcDbLine
 10
29.966638
 20
30.923725
 30
0.0
 11
30.002808
 21
30.975185
 31
0.0
  0
LINE
  5
42E
100
AcDbEntity
  8
HATCH
100
AcDbLine
 10
30.585538
 20
27.413965
 30
0.0
 11
30.621698
 21
27.465595
 31
0.0
  0
LINE
  5
42F
100
AcDbEntity
  8
HATCH
100
AcDbLine
 10
29.279538
 20
31.388085
 30
0.0
 11
29.290338
 21
31.449975
 31
0.0
  0
LINE
  5
430
100
AcDbEntity
  8
HATCH
100
AcDbLine
 10
30.886018
 20
25.987025
 30
0.0
 11
30.896818
 21
26.049095
 31
0.0
  0
LINE
  5
431
100
AcDbEntity
  8
HATCH
100
AcDbLine
 10
31.323548
 20
28.468835
 30
0.0
 11
31.334438
 21
28.530725
 31
0.0
  0
LINE
  5
432
100
AcDbEntity
  8
HATCH
100
AcDbLine
 10
28.439358
 20
31.375085
 30
0.0
 11
28.439358
 21
31.375085
 31
0.0
  0
LINE
  5
433
100
AcDbEntity
  8
HATCH
100
AcDbLine
 10
28.911858
 20
31.375085
 30
0.0
 11
28.911858
 21
31.375085
 31
0.0
  0
LINE
  5
434
100
AcDbEntity
  8
HATCH
100
AcDbLine
 10
28.675658
 20
30.902675
 30
0.0
 11
28.675658
 21
30.902675
 31
0.0
  0
LINE
  5
435
100
AcDbEntity
  8
HATCH
100
AcDbLine
 10
29.148158
 20
30.902675
 30
0.0
 11
29.148158
 21
30.902675
 31
0.0
  0
LINE
  5
436
100
AcDbEntity
  8
HATCH
100
AcDbLine
 10
28.439358
 20
30.430075
 30
0.0
 11
28.439358
 21
30.430075
 31
0.0
  0
LINE
  5
437
100
AcDbEntity
  8
HATCH
100
AcDbLine
 10
28.911858
 20
30.430075
 30
0.0
 11
28.911858
 21
30.430075
 31
0.0
  0
LINE
  5
438
100
AcDbEntity
  8
HATCH
100
AcDbLine
 10
28.675658
 20
29.957665
 30
0.0
 11
28.675658
 21
29.957665
 31
0.0
  0
LINE
  5
439
100
AcDbEntity
  8
HATCH
100
AcDbLine
 10
29.148158
 20
29.957665
 30
0.0
 11
29.148158
 21
29.957665
 31
0.0
  0
LINE
  5
43A
100
AcDbEntity
  8
HATCH
100
AcDbLine
 10
28.439358
 20
29.485065
 30
0.0
 11
28.439358
 21
29.485065
 31
0.0
  0
LINE
  5
43B
100
AcDbEntity
  8
HATCH
100
AcDbLine
 10
28.911858
 20
29.485065
 30
0.0
 11
28.911858
 21
29.485065
 31
0.0
  0
LINE
  5
43C
100
AcDbEntity
  8
HATCH
100
AcDbLine
 10
28.675658
 20
29.012655
 30
0.0
 11
28.675658
 21
29.012655
 31
0.0
  0
LINE
  5
43D
100
AcDbEntity
  8
HATCH
100
AcDbLine
 10
29.148158
 20
29.012655
 30
0.0
 11
29.148158
 21
29.012655
 31
0.0
  0
LINE
  5
43E
100
AcDbEntity
  8
HATCH
100
AcDbLine
 10
28.439358
 20
28.540065
 30
0.0
 11
28.439358
 21
28.540065
 31
0.0
  0
LINE
  5
43F
100
AcDbEntity
  8
HATCH
100
AcDbLine
 10
28.911858
 20
28.540065
 30
0.0
 11
28.911858
 21
28.540065
 31
0.0
  0
LINE
  5
440
100
AcDbEntity
  8
HATCH
100
AcDbLine
 10
28.675658
 20
28.067645
 30
0.0
 11
28.675658
 21
28.067645
 31
0.0
  0
LINE
  5
441
100
AcDbEntity
  8
HATCH
100
AcDbLine
 10
29.148158
 20
28.067645
 30
0.0
 11
29.148158
 21
28.067645
 31
0.0
  0
LINE
  5
442
100
AcDbEntity
  8
HATCH
100
AcDbLine
 10
28.439358
 20
27.595055
 30
0.0
 11
28.439358
 21
27.595055
 31
0.0
  0
LINE
  5
443
100
AcDbEntity
  8
HATCH
100
AcDbLine
 10
28.911858
 20
27.595055
 30
0.0
 11
28.911858
 21
27.595055
 31
0.0
  0
LINE
  5
444
100
AcDbEntity
  8
HATCH
100
AcDbLine
 10
28.675658
 20
27.122645
 30
0.0
 11
28.675658
 21
27.122645
 31
0.0
  0
LINE
  5
445
100
AcDbEntity
  8
HATCH
100
AcDbLine
 10
29.148158
 20
27.122645
 30
0.0
 11
29.148158
 21
27.122645
 31
0.0
  0
LINE
  5
446
100
AcDbEntity
  8
HATCH
100
AcDbLine
 10
28.439358
 20
26.650045
 30
0.0
 11
28.439358
 21
26.650045
 31
0.0
  0
LINE
  5
447
100
AcDbEntity
  8
HATCH
100
AcDbLine
 10
28.911858
 20
26.650045
 30
0.0
 11
28.911858
 21
26.650045
 31
0.0
  0
LINE
  5
448
100
AcDbEntity
  8
HATCH
100
AcDbLine
 10
28.675658
 20
26.177635
 30
0.0
 11
28.675658
 21
26.177635
 31
0.0
  0
LINE
  5
449
100
AcDbEntity
  8
HATCH
100
AcDbLine
 10
29.148158
 20
26.177635
 30
0.0
 11
29.148158
 21
26.177635
 31
0.0
  0
LINE
  5
44A
100
AcDbEntity
  8
HATCH
100
AcDbLine
 10
28.439358
 20
25.705035
 30
0.0
 11
28.439358
 21
25.705035
 31
0.0
  0
LINE
  5
44B
100
AcDbEntity
  8
HATCH
100
AcDbLine
 10
28.911858
 20
25.705035
 30
0.0
 11
28.911858
 21
25.705035
 31
0.0
  0
LINE
  5
44C
100
AcDbEntity
  8
HATCH
100
AcDbLine
 10
28.675658
 20
25.232625
 30
0.0
 11
28.675658
 21
25.232625
 31
0.0
  0
LINE
  5
44D
100
AcDbEntity
  8
HATCH
100
AcDbLine
 10
29.148158
 20
25.232625
 30
0.0
 11
29.148158
 21
25.232625
 31
0.0
  0
LINE
  5
44E
100
AcDbEntity
  8
HATCH
100
AcDbLine
 10
28.439358
 20
24.760035
 30
0.0
 11
28.439358
 21
24.760035
 31
0.0
  0
LINE
  5
44F
100
AcDbEntity
  8
HATCH
100
AcDbLine
 10
28.911858
 20
24.760035
 30
0.0
 11
28.911858
 21
24.760035
 31
0.0
  0
LINE
  5
450
100
AcDbEntity
  8
HATCH
100
AcDbLine
 10
28.439358
 20
25.723895
 30
0.0
 11
28.439358
 21
25.723895
 31
0.0
  0
LINE
  5
451
100
AcDbEntity
  8
HATCH
100
AcDbLine
 10
28.911858
 20
25.723895
 30
0.0
 11
28.911858
 21
25.723895
 31
0.0
  0
LINE
  5
452
100
AcDbEntity
  8
HATCH
100
AcDbLine
 10
28.439358
 20
25.723895
 30
0.0
 11
28.439358
 21
25.723895
 31
0.0
  0
LINE
  5
453
100
AcDbEntity
  8
HATCH
100
AcDbLine
 10
28.911858
 20
25.723895
 30
0.0
 11
28.911858
 21
25.723895
 31
0.0
  0
LINE
  5
454
100
AcDbEntity
  8
HATCH
100
AcDbLine
 10
31.241058
 20
30.851955
 30
0.0
 11
31.251948
 21
30.914025
 31
0.0
  0
LINE
  5
455
100
AcDbEntity
  8
HATCH
100
AcDbLine
 10
34.714018
 20
24.523275
 30
0.0
 11
34.750178
 21
24.574725
 31
0.0
  0
LINE
  5
456
100
AcDbEntity
  8
HATCH
100
AcDbLine
 10
33.609528
 20
21.496905
 30
0.0
 11
34.298918
 21
24.116595
 31
0.0
  0
LINE
  5
45A
100
AcDbEntity
  8
HATCH
100
AcDbLine
 10
32.076108
 20
27.696865
 30
0.0
 11
32.135438
 21
27.718465
 31
0.0
  0
LINE
  5
45B
100
AcDbEntity
  8
HATCH
100
AcDbLine
 10
34.444298
 20
28.558735
 30
0.0
 11
34.503628
 21
28.580345
 31
0.0
  0
LINE
  5
45C
100
AcDbEntity
  8
HATCH
100
AcDbLine
 10
32.937988
 20
25.328945
 30
0.0
 11
32.997308
 21
25.350365
 31
0.0
  0
LINE
  5
45D
100
AcDbEntity
  8
HATCH
100
AcDbLine
 10
35.306088
 20
26.190815
 30
0.0
 11
35.365418
 21
26.212245
 31
0.0
  0
LINE
  5
45E
100
AcDbEntity
  8
HATCH
100
AcDbLine
 10
32.031068
 20
29.478295
 30
0.0
 11
32.067318
 21
29.529925
 31
0.0
  0
LINE
  5
45F
100
AcDbEntity
  8
HATCH
100
AcDbLine
 10
32.649778
 20
25.968525
 30
0.0
 11
32.685938
 21
26.020165
 31
0.0
  0
LINE
  5
460
100
AcDbEntity
  8
HATCH
100
AcDbLine
 10
34.095308
 20
28.032855
 30
0.0
 11
34.131558
 21
28.084495
 31
0.0
  0
LINE
  5
461
100
AcDbEntity
  8
HATCH
100
AcDbLine
 10
33.367368
 20
25.549395
 30
0.0
 11
33.378258
 21
25.611475
 31
0.0
  0
LINE
  5
462
100
AcDbEntity
  8
HATCH
100
AcDbLine
 10
33.804988
 20
28.031215
 30
0.0
 11
33.815788
 21
28.093285
 31
0.0
  0
LINE
  5
463
100
AcDbEntity
  8
HATCH
100
AcDbLine
 10
34.242518
 20
30.512835
 30
0.0
 11
34.253328
 21
30.574915
 31
0.0
  0
LINE
  5
464
100
AcDbEntity
  8
HATCH
100
AcDbLine
 10
31.958278
 20
30.423115
 30
0.0
 11
32.017418
 21
30.444725
 31
0.0
  0
LINE
  5
465
100
AcDbEntity
  8
HATCH
100
AcDbLine
 10
34.326288
 20
31.284995
 30
0.0
 11
34.385528
 21
31.306605
 31
0.0
  0
LINE
  5
467
100
AcDbEntity
  8
DIM_TEXT
100
AcDbLine
 10
32.602511
 20
33.765794
 30
0.0
 11
33.767611
 21
33.544964
 31
0.0
  0
LINE
  5
468
100
AcDbEntity
  8
DIM_TEXT
100
AcDbLine
 10
32.602511
 20
33.765794
 30
0.0
 11
33.402131
 21
32.890184
 31
0.0
  0
LINE
  5
469
100
AcDbEntity
  8
DIM_TEXT
100
AcDbLine
 10
33.767611
 20
33.544964
 30
0.0
 11
33.402131
 21
32.890184
 31
0.0
  0
LINE
  5
46A
100
AcDbEntity
  8
HATCH
100
AcDbLine
 10
35.526818
 20
31.375085
 30
0.0
 11
35.526818
 21
31.375085
 31
0.0
  0
LINE
  5
46B
100
AcDbEntity
  8
HATCH
100
AcDbLine
 10
35.999328
 20
31.375085
 30
0.0
 11
35.999328
 21
31.375085
 31
0.0
  0
LINE
  5
46C
100
AcDbEntity
  8
HATCH
100
AcDbLine
 10
36.471828
 20
31.375085
 30
0.0
 11
36.471828
 21
31.375085
 31
0.0
  0
LINE
  5
46D
100
AcDbEntity
  8
HATCH
100
AcDbLine
 10
36.944328
 20
31.375085
 30
0.0
 11
36.944328
 21
31.375085
 31
0.0
  0
LINE
  5
46E
100
AcDbEntity
  8
HATCH
100
AcDbLine
 10
35.763118
 20
30.902675
 30
0.0
 11
35.763118
 21
30.902675
 31
0.0
  0
LINE
  5
46F
100
AcDbEntity
  8
HATCH
100
AcDbLine
 10
36.235628
 20
30.902675
 30
0.0
 11
36.235628
 21
30.902675
 31
0.0
  0
LINE
  5
470
100
AcDbEntity
  8
HATCH
100
AcDbLine
 10
36.708128
 20
30.902675
 30
0.0
 11
36.708128
 21
30.902675
 31
0.0
  0
LINE
  5
471
100
AcDbEntity
  8
HATCH
100
AcDbLine
 10
37.180628
 20
30.902675
 30
0.0
 11
37.180628
 21
30.902675
 31
0.0
  0
LINE
  5
472
100
AcDbEntity
  8
HATCH
100
AcDbLine
 10
35.526818
 20
30.430075
 30
0.0
 11
35.526818
 21
30.430075
 31
0.0
  0
LINE
  5
473
100
AcDbEntity
  8
HATCH
100
AcDbLine
 10
35.999328
 20
30.430075
 30
0.0
 11
35.999328
 21
30.430075
 31
0.0
  0
LINE
  5
474
100
AcDbEntity
  8
HATCH
100
AcDbLine
 10
36.471828
 20
30.430075
 30
0.0
 11
36.471828
 21
30.430075
 31
0.0
  0
LINE
  5
475
100
AcDbEntity
  8
HATCH
100
AcDbLine
 10
36.944328
 20
30.430075
 30
0.0
 11
36.944328
 21
30.430075
 31
0.0
  0
LINE
  5
476
100
AcDbEntity
  8
HATCH
100
AcDbLine
 10
35.763118
 20
29.957665
 30
0.0
 11
35.763118
 21
29.957665
 31
0.0
  0
LINE
  5
477
100
AcDbEntity
  8
HATCH
100
AcDbLine
 10
36.235628
 20
29.957665
 30
0.0
 11
36.235628
 21
29.957665
 31
0.0
  0
LINE
  5
478
100
AcDbEntity
  8
HATCH
100
AcDbLine
 10
36.708128
 20
29.957665
 30
0.0
 11
36.708128
 21
29.957665
 31
0.0
  0
LINE
  5
479
100
AcDbEntity
  8
HATCH
100
AcDbLine
 10
37.180628
 20
29.957665
 30
0.0
 11
37.180628
 21
29.957665
 31
0.0
  0
LINE
  5
47A
100
AcDbEntity
  8
HATCH
100
AcDbLine
 10
35.526818
 20
29.485065
 30
0.0
 11
35.526818
 21
29.485065
 31
0.0
  0
LINE
  5
47B
100
AcDbEntity
  8
HATCH
100
AcDbLine
 10
35.999328
 20
29.485065
 30
0.0
 11
35.999328
 21
29.485065
 31
0.0
  0
LINE
  5
47C
100
AcDbEntity
  8
HATCH
100
AcDbLine
 10
36.471828
 20
29.485065
 30
0.0
 11
36.471828
 21
29.485065
 31
0.0
  0
LINE
  5
47D
100
AcDbEntity
  8
HATCH
100
AcDbLine
 10
36.944328
 20
29.485065
 30
0.0
 11
36.944328
 21
29.485065
 31
0.0
  0
LINE
  5
47E
100
AcDbEntity
  8
HATCH
100
AcDbLine
 10
35.763118
 20
29.012655
 30
0.0
 11
35.763118
 21
29.012655
 31
0.0
  0
LINE
  5
47F
100
AcDbEntity
  8
HATCH
100
AcDbLine
 10
36.235628
 20
29.012655
 30
0.0
 11
36.235628
 21
29.012655
 31
0.0
  0
LINE
  5
480
100
AcDbEntity
  8
HATCH
100
AcDbLine
 10
36.708128
 20
29.012655
 30
0.0
 11
36.708128
 21
29.012655
 31
0.0
  0
LINE
  5
481
100
AcDbEntity
  8
HATCH
100
AcDbLine
 10
37.180628
 20
29.012655
 30
0.0
 11
37.180628
 21
29.012655
 31
0.0
  0
LINE
  5
482
100
AcDbEntity
  8
HATCH
100
AcDbLine
 10
35.526818
 20
28.540065
 30
0.0
 11
35.526818
 21
28.540065
 31
0.0
  0
LINE
  5
483
100
AcDbEntity
  8
HATCH
100
AcDbLine
 10
35.999328
 20
28.540065
 30
0.0
 11
35.999328
 21
28.540065
 31
0.0
  0
LINE
  5
484
100
AcDbEntity
  8
HATCH
100
AcDbLine
 10
36.471828
 20
28.540065
 30
0.0
 11
36.471828
 21
28.540065
 31
0.0
  0
LINE
  5
485
100
AcDbEntity
  8
HATCH
100
AcDbLine
 10
36.944328
 20
28.540065
 30
0.0
 11
36.944328
 21
28.540065
 31
0.0
  0
LINE
  5
486
100
AcDbEntity
  8
HATCH
100
AcDbLine
 10
35.763118
 20
28.067645
 30
0.0
 11
35.763118
 21
28.067645
 31
0.0
  0
LINE
  5
487
100
AcDbEntity
  8
HATCH
100
AcDbLine
 10
36.235628
 20
28.067645
 30
0.0
 11
36.235628
 21
28.067645
 31
0.0
  0
LINE
  5
488
100
AcDbEntity
  8
HATCH
100
AcDbLine
 10
36.708128
 20
28.067645
 30
0.0
 11
36.708128
 21
28.067645
 31
0.0
  0
LINE
  5
489
100
AcDbEntity
  8
HATCH
100
AcDbLine
 10
37.180628
 20
28.067645
 30
0.0
 11
37.180628
 21
28.067645
 31
0.0
  0
LINE
  5
48A
100
AcDbEntity
  8
HATCH
100
AcDbLine
 10
35.526818
 20
27.595055
 30
0.0
 11
35.526818
 21
27.595055
 31
0.0
  0
LINE
  5
48B
100
AcDbEntity
  8
HATCH
100
AcDbLine
 10
35.999328
 20
27.595055
 30
0.0
 11
35.999328
 21
27.595055
 31
0.0
  0
LINE
  5
48C
100
AcDbEntity
  8
HATCH
100
AcDbLine
 10
36.471828
 20
27.595055
 30
0.0
 11
36.471828
 21
27.595055
 31
0.0
  0
LINE
  5
48D
100
AcDbEntity
  8
HATCH
100
AcDbLine
 10
36.944328
 20
27.595055
 30
0.0
 11
36.944328
 21
27.595055
 31
0.0
  0
LINE
  5
48E
100
AcDbEntity
  8
HATCH
100
AcDbLine
 10
35.763118
 20
27.122645
 30
0.0
 11
35.763118
 21
27.122645
 31
0.0
  0
LINE
  5
48F
100
AcDbEntity
  8
HATCH
100
AcDbLine
 10
36.235628
 20
27.122645
 30
0.0
 11
36.235628
 21
27.122645
 31
0.0
  0
LINE
  5
490
100
AcDbEntity
  8
HATCH
100
AcDbLine
 10
36.708128
 20
27.122645
 30
0.0
 11
36.708128
 21
27.122645
 31
0.0
  0
LINE
  5
491
100
AcDbEntity
  8
HATCH
100
AcDbLine
 10
37.180628
 20
27.122645
 30
0.0
 11
37.180628
 21
27.122645
 31
0.0
  0
LINE
  5
492
100
AcDbEntity
  8
HATCH
100
AcDbLine
 10
35.526818
 20
26.650045
 30
0.0
 11
35.526818
 21
26.650045
 31
0.0
  0
LINE
  5
493
100
AcDbEntity
  8
HATCH
100
AcDbLine
 10
35.999328
 20
26.650045
 30
0.0
 11
35.999328
 21
26.650045
 31
0.0
  0
LINE
  5
494
100
AcDbEntity
  8
HATCH
100
AcDbLine
 10
36.471828
 20
26.650045
 30
0.0
 11
36.471828
 21
26.650045
 31
0.0
  0
LINE
  5
495
100
AcDbEntity
  8
HATCH
100
AcDbLine
 10
36.944328
 20
26.650045
 30
0.0
 11
36.944328
 21
26.650045
 31
0.0
  0
LINE
  5
496
100
AcDbEntity
  8
HATCH
100
AcDbLine
 10
35.763118
 20
26.177635
 30
0.0
 11
35.763118
 21
26.177635
 31
0.0
  0
LINE
  5
497
100
AcDbEntity
  8
HATCH
100
AcDbLine
 10
36.235628
 20
26.177635
 30
0.0
 11
36.235628
 21
26.177635
 31
0.0
  0
LINE
  5
498
100
AcDbEntity
  8
HATCH
100
AcDbLine
 10
36.708128
 20
26.177635
 30
0.0
 11
36.708128
 21
26.177635
 31
0.0
  0
LINE
  5
499
100
AcDbEntity
  8
HATCH
100
AcDbLine
 10
37.180628
 20
26.177635
 30
0.0
 11
37.180628
 21
26.177635
 31
0.0
  0
LINE
  5
49A
100
AcDbEntity
  8
HATCH
100
AcDbLine
 10
35.526818
 20
25.705035
 30
0.0
 11
35.526818
 21
25.705035
 31
0.0
  0
LINE
  5
49B
100
AcDbEntity
  8
HATCH
100
AcDbLine
 10
35.999328
 20
25.705035
 30
0.0
 11
35.999328
 21
25.705035
 31
0.0
  0
LINE
  5
49C
100
AcDbEntity
  8
HATCH
100
AcDbLine
 10
36.471828
 20
25.705035
 30
0.0
 11
36.471828
 21
25.705035
 31
0.0
  0
LINE
  5
49D
100
AcDbEntity
  8
HATCH
100
AcDbLine
 10
36.944328
 20
25.705035
 30
0.0
 11
36.944328
 21
25.705035
 31
0.0
  0
LINE
  5
49E
100
AcDbEntity
  8
HATCH
100
AcDbLine
 10
35.763118
 20
25.232625
 30
0.0
 11
35.763118
 21
25.232625
 31
0.0
  0
LINE
  5
49F
100
AcDbEntity
  8
HATCH
100
AcDbLine
 10
36.235628
 20
25.232625
 30
0.0
 11
36.235628
 21
25.232625
 31
0.0
  0
LINE
  5
4A0
100
AcDbEntity
  8
HATCH
100
AcDbLine
 10
36.708128
 20
25.232625
 30
0.0
 11
36.708128
 21
25.232625
 31
0.0
  0
LINE
  5
4A1
100
AcDbEntity
  8
HATCH
100
AcDbLine
 10
37.180628
 20
25.232625
 30
0.0
 11
37.180628
 21
25.232625
 31
0.0
  0
LINE
  5
4A2
100
AcDbEntity
  8
HATCH
100
AcDbLine
 10
35.526818
 20
24.760035
 30
0.0
 11
35.526818
 21
24.760035
 31
0.0
  0
LINE
  5
4A3
100
AcDbEntity
  8
HATCH
100
AcDbLine
 10
35.999328
 20
24.760035
 30
0.0
 11
35.999328
 21
24.760035
 31
0.0
  0
LINE
  5
4A4
100
AcDbEntity
  8
HATCH
100
AcDbLine
 10
36.471828
 20
24.760035
 30
0.0
 11
36.471828
 21
24.760035
 31
0.0
  0
LINE
  5
4A5
100
AcDbEntity
  8
HATCH
100
AcDbLine
 10
36.944328
 20
24.760035
 30
0.0
 11
36.944328
 21
24.760035
 31
0.0
  0
TEXT
  5
4A6
100
AcDbEntity
  8
DIM_TEXT
100
AcDbText
 10
47.158156
 20
35.184693
 30
0.0
 40
1.134
  1
SLAB REINF.
 51
15.0
  7
INFO
100
AcDbText
  0
TEXT
  5
4A7
100
AcDbEntity
  8
DIM_TEXT
100
AcDbText
 10
43.250107
 20
31.690134
 30
0.0
 40
1.125
  1
RASTRA WALL
 51
15.0
  7
INFO
100
AcDbText
  0
TEXT
  5
4A8
100
AcDbEntity
  8
DIM_TEXT
100
AcDbText
 10
43.101366
 20
24.994844
 30
0.0
 40
1.125
  1
REQUIRED PER DESIGN)
 51
15.0
  7
INFO
100
AcDbText
  0
LINE
  5
4A9
100
AcDbEntity
  8
DIM_TEXT
100
AcDbLine
 10
41.816191
 20
29.513354
 30
0.0
 11
40.221531
 21
29.513354
 31
0.0
  0
LINE
  5
4AA
100
AcDbEntity
  8
DIM_TEXT
100
AcDbLine
 10
46.265146
 20
35.899173
 30
0.0
 11
45.193616
 21
35.899173
 31
0.0
  0
LINE
  5
4AB
100
AcDbEntity
  8
DIM_TEXT
100
AcDbLine
 10
32.359188
 20
63.539995
 30
0.0
 11
57.378258
 21
63.539995
 31
0.0
  0
LINE
  5
4AC
100
AcDbEntity
  8
DIM_TEXT
100
AcDbLine
 10
35.860348
 20
43.961725
 30
0.0
 11
45.940208
 21
43.961725
 31
0.0
  0
LINE
  5
4AD
100
AcDbEntity
  8
DRAWING
100
AcDbLine
 10
33.571988
 20
57.081895
 30
0.0
 11
57.179588
 21
57.081895
 31
0.0
  0
LINE
  5
4AE
100
AcDbEntity
  8
DRAWING
100
AcDbLine
 10
37.876138
 20
56.082055
 30
0.0
 11
35.860168
 21
56.082055
 31
0.0
  0
LINE
  5
4AF
100
AcDbEntity
  8
DRAWING
100
AcDbLine
 10
45.940208
 20
48.521995
 30
0.0
 11
35.860258
 21
48.521995
 31
0.0
  0
LINE
  5
4B0
100
AcDbEntity
  8
DIM_TEXT
100
AcDbLine
 10
32.359188
 20
57.617595
 30
0.0
 11
32.359188
 21
63.539995
 31
0.0
  0
LINE
  5
4B1
100
AcDbEntity
  8
DIM_TEXT
100
AcDbLine
 10
31.705498
 20
49.968895
 30
0.0
 11
22.403008
 21
49.968895
 31
0.0
  0
LINE
  5
4B2
100
AcDbEntity
  8
DIM_TEXT
100
AcDbLine
 10
22.713368
 20
41.423365
 30
0.0
 11
26.852388
 21
47.450275
 31
0.0
  0
TEXT
  5
4B3
100
AcDbEntity
  8
DIM_TEXT
100
AcDbText
 10
21.920158
 20
36.122095
 30
0.0
 40
1.125
  1
DOWEL LAP
 50
90.0
 51
15.0
  7
INFO
100
AcDbText
  0
LINE
  5
4B4
100
AcDbEntity
  8
DIM_TEXT
100
AcDbLine
 10
18.598258
 20
35.963885
 30
0.0
 11
18.963918
 21
35.963885
 31
0.0
  0
LINE
  5
4B5
100
AcDbEntity
  8
DIM_TEXT
100
AcDbLine
 10
18.963918
 20
35.963885
 30
0.0
 11
20.151078
 21
37.692405
 31
0.0
  0
LINE
  5
4B6
100
AcDbEntity
  8
DIM_TEXT
100
AcDbLine
 10
22.778008
 20
49.593895
 30
0.0
 11
22.028008
 21
50.343895
 31
0.0
  0
LINE
  5
4B7
100
AcDbEntity
  8
DRAWING
100
AcDbLine
 10
37.360258
 20
33.402065
 30
0.0
 11
37.360258
 21
48.521995
 31
0.0
  0
LINE
  5
4B8
100
AcDbEntity
  8
DRAWING
100
AcDbLine
 10
27.280298
 20
48.521995
 30
0.0
 11
27.280298
 21
33.402065
 31
0.0
  0
LINE
  5
4B9
100
AcDbEntity
  8
DRAWING
100
AcDbLine
 10
29.170228
 20
48.521995
 30
0.0
 11
29.170228
 21
33.402065
 31
0.0
  0
LINE
  5
4BA
100
AcDbEntity
  8
DRAWING
100
AcDbLine
 10
35.470238
 20
33.402065
 30
0.0
 11
35.470238
 21
48.521995
 31
0.0
  0
ARC
  5
4BB
100
AcDbEntity
  8
DRAWING
100
AcDbCircle
 10
32.320278
 20
48.521995
 30
0.0
 40
3.024
100
AcDbArc
 50
180.0
 51
0.0
  0
LINE
  5
4BC
100
AcDbEntity
  8
HATCH
100
AcDbLine
 10
34.242518
 20
45.632955
 30
0.0
 11
34.253328
 21
45.694845
 31
0.0
  0
LINE
  5
4BD
100
AcDbEntity
  8
DRAWING
100
AcDbLine
 10
35.860168
 20
56.082055
 30
0.0
 11
35.860258
 21
48.521995
 31
0.0
  0
ARC
  5
4BE
100
AcDbEntity
  8
DRAWING
100
AcDbCircle
 10
32.320278
 20
33.402065
 30
0.0
 40
3.024
100
AcDbArc
 50
0.0
 51
180.0
  0
LINE
  5
4BF
100
AcDbEntity
  8
HATCH
100
AcDbLine
 10
30.448488
 20
38.625325
 30
0.0
 11
30.459288
 21
38.687215
 31
0.0
  0
LINE
  5
4C0
100
AcDbEntity
  8
DRAWING
100
AcDbLine
 10
29.170228
 20
33.402065
 30
0.0
 11
27.280298
 21
33.402065
 31
0.0
  0
LINE
  5
4C1
100
AcDbEntity
  8
DRAWING
100
AcDbLine
 10
27.280298
 20
33.402065
 30
0.0
 11
29.170228
 21
33.402065
 31
0.0
  0
LINE
  5
4C2
100
AcDbEntity
  8
HATCH
100
AcDbLine
 10
27.494348
 20
33.265095
 30
0.0
 11
27.494348
 21
33.265095
 31
0.0
  0
LINE
  5
4C3
100
AcDbEntity
  8
HATCH
100
AcDbLine
 10
27.966858
 20
33.265095
 30
0.0
 11
27.966858
 21
33.265095
 31
0.0
  0
LINE
  5
4C4
100
AcDbEntity
  8
HATCH
100
AcDbLine
 10
27.730648
 20
32.792685
 30
0.0
 11
27.730648
 21
32.792685
 31
0.0
  0
LINE
  5
4C5
100
AcDbEntity
  8
HATCH
100
AcDbLine
 10
28.203148
 20
32.792685
 30
0.0
 11
28.203148
 21
32.792685
 31
0.0
  0
LINE
  5
4C6
100
AcDbEntity
  8
HATCH
100
AcDbLine
 10
27.494348
 20
32.320095
 30
0.0
 11
27.494348
 21
32.320095
 31
0.0
  0
LINE
  5
4C7
100
AcDbEntity
  8
HATCH
100
AcDbLine
 10
27.966858
 20
32.320095
 30
0.0
 11
27.966858
 21
32.320095
 31
0.0
  0
LINE
  5
4C8
100
AcDbEntity
  8
HATCH
100
AcDbLine
 10
27.730648
 20
31.847675
 30
0.0
 11
27.730648
 21
31.847675
 31
0.0
  0
LINE
  5
4C9
100
AcDbEntity
  8
HATCH
100
AcDbLine
 10
28.203148
 20
31.847675
 30
0.0
 11
28.203148
 21
31.847675
 31
0.0
  0
LINE
  5
4CA
100
AcDbEntity
  8
HATCH
100
AcDbLine
 10
27.730648
 20
38.462545
 30
0.0
 11
27.730648
 21
38.462545
 31
0.0
  0
LINE
  5
4CB
100
AcDbEntity
  8
HATCH
100
AcDbLine
 10
28.203148
 20
38.462545
 30
0.0
 11
28.203148
 21
38.462545
 31
0.0
  0
LINE
  5
4CC
100
AcDbEntity
  8
HATCH
100
AcDbLine
 10
27.494348
 20
37.990135
 30
0.0
 11
27.494348
 21
37.990135
 31
0.0
  0
LINE
  5
4CD
100
AcDbEntity
  8
HATCH
100
AcDbLine
 10
27.966858
 20
37.990135
 30
0.0
 11
27.966858
 21
37.990135
 31
0.0
  0
LINE
  5
4CE
100
AcDbEntity
  8
HATCH
100
AcDbLine
 10
27.730648
 20
37.517535
 30
0.0
 11
27.730648
 21
37.517535
 31
0.0
  0
LINE
  5
4CF
100
AcDbEntity
  8
HATCH
100
AcDbLine
 10
28.203148
 20
37.517535
 30
0.0
 11
28.203148
 21
37.517535
 31
0.0
  0
LINE
  5
4D0
100
AcDbEntity
  8
HATCH
100
AcDbLine
 10
27.494348
 20
37.045125
 30
0.0
 11
27.494348
 21
37.045125
 31
0.0
  0
LINE
  5
4D1
100
AcDbEntity
  8
HATCH
100
AcDbLine
 10
27.966858
 20
37.045125
 30
0.0
 11
27.966858
 21
37.045125
 31
0.0
  0
LINE
  5
4D2
100
AcDbEntity
  8
HATCH
100
AcDbLine
 10
27.730648
 20
36.572535
 30
0.0
 11
27.730648
 21
36.572535
 31
0.0
  0
LINE
  5
4D3
100
AcDbEntity
  8
HATCH
100
AcDbLine
 10
28.203148
 20
36.572535
 30
0.0
 11
28.203148
 21
36.572535
 31
0.0
  0
LINE
  5
4D4
100
AcDbEntity
  8
HATCH
100
AcDbLine
 10
27.494348
 20
36.100125
 30
0.0
 11
27.494348
 21
36.100125
 31
0.0
  0
LINE
  5
4D5
100
AcDbEntity
  8
HATCH
100
AcDbLine
 10
27.966858
 20
36.100125
 30
0.0
 11
27.966858
 21
36.100125
 31
0.0
  0
LINE
  5
4D6
100
AcDbEntity
  8
HATCH
100
AcDbLine
 10
27.730648
 20
35.627525
 30
0.0
 11
27.730648
 21
35.627525
 31
0.0
  0
LINE
  5
4D7
100
AcDbEntity
  8
HATCH
100
AcDbLine
 10
28.203148
 20
35.627525
 30
0.0
 11
28.203148
 21
35.627525
 31
0.0
  0
LINE
  5
4D8
100
AcDbEntity
  8
HATCH
100
AcDbLine
 10
27.494348
 20
35.155115
 30
0.0
 11
27.494348
 21
35.155115
 31
0.0
  0
LINE
  5
4D9
100
AcDbEntity
  8
HATCH
100
AcDbLine
 10
27.966858
 20
35.155115
 30
0.0
 11
27.966858
 21
35.155115
 31
0.0
  0
LINE
  5
4DA
100
AcDbEntity
  8
HATCH
100
AcDbLine
 10
27.730648
 20
34.682705
 30
0.0
 11
27.730648
 21
34.682705
 31
0.0
  0
LINE
  5
4DB
100
AcDbEntity
  8
HATCH
100
AcDbLine
 10
28.203148
 20
34.682705
 30
0.0
 11
28.203148
 21
34.682705
 31
0.0
  0
LINE
  5
4DC
100
AcDbEntity
  8
HATCH
100
AcDbLine
 10
27.494348
 20
34.210105
 30
0.0
 11
27.494348
 21
34.210105
 31
0.0
  0
LINE
  5
4DD
100
AcDbEntity
  8
HATCH
100
AcDbLine
 10
27.966858
 20
34.210105
 30
0.0
 11
27.966858
 21
34.210105
 31
0.0
  0
LINE
  5
4DE
100
AcDbEntity
  8
HATCH
100
AcDbLine
 10
27.730648
 20
33.737695
 30
0.0
 11
27.730648
 21
33.737695
 31
0.0
  0
LINE
  5
4DF
100
AcDbEntity
  8
HATCH
100
AcDbLine
 10
28.203148
 20
33.737695
 30
0.0
 11
28.203148
 21
33.737695
 31
0.0
  0
LINE
  5
4E0
100
AcDbEntity
  8
HATCH
100
AcDbLine
 10
28.439358
 20
33.265095
 30
0.0
 11
28.439358
 21
33.265095
 31
0.0
  0
LINE
  5
4E1
100
AcDbEntity
  8
HATCH
100
AcDbLine
 10
28.911858
 20
33.265095
 30
0.0
 11
28.911858
 21
33.265095
 31
0.0
  0
LINE
  5
4E2
100
AcDbEntity
  8
HATCH
100
AcDbLine
 10
28.675658
 20
32.792685
 30
0.0
 11
28.675658
 21
32.792685
 31
0.0
  0
LINE
  5
4E3
100
AcDbEntity
  8
HATCH
100
AcDbLine
 10
29.148158
 20
32.792685
 30
0.0
 11
29.148158
 21
32.792685
 31
0.0
  0
LINE
  5
4E4
100
AcDbEntity
  8
HATCH
100
AcDbLine
 10
28.439358
 20
32.320095
 30
0.0
 11
28.439358
 21
32.320095
 31
0.0
  0
LINE
  5
4E5
100
AcDbEntity
  8
HATCH
100
AcDbLine
 10
28.911858
 20
32.320095
 30
0.0
 11
28.911858
 21
32.320095
 31
0.0
  0
LINE
  5
4E6
100
AcDbEntity
  8
HATCH
100
AcDbLine
 10
28.675658
 20
31.847675
 30
0.0
 11
28.675658
 21
31.847675
 31
0.0
  0
LINE
  5
4E7
100
AcDbEntity
  8
HATCH
100
AcDbLine
 10
29.148158
 20
31.847675
 30
0.0
 11
29.148158
 21
31.847675
 31
0.0
  0
LINE
  5
4E8
100
AcDbEntity
  8
HATCH
100
AcDbLine
 10
31.431578
 20
37.218895
 30
0.0
 11
31.490898
 21
37.240505
 31
0.0
  0
LINE
  5
4E9
100
AcDbEntity
  8
HATCH
100
AcDbLine
 10
29.758638
 20
36.960165
 30
0.0
 11
29.794888
 21
37.011615
 31
0.0
  0
LINE
  5
4EA
100
AcDbEntity
  8
HATCH
100
AcDbLine
 10
30.010948
 20
36.143515
 30
0.0
 11
30.021758
 21
36.205585
 31
0.0
  0
LINE
  5
4EB
100
AcDbEntity
  8
HATCH
100
AcDbLine
 10
28.675658
 20
38.462545
 30
0.0
 11
28.675658
 21
38.462545
 31
0.0
  0
LINE
  5
4EC
100
AcDbEntity
  8
HATCH
100
AcDbLine
 10
29.148158
 20
38.462545
 30
0.0
 11
29.148158
 21
38.462545
 31
0.0
  0
LINE
  5
4ED
100
AcDbEntity
  8
HATCH
100
AcDbLine
 10
28.439358
 20
37.990135
 30
0.0
 11
28.439358
 21
37.990135
 31
0.0
  0
LINE
  5
4EE
100
AcDbEntity
  8
HATCH
100
AcDbLine
 10
28.911858
 20
37.990135
 30
0.0
 11
28.911858
 21
37.990135
 31
0.0
  0
LINE
  5
4EF
100
AcDbEntity
  8
HATCH
100
AcDbLine
 10
28.675658
 20
37.517535
 30
0.0
 11
28.675658
 21
37.517535
 31
0.0
  0
LINE
  5
4F0
100
AcDbEntity
  8
HATCH
100
AcDbLine
 10
29.148158
 20
37.517535
 30
0.0
 11
29.148158
 21
37.517535
 31
0.0
  0
LINE
  5
4F1
100
AcDbEntity
  8
HATCH
100
AcDbLine
 10
28.439358
 20
37.045125
 30
0.0
 11
28.439358
 21
37.045125
 31
0.0
  0
LINE
  5
4F2
100
AcDbEntity
  8
HATCH
100
AcDbLine
 10
28.911858
 20
37.045125
 30
0.0
 11
28.911858
 21
37.045125
 31
0.0
  0
LINE
  5
4F3
100
AcDbEntity
  8
HATCH
100
AcDbLine
 10
28.675658
 20
36.572535
 30
0.0
 11
28.675658
 21
36.572535
 31
0.0
  0
LINE
  5
4F4
100
AcDbEntity
  8
HATCH
100
AcDbLine
 10
29.148158
 20
36.572535
 30
0.0
 11
29.148158
 21
36.572535
 31
0.0
  0
LINE
  5
4F5
100
AcDbEntity
  8
HATCH
100
AcDbLine
 10
28.439358
 20
36.100125
 30
0.0
 11
28.439358
 21
36.100125
 31
0.0
  0
LINE
  5
4F6
100
AcDbEntity
  8
HATCH
100
AcDbLine
 10
28.911858
 20
36.100125
 30
0.0
 11
28.911858
 21
36.100125
 31
0.0
  0
LINE
  5
4F7
100
AcDbEntity
  8
HATCH
100
AcDbLine
 10
28.675658
 20
35.627525
 30
0.0
 11
28.675658
 21
35.627525
 31
0.0
  0
LINE
  5
4F8
100
AcDbEntity
  8
HATCH
100
AcDbLine
 10
29.148158
 20
35.627525
 30
0.0
 11
29.148158
 21
35.627525
 31
0.0
  0
LINE
  5
4F9
100
AcDbEntity
  8
HATCH
100
AcDbLine
 10
28.439358
 20
35.155115
 30
0.0
 11
28.439358
 21
35.155115
 31
0.0
  0
LINE
  5
4FA
100
AcDbEntity
  8
HATCH
100
AcDbLine
 10
28.911858
 20
35.155115
 30
0.0
 11
28.911858
 21
35.155115
 31
0.0
  0
LINE
  5
4FB
100
AcDbEntity
  8
HATCH
100
AcDbLine
 10
28.675658
 20
34.682705
 30
0.0
 11
28.675658
 21
34.682705
 31
0.0
  0
LINE
  5
4FC
100
AcDbEntity
  8
HATCH
100
AcDbLine
 10
29.148158
 20
34.682705
 30
0.0
 11
29.148158
 21
34.682705
 31
0.0
  0
LINE
  5
4FD
100
AcDbEntity
  8
HATCH
100
AcDbLine
 10
28.439358
 20
34.210105
 30
0.0
 11
28.439358
 21
34.210105
 31
0.0
  0
LINE
  5
4FE
100
AcDbEntity
  8
HATCH
100
AcDbLine
 10
28.911858
 20
34.210105
 30
0.0
 11
28.911858
 21
34.210105
 31
0.0
  0
LINE
  5
4FF
100
AcDbEntity
  8
HATCH
100
AcDbLine
 10
28.675658
 20
33.737695
 30
0.0
 11
28.675658
 21
33.737695
 31
0.0
  0
LINE
  5
500
100
AcDbEntity
  8
HATCH
100
AcDbLine
 10
29.148158
 20
33.737695
 30
0.0
 11
29.148158
 21
33.737695
 31
0.0
  0
LINE
  5
501
100
AcDbEntity
  8
HATCH
100
AcDbLine
 10
30.234528
 20
35.159145
 30
0.0
 11
30.293668
 21
35.180745
 31
0.0
  0
LINE
  5
502
100
AcDbEntity
  8
HATCH
100
AcDbLine
 10
31.096398
 20
32.791225
 30
0.0
 11
31.155548
 21
32.812645
 31
0.0
  0
LINE
  5
503
100
AcDbEntity
  8
HATCH
100
AcDbLine
 10
30.216028
 20
33.887105
 30
0.0
 11
30.252198
 21
33.938745
 31
0.0
  0
LINE
  5
504
100
AcDbEntity
  8
HATCH
100
AcDbLine
 10
31.661378
 20
35.951435
 30
0.0
 11
31.697538
 21
36.003075
 31
0.0
  0
LINE
  5
505
100
AcDbEntity
  8
HATCH
100
AcDbLine
 10
31.678678
 20
33.333765
 30
0.0
 11
31.689568
 21
33.395655
 31
0.0
  0
LINE
  5
506
100
AcDbEntity
  8
HATCH
100
AcDbLine
 10
27.494348
 20
45.550195
 30
0.0
 11
27.494348
 21
45.550195
 31
0.0
  0
LINE
  5
507
100
AcDbEntity
  8
HATCH
100
AcDbLine
 10
27.966858
 20
45.550195
 30
0.0
 11
27.966858
 21
45.550195
 31
0.0
  0
LINE
  5
508
100
AcDbEntity
  8
HATCH
100
AcDbLine
 10
27.730648
 20
45.077595
 30
0.0
 11
27.730648
 21
45.077595
 31
0.0
  0
LINE
  5
509
100
AcDbEntity
  8
HATCH
100
AcDbLine
 10
28.203148
 20
45.077595
 30
0.0
 11
28.203148
 21
45.077595
 31
0.0
  0
LINE
  5
50A
100
AcDbEntity
  8
HATCH
100
AcDbLine
 10
27.494348
 20
44.605185
 30
0.0
 11
27.494348
 21
44.605185
 31
0.0
  0
LINE
  5
50B
100
AcDbEntity
  8
HATCH
100
AcDbLine
 10
27.966858
 20
44.605185
 30
0.0
 11
27.966858
 21
44.605185
 31
0.0
  0
LINE
  5
50C
100
AcDbEntity
  8
HATCH
100
AcDbLine
 10
27.730648
 20
44.132595
 30
0.0
 11
27.730648
 21
44.132595
 31
0.0
  0
LINE
  5
50D
100
AcDbEntity
  8
HATCH
100
AcDbLine
 10
28.203148
 20
44.132595
 30
0.0
 11
28.203148
 21
44.132595
 31
0.0
  0
LINE
  5
50E
100
AcDbEntity
  8
HATCH
100
AcDbLine
 10
27.494348
 20
43.660175
 30
0.0
 11
27.494348
 21
43.660175
 31
0.0
  0
LINE
  5
50F
100
AcDbEntity
  8
HATCH
100
AcDbLine
 10
27.966858
 20
43.660175
 30
0.0
 11
27.966858
 21
43.660175
 31
0.0
  0
LINE
  5
510
100
AcDbEntity
  8
HATCH
100
AcDbLine
 10
27.730648
 20
43.187585
 30
0.0
 11
27.730648
 21
43.187585
 31
0.0
  0
LINE
  5
511
100
AcDbEntity
  8
HATCH
100
AcDbLine
 10
28.203148
 20
43.187585
 30
0.0
 11
28.203148
 21
43.187585
 31
0.0
  0
LINE
  5
512
100
AcDbEntity
  8
HATCH
100
AcDbLine
 10
27.494348
 20
42.715175
 30
0.0
 11
27.494348
 21
42.715175
 31
0.0
  0
LINE
  5
513
100
AcDbEntity
  8
HATCH
100
AcDbLine
 10
27.966858
 20
42.715175
 30
0.0
 11
27.966858
 21
42.715175
 31
0.0
  0
LINE
  5
514
100
AcDbEntity
  8
HATCH
100
AcDbLine
 10
27.730648
 20
42.242575
 30
0.0
 11
27.730648
 21
42.242575
 31
0.0
  0
LINE
  5
515
100
AcDbEntity
  8
HATCH
100
AcDbLine
 10
28.203148
 20
42.242575
 30
0.0
 11
28.203148
 21
42.242575
 31
0.0
  0
LINE
  5
516
100
AcDbEntity
  8
HATCH
100
AcDbLine
 10
27.494348
 20
41.770165
 30
0.0
 11
27.494348
 21
41.770165
 31
0.0
  0
LINE
  5
517
100
AcDbEntity
  8
HATCH
100
AcDbLine
 10
27.966858
 20
41.770165
 30
0.0
 11
27.966858
 21
41.770165
 31
0.0
  0
LINE
  5
518
100
AcDbEntity
  8
HATCH
100
AcDbLine
 10
27.730648
 20
41.297565
 30
0.0
 11
27.730648
 21
41.297565
 31
0.0
  0
LINE
  5
519
100
AcDbEntity
  8
HATCH
100
AcDbLine
 10
28.203148
 20
41.297565
 30
0.0
 11
28.203148
 21
41.297565
 31
0.0
  0
LINE
  5
51A
100
AcDbEntity
  8
HATCH
100
AcDbLine
 10
27.494348
 20
40.825155
 30
0.0
 11
27.494348
 21
40.825155
 31
0.0
  0
LINE
  5
51B
100
AcDbEntity
  8
HATCH
100
AcDbLine
 10
27.966858
 20
40.825155
 30
0.0
 11
27.966858
 21
40.825155
 31
0.0
  0
LINE
  5
51C
100
AcDbEntity
  8
HATCH
100
AcDbLine
 10
27.730648
 20
40.352565
 30
0.0
 11
27.730648
 21
40.352565
 31
0.0
  0
LINE
  5
51D
100
AcDbEntity
  8
HATCH
100
AcDbLine
 10
28.203148
 20
40.352565
 30
0.0
 11
28.203148
 21
40.352565
 31
0.0
  0
LINE
  5
51E
100
AcDbEntity
  8
HATCH
100
AcDbLine
 10
27.494348
 20
39.880145
 30
0.0
 11
27.494348
 21
39.880145
 31
0.0
  0
LINE
  5
51F
100
AcDbEntity
  8
HATCH
100
AcDbLine
 10
27.966858
 20
39.880145
 30
0.0
 11
27.966858
 21
39.880145
 31
0.0
  0
LINE
  5
520
100
AcDbEntity
  8
HATCH
100
AcDbLine
 10
27.730648
 20
39.407555
 30
0.0
 11
27.730648
 21
39.407555
 31
0.0
  0
LINE
  5
521
100
AcDbEntity
  8
HATCH
100
AcDbLine
 10
28.203148
 20
39.407555
 30
0.0
 11
28.203148
 21
39.407555
 31
0.0
  0
LINE
  5
522
100
AcDbEntity
  8
HATCH
100
AcDbLine
 10
27.494348
 20
38.935145
 30
0.0
 11
27.494348
 21
38.935145
 31
0.0
  0
LINE
  5
523
100
AcDbEntity
  8
HATCH
100
AcDbLine
 10
27.966858
 20
38.935145
 30
0.0
 11
27.966858
 21
38.935145
 31
0.0
  0
LINE
  5
524
100
AcDbEntity
  8
HATCH
100
AcDbLine
 10
31.214318
 20
45.185085
 30
0.0
 11
31.273648
 21
45.206505
 31
0.0
  0
LINE
  5
525
100
AcDbEntity
  8
HATCH
100
AcDbLine
 10
29.708008
 20
41.955105
 30
0.0
 11
29.767328
 21
41.976525
 31
0.0
  0
LINE
  5
526
100
AcDbEntity
  8
HATCH
100
AcDbLine
 10
30.569788
 20
39.586995
 30
0.0
 11
30.629118
 21
39.608605
 31
0.0
  0
LINE
  5
527
100
AcDbEntity
  8
HATCH
100
AcDbLine
 10
30.585538
 20
42.533895
 30
0.0
 11
30.621698
 21
42.585535
 31
0.0
  0
LINE
  5
528
100
AcDbEntity
  8
HATCH
100
AcDbLine
 10
31.204248
 20
39.024315
 30
0.0
 11
31.240418
 21
39.075955
 31
0.0
  0
LINE
  5
529
100
AcDbEntity
  8
HATCH
100
AcDbLine
 10
30.886018
 20
41.106955
 30
0.0
 11
30.896818
 21
41.169025
 31
0.0
  0
LINE
  5
52A
100
AcDbEntity
  8
HATCH
100
AcDbLine
 10
31.323548
 20
43.588765
 30
0.0
 11
31.334438
 21
43.650845
 31
0.0
  0
LINE
  5
52B
100
AcDbEntity
  8
HATCH
100
AcDbLine
 10
28.439358
 20
45.550195
 30
0.0
 11
28.439358
 21
45.550195
 31
0.0
  0
LINE
  5
52C
100
AcDbEntity
  8
HATCH
100
AcDbLine
 10
28.911858
 20
45.550195
 30
0.0
 11
28.911858
 21
45.550195
 31
0.0
  0
LINE
  5
52D
100
AcDbEntity
  8
HATCH
100
AcDbLine
 10
28.675658
 20
45.077595
 30
0.0
 11
28.675658
 21
45.077595
 31
0.0
  0
LINE
  5
52E
100
AcDbEntity
  8
HATCH
100
AcDbLine
 10
29.148158
 20
45.077595
 30
0.0
 11
29.148158
 21
45.077595
 31
0.0
  0
LINE
  5
52F
100
AcDbEntity
  8
HATCH
100
AcDbLine
 10
28.439358
 20
44.605185
 30
0.0
 11
28.439358
 21
44.605185
 31
0.0
  0
LINE
  5
530
100
AcDbEntity
  8
HATCH
100
AcDbLine
 10
28.911858
 20
44.605185
 30
0.0
 11
28.911858
 21
44.605185
 31
0.0
  0
LINE
  5
531
100
AcDbEntity
  8
HATCH
100
AcDbLine
 10
28.675658
 20
44.132595
 30
0.0
 11
28.675658
 21
44.132595
 31
0.0
  0
LINE
  5
532
100
AcDbEntity
  8
HATCH
100
AcDbLine
 10
29.148158
 20
44.132595
 30
0.0
 11
29.148158
 21
44.132595
 31
0.0
  0
LINE
  5
533
100
AcDbEntity
  8
HATCH
100
AcDbLine
 10
28.439358
 20
43.660175
 30
0.0
 11
28.439358
 21
43.660175
 31
0.0
  0
LINE
  5
534
100
AcDbEntity
  8
HATCH
100
AcDbLine
 10
28.911858
 20
43.660175
 30
0.0
 11
28.911858
 21
43.660175
 31
0.0
  0
LINE
  5
535
100
AcDbEntity
  8
HATCH
100
AcDbLine
 10
28.675658
 20
43.187585
 30
0.0
 11
28.675658
 21
43.187585
 31
0.0
  0
LINE
  5
536
100
AcDbEntity
  8
HATCH
100
AcDbLine
 10
29.148158
 20
43.187585
 30
0.0
 11
29.148158
 21
43.187585
 31
0.0
  0
LINE
  5
537
100
AcDbEntity
  8
HATCH
100
AcDbLine
 10
28.439358
 20
42.715175
 30
0.0
 11
28.439358
 21
42.715175
 31
0.0
  0
LINE
  5
538
100
AcDbEntity
  8
HATCH
100
AcDbLine
 10
28.911858
 20
42.715175
 30
0.0
 11
28.911858
 21
42.715175
 31
0.0
  0
LINE
  5
539
100
AcDbEntity
  8
HATCH
100
AcDbLine
 10
28.675658
 20
42.242575
 30
0.0
 11
28.675658
 21
42.242575
 31
0.0
  0
LINE
  5
53A
100
AcDbEntity
  8
HATCH
100
AcDbLine
 10
29.148158
 20
42.242575
 30
0.0
 11
29.148158
 21
42.242575
 31
0.0
  0
LINE
  5
53B
100
AcDbEntity
  8
HATCH
100
AcDbLine
 10
28.439358
 20
41.770165
 30
0.0
 11
28.439358
 21
41.770165
 31
0.0
  0
LINE
  5
53C
100
AcDbEntity
  8
HATCH
100
AcDbLine
 10
28.911858
 20
41.770165
 30
0.0
 11
28.911858
 21
41.770165
 31
0.0
  0
LINE
  5
53D
100
AcDbEntity
  8
HATCH
100
AcDbLine
 10
28.675658
 20
41.297565
 30
0.0
 11
28.675658
 21
41.297565
 31
0.0
  0
LINE
  5
53E
100
AcDbEntity
  8
HATCH
100
AcDbLine
 10
29.148158
 20
41.297565
 30
0.0
 11
29.148158
 21
41.297565
 31
0.0
  0
LINE
  5
53F
100
AcDbEntity
  8
HATCH
100
AcDbLine
 10
28.439358
 20
40.825155
 30
0.0
 11
28.439358
 21
40.825155
 31
0.0
  0
LINE
  5
540
100
AcDbEntity
  8
HATCH
100
AcDbLine
 10
28.911858
 20
40.825155
 30
0.0
 11
28.911858
 21
40.825155
 31
0.0
  0
LINE
  5
541
100
AcDbEntity
  8
HATCH
100
AcDbLine
 10
28.675658
 20
40.352565
 30
0.0
 11
28.675658
 21
40.352565
 31
0.0
  0
LINE
  5
542
100
AcDbEntity
  8
HATCH
100
AcDbLine
 10
29.148158
 20
40.352565
 30
0.0
 11
29.148158
 21
40.352565
 31
0.0
  0
LINE
  5
543
100
AcDbEntity
  8
HATCH
100
AcDbLine
 10
28.439358
 20
39.880145
 30
0.0
 11
28.439358
 21
39.880145
 31
0.0
  0
LINE
  5
544
100
AcDbEntity
  8
HATCH
100
AcDbLine
 10
28.911858
 20
39.880145
 30
0.0
 11
28.911858
 21
39.880145
 31
0.0
  0
LINE
  5
545
100
AcDbEntity
  8
HATCH
100
AcDbLine
 10
28.675658
 20
39.407555
 30
0.0
 11
28.675658
 21
39.407555
 31
0.0
  0
LINE
  5
546
100
AcDbEntity
  8
HATCH
100
AcDbLine
 10
29.148158
 20
39.407555
 30
0.0
 11
29.148158
 21
39.407555
 31
0.0
  0
LINE
  5
547
100
AcDbEntity
  8
HATCH
100
AcDbLine
 10
28.439358
 20
38.935145
 30
0.0
 11
28.439358
 21
38.935145
 31
0.0
  0
LINE
  5
548
100
AcDbEntity
  8
HATCH
100
AcDbLine
 10
28.911858
 20
38.935145
 30
0.0
 11
28.911858
 21
38.935145
 31
0.0
  0
LINE
  5
549
100
AcDbEntity
  8
DIM_TEXT
100
AcDbLine
 10
35.860348
 20
47.521975
 30
0.0
 11
35.860348
 21
43.961725
 31
0.0
  0
LINE
  5
54A
100
AcDbEntity
  8
HATCH
100
AcDbLine
 10
33.799768
 20
38.080955
 30
0.0
 11
33.859098
 21
38.102375
 31
0.0
  0
LINE
  5
54B
100
AcDbEntity
  8
HATCH
100
AcDbLine
 10
34.661378
 20
35.712855
 30
0.0
 11
34.720698
 21
35.734455
 31
0.0
  0
LINE
  5
54C
100
AcDbEntity
  8
HATCH
100
AcDbLine
 10
33.268488
 20
37.578875
 30
0.0
 11
33.304658
 21
37.630515
 31
0.0
  0
LINE
  5
54D
100
AcDbEntity
  8
HATCH
100
AcDbLine
 10
35.332458
 20
36.133625
 30
0.0
 11
35.368618
 21
36.185265
 31
0.0
  0
LINE
  5
54E
100
AcDbEntity
  8
HATCH
100
AcDbLine
 10
32.929838
 20
38.187705
 30
0.0
 11
32.940638
 21
38.249775
 31
0.0
  0
LINE
  5
54F
100
AcDbEntity
  8
HATCH
100
AcDbLine
 10
34.973938
 20
35.268455
 30
0.0
 11
34.984738
 21
35.330525
 31
0.0
  0
LINE
  5
550
100
AcDbEntity
  8
HATCH
100
AcDbLine
 10
35.411468
 20
37.750085
 30
0.0
 11
35.422268
 21
37.812155
 31
0.0
  0
LINE
  5
551
100
AcDbEntity
  8
HATCH
100
AcDbLine
 10
32.602538
 20
36.021015
 30
0.0
 11
32.661678
 21
36.042625
 31
0.0
  0
LINE
  5
552
100
AcDbEntity
  8
HATCH
100
AcDbLine
 10
33.464418
 20
33.653095
 30
0.0
 11
33.523558
 21
33.674525
 31
0.0
  0
LINE
  5
553
100
AcDbEntity
  8
HATCH
100
AcDbLine
 10
32.280268
 20
32.441675
 30
0.0
 11
32.316438
 21
32.493305
 31
0.0
  0
LINE
  5
554
100
AcDbEntity
  8
HATCH
100
AcDbLine
 10
33.725618
 20
34.506005
 30
0.0
 11
33.761778
 21
34.557635
 31
0.0
  0
LINE
  5
555
100
AcDbEntity
  8
HATCH
100
AcDbLine
 10
32.116208
 20
35.815395
 30
0.0
 11
32.127198
 21
35.877465
 31
0.0
  0
LINE
  5
556
100
AcDbEntity
  8
HATCH
100
AcDbLine
 10
34.160398
 20
32.896145
 30
0.0
 11
34.171288
 21
32.958035
 31
0.0
  0
LINE
  5
557
100
AcDbEntity
  8
HATCH
100
AcDbLine
 10
34.598018
 20
35.377765
 30
0.0
 11
34.599848
 21
35.388935
 31
0.0
  0
LINE
  5
558
100
AcDbEntity
  8
DIM_TEXT
100
AcDbLine
 10
36.235348
 20
44.336725
 30
0.0
 11
35.485348
 21
43.586725
 31
0.0
  0
LINE
  5
559
100
AcDbEntity
  8
DRAWING
100
AcDbLine
 10
37.360258
 20
33.402065
 30
0.0
 11
35.470238
 21
33.402065
 31
0.0
  0
LINE
  5
55A
100
AcDbEntity
  8
HATCH
100
AcDbLine
 10
35.526818
 20
33.265095
 30
0.0
 11
35.526818
 21
33.265095
 31
0.0
  0
LINE
  5
55B
100
AcDbEntity
  8
HATCH
100
AcDbLine
 10
35.999328
 20
33.265095
 30
0.0
 11
35.999328
 21
33.265095
 31
0.0
  0
LINE
  5
55C
100
AcDbEntity
  8
HATCH
100
AcDbLine
 10
36.471828
 20
33.265095
 30
0.0
 11
36.471828
 21
33.265095
 31
0.0
  0
LINE
  5
55D
100
AcDbEntity
  8
HATCH
100
AcDbLine
 10
36.944328
 20
33.265095
 30
0.0
 11
36.944328
 21
33.265095
 31
0.0
  0
LINE
  5
55E
100
AcDbEntity
  8
HATCH
100
AcDbLine
 10
35.763118
 20
32.792685
 30
0.0
 11
35.763118
 21
32.792685
 31
0.0
  0
LINE
  5
55F
100
AcDbEntity
  8
HATCH
100
AcDbLine
 10
36.235628
 20
32.792685
 30
0.0
 11
36.235628
 21
32.792685
 31
0.0
  0
LINE
  5
560
100
AcDbEntity
  8
HATCH
100
AcDbLine
 10
36.708128
 20
32.792685
 30
0.0
 11
36.708128
 21
32.792685
 31
0.0
  0
LINE
  5
561
100
AcDbEntity
  8
HATCH
100
AcDbLine
 10
37.180628
 20
32.792685
 30
0.0
 11
37.180628
 21
32.792685
 31
0.0
  0
LINE
  5
562
100
AcDbEntity
  8
HATCH
100
AcDbLine
 10
35.526818
 20
32.320095
 30
0.0
 11
35.526818
 21
32.320095
 31
0.0
  0
LINE
  5
563
100
AcDbEntity
  8
HATCH
100
AcDbLine
 10
35.999328
 20
32.320095
 30
0.0
 11
35.999328
 21
32.320095
 31
0.0
  0
LINE
  5
564
100
AcDbEntity
  8
HATCH
100
AcDbLine
 10
36.471828
 20
32.320095
 30
0.0
 11
36.471828
 21
32.320095
 31
0.0
  0
LINE
  5
565
100
AcDbEntity
  8
HATCH
100
AcDbLine
 10
36.944328
 20
32.320095
 30
0.0
 11
36.944328
 21
32.320095
 31
0.0
  0
LINE
  5
566
100
AcDbEntity
  8
HATCH
100
AcDbLine
 10
35.763118
 20
31.847675
 30
0.0
 11
35.763118
 21
31.847675
 31
0.0
  0
LINE
  5
567
100
AcDbEntity
  8
HATCH
100
AcDbLine
 10
36.235628
 20
31.847675
 30
0.0
 11
36.235628
 21
31.847675
 31
0.0
  0
LINE
  5
568
100
AcDbEntity
  8
HATCH
100
AcDbLine
 10
36.708128
 20
31.847675
 30
0.0
 11
36.708128
 21
31.847675
 31
0.0
  0
LINE
  5
569
100
AcDbEntity
  8
HATCH
100
AcDbLine
 10
37.180628
 20
31.847675
 30
0.0
 11
37.180628
 21
31.847675
 31
0.0
  0
LINE
  5
56A
100
AcDbEntity
  8
DRAWING
100
AcDbLine
 10
35.470238
 20
33.402065
 30
0.0
 11
37.360258
 21
33.402065
 31
0.0
  0
LINE
  5
56B
100
AcDbEntity
  8
HATCH
100
AcDbLine
 10
35.763118
 20
38.462545
 30
0.0
 11
35.763118
 21
38.462545
 31
0.0
  0
LINE
  5
56C
100
AcDbEntity
  8
HATCH
100
AcDbLine
 10
36.235628
 20
38.462545
 30
0.0
 11
36.235628
 21
38.462545
 31
0.0
  0
LINE
  5
56D
100
AcDbEntity
  8
HATCH
100
AcDbLine
 10
36.708128
 20
38.462545
 30
0.0
 11
36.708128
 21
38.462545
 31
0.0
  0
LINE
  5
56E
100
AcDbEntity
  8
HATCH
100
AcDbLine
 10
37.180628
 20
38.462545
 30
0.0
 11
37.180628
 21
38.462545
 31
0.0
  0
LINE
  5
56F
100
AcDbEntity
  8
HATCH
100
AcDbLine
 10
35.526818
 20
37.990135
 30
0.0
 11
35.526818
 21
37.990135
 31
0.0
  0
LINE
  5
570
100
AcDbEntity
  8
HATCH
100
AcDbLine
 10
35.999328
 20
37.990135
 30
0.0
 11
35.999328
 21
37.990135
 31
0.0
  0
LINE
  5
571
100
AcDbEntity
  8
HATCH
100
AcDbLine
 10
36.471828
 20
37.990135
 30
0.0
 11
36.471828
 21
37.990135
 31
0.0
  0
LINE
  5
572
100
AcDbEntity
  8
HATCH
100
AcDbLine
 10
36.944328
 20
37.990135
 30
0.0
 11
36.944328
 21
37.990135
 31
0.0
  0
LINE
  5
573
100
AcDbEntity
  8
HATCH
100
AcDbLine
 10
35.763118
 20
37.517535
 30
0.0
 11
35.763118
 21
37.517535
 31
0.0
  0
LINE
  5
574
100
AcDbEntity
  8
HATCH
100
AcDbLine
 10
36.235628
 20
37.517535
 30
0.0
 11
36.235628
 21
37.517535
 31
0.0
  0
LINE
  5
575
100
AcDbEntity
  8
HATCH
100
AcDbLine
 10
36.708128
 20
37.517535
 30
0.0
 11
36.708128
 21
37.517535
 31
0.0
  0
LINE
  5
576
100
AcDbEntity
  8
HATCH
100
AcDbLine
 10
37.180628
 20
37.517535
 30
0.0
 11
37.180628
 21
37.517535
 31
0.0
  0
LINE
  5
577
100
AcDbEntity
  8
HATCH
100
AcDbLine
 10
35.526818
 20
37.045125
 30
0.0
 11
35.526818
 21
37.045125
 31
0.0
  0
LINE
  5
578
100
AcDbEntity
  8
HATCH
100
AcDbLine
 10
35.999328
 20
37.045125
 30
0.0
 11
35.999328
 21
37.045125
 31
0.0
  0
LINE
  5
579
100
AcDbEntity
  8
HATCH
100
AcDbLine
 10
36.471828
 20
37.045125
 30
0.0
 11
36.471828
 21
37.045125
 31
0.0
  0
LINE
  5
57A
100
AcDbEntity
  8
HATCH
100
AcDbLine
 10
36.944328
 20
37.045125
 30
0.0
 11
36.944328
 21
37.045125
 31
0.0
  0
LINE
  5
57B
100
AcDbEntity
  8
HATCH
100
AcDbLine
 10
35.763118
 20
36.572535
 30
0.0
 11
35.763118
 21
36.572535
 31
0.0
  0
LINE
  5
57C
100
AcDbEntity
  8
HATCH
100
AcDbLine
 10
36.235628
 20
36.572535
 30
0.0
 11
36.235628
 21
36.572535
 31
0.0
  0
LINE
  5
57D
100
AcDbEntity
  8
HATCH
100
AcDbLine
 10
36.708128
 20
36.572535
 30
0.0
 11
36.708128
 21
36.572535
 31
0.0
  0
LINE
  5
57E
100
AcDbEntity
  8
HATCH
100
AcDbLine
 10
37.180628
 20
36.572535
 30
0.0
 11
37.180628
 21
36.572535
 31
0.0
  0
LINE
  5
57F
100
AcDbEntity
  8
HATCH
100
AcDbLine
 10
35.526818
 20
36.100125
 30
0.0
 11
35.526818
 21
36.100125
 31
0.0
  0
LINE
  5
580
100
AcDbEntity
  8
HATCH
100
AcDbLine
 10
35.999328
 20
36.100125
 30
0.0
 11
35.999328
 21
36.100125
 31
0.0
  0
LINE
  5
581
100
AcDbEntity
  8
HATCH
100
AcDbLine
 10
36.471828
 20
36.100125
 30
0.0
 11
36.471828
 21
36.100125
 31
0.0
  0
LINE
  5
582
100
AcDbEntity
  8
HATCH
100
AcDbLine
 10
36.944328
 20
36.100125
 30
0.0
 11
36.944328
 21
36.100125
 31
0.0
  0
LINE
  5
583
100
AcDbEntity
  8
HATCH
100
AcDbLine
 10
35.763118
 20
35.627525
 30
0.0
 11
35.763118
 21
35.627525
 31
0.0
  0
LINE
  5
584
100
AcDbEntity
  8
HATCH
100
AcDbLine
 10
36.235628
 20
35.627525
 30
0.0
 11
36.235628
 21
35.627525
 31
0.0
  0
LINE
  5
585
100
AcDbEntity
  8
HATCH
100
AcDbLine
 10
36.708128
 20
35.627525
 30
0.0
 11
36.708128
 21
35.627525
 31
0.0
  0
LINE
  5
586
100
AcDbEntity
  8
HATCH
100
AcDbLine
 10
37.180628
 20
35.627525
 30
0.0
 11
37.180628
 21
35.627525
 31
0.0
  0
LINE
  5
587
100
AcDbEntity
  8
HATCH
100
AcDbLine
 10
35.526818
 20
35.155115
 30
0.0
 11
35.526818
 21
35.155115
 31
0.0
  0
LINE
  5
588
100
AcDbEntity
  8
HATCH
100
AcDbLine
 10
35.999328
 20
35.155115
 30
0.0
 11
35.999328
 21
35.155115
 31
0.0
  0
LINE
  5
589
100
AcDbEntity
  8
HATCH
100
AcDbLine
 10
36.471828
 20
35.155115
 30
0.0
 11
36.471828
 21
35.155115
 31
0.0
  0
LINE
  5
58A
100
AcDbEntity
  8
HATCH
100
AcDbLine
 10
36.944328
 20
35.155115
 30
0.0
 11
36.944328
 21
35.155115
 31
0.0
  0
LINE
  5
58B
100
AcDbEntity
  8
HATCH
100
AcDbLine
 10
35.763118
 20
34.682705
 30
0.0
 11
35.763118
 21
34.682705
 31
0.0
  0
LINE
  5
58C
100
AcDbEntity
  8
HATCH
100
AcDbLine
 10
36.235628
 20
34.682705
 30
0.0
 11
36.235628
 21
34.682705
 31
0.0
  0
LINE
  5
58D
100
AcDbEntity
  8
HATCH
100
AcDbLine
 10
36.708128
 20
34.682705
 30
0.0
 11
36.708128
 21
34.682705
 31
0.0
  0
LINE
  5
58E
100
AcDbEntity
  8
HATCH
100
AcDbLine
 10
37.180628
 20
34.682705
 30
0.0
 11
37.180628
 21
34.682705
 31
0.0
  0
LINE
  5
58F
100
AcDbEntity
  8
HATCH
100
AcDbLine
 10
35.526818
 20
34.210105
 30
0.0
 11
35.526818
 21
34.210105
 31
0.0
  0
LINE
  5
590
100
AcDbEntity
  8
HATCH
100
AcDbLine
 10
35.999328
 20
34.210105
 30
0.0
 11
35.999328
 21
34.210105
 31
0.0
  0
LINE
  5
591
100
AcDbEntity
  8
HATCH
100
AcDbLine
 10
36.471828
 20
34.210105
 30
0.0
 11
36.471828
 21
34.210105
 31
0.0
  0
LINE
  5
592
100
AcDbEntity
  8
HATCH
100
AcDbLine
 10
36.944328
 20
34.210105
 30
0.0
 11
36.944328
 21
34.210105
 31
0.0
  0
LINE
  5
593
100
AcDbEntity
  8
HATCH
100
AcDbLine
 10
35.763118
 20
33.737695
 30
0.0
 11
35.763118
 21
33.737695
 31
0.0
  0
LINE
  5
594
100
AcDbEntity
  8
HATCH
100
AcDbLine
 10
36.235628
 20
33.737695
 30
0.0
 11
36.235628
 21
33.737695
 31
0.0
  0
LINE
  5
595
100
AcDbEntity
  8
HATCH
100
AcDbLine
 10
36.708128
 20
33.737695
 30
0.0
 11
36.708128
 21
33.737695
 31
0.0
  0
LINE
  5
596
100
AcDbEntity
  8
HATCH
100
AcDbLine
 10
37.180628
 20
33.737695
 30
0.0
 11
37.180628
 21
33.737695
 31
0.0
  0
LINE
  5
597
100
AcDbEntity
  8
HATCH
100
AcDbLine
 10
32.076108
 20
42.816975
 30
0.0
 11
32.135438
 21
42.838405
 31
0.0
  0
LINE
  5
598
100
AcDbEntity
  8
HATCH
100
AcDbLine
 10
34.444298
 20
43.678855
 30
0.0
 11
34.503628
 21
43.700275
 31
0.0
  0
LINE
  5
599
100
AcDbEntity
  8
HATCH
100
AcDbLine
 10
32.937988
 20
40.448875
 30
0.0
 11
32.997308
 21
40.470485
 31
0.0
  0
LINE
  5
59A
100
AcDbEntity
  8
HATCH
100
AcDbLine
 10
35.306088
 20
41.310755
 30
0.0
 11
35.365418
 21
41.332355
 31
0.0
  0
LINE
  5
59B
100
AcDbEntity
  8
HATCH
100
AcDbLine
 10
32.031068
 20
44.598225
 30
0.0
 11
32.067318
 21
44.649865
 31
0.0
  0
LINE
  5
59C
100
AcDbEntity
  8
HATCH
100
AcDbLine
 10
32.649778
 20
41.088645
 30
0.0
 11
32.685938
 21
41.140285
 31
0.0
  0
LINE
  5
59D
100
AcDbEntity
  8
HATCH
100
AcDbLine
 10
34.095308
 20
43.152975
 30
0.0
 11
34.131558
 21
43.204425
 31
0.0
  0
LINE
  5
59E
100
AcDbEntity
  8
HATCH
100
AcDbLine
 10
34.714018
 20
39.643215
 30
0.0
 11
34.750178
 21
39.694845
 31
0.0
  0
LINE
  5
59F
100
AcDbEntity
  8
HATCH
100
AcDbLine
 10
33.367368
 20
40.669515
 30
0.0
 11
33.378258
 21
40.731405
 31
0.0
  0
LINE
  5
5A0
100
AcDbEntity
  8
HATCH
100
AcDbLine
 10
33.804988
 20
43.151145
 30
0.0
 11
33.815788
 21
43.213215
 31
0.0
  0
LINE
  5
5A1
100
AcDbEntity
  8
HATCH
100
AcDbLine
 10
35.526818
 20
45.550195
 30
0.0
 11
35.526818
 21
45.550195
 31
0.0
  0
LINE
  5
5A2
100
AcDbEntity
  8
HATCH
100
AcDbLine
 10
35.999328
 20
45.550195
 30
0.0
 11
35.999328
 21
45.550195
 31
0.0
  0
LINE
  5
5A3
100
AcDbEntity
  8
HATCH
100
AcDbLine
 10
36.471828
 20
45.550195
 30
0.0
 11
36.471828
 21
45.550195
 31
0.0
  0
LINE
  5
5A4
100
AcDbEntity
  8
HATCH
100
AcDbLine
 10
36.944328
 20
45.550195
 30
0.0
 11
36.944328
 21
45.550195
 31
0.0
  0
LINE
  5
5A5
100
AcDbEntity
  8
HATCH
100
AcDbLine
 10
35.763118
 20
45.077595
 30
0.0
 11
35.763118
 21
45.077595
 31
0.0
  0
LINE
  5
5A6
100
AcDbEntity
  8
HATCH
100
AcDbLine
 10
36.235628
 20
45.077595
 30
0.0
 11
36.235628
 21
45.077595
 31
0.0
  0
LINE
  5
5A7
100
AcDbEntity
  8
HATCH
100
AcDbLine
 10
36.708128
 20
45.077595
 30
0.0
 11
36.708128
 21
45.077595
 31
0.0
  0
LINE
  5
5A8
100
AcDbEntity
  8
HATCH
100
AcDbLine
 10
37.180628
 20
45.077595
 30
0.0
 11
37.180628
 21
45.077595
 31
0.0
  0
LINE
  5
5A9
100
AcDbEntity
  8
HATCH
100
AcDbLine
 10
35.526818
 20
44.605185
 30
0.0
 11
35.526818
 21
44.605185
 31
0.0
  0
LINE
  5
5AA
100
AcDbEntity
  8
HATCH
100
AcDbLine
 10
35.999328
 20
44.605185
 30
0.0
 11
35.999328
 21
44.605185
 31
0.0
  0
LINE
  5
5AB
100
AcDbEntity
  8
HATCH
100
AcDbLine
 10
36.471828
 20
44.605185
 30
0.0
 11
36.471828
 21
44.605185
 31
0.0
  0
LINE
  5
5AC
100
AcDbEntity
  8
HATCH
100
AcDbLine
 10
36.944328
 20
44.605185
 30
0.0
 11
36.944328
 21
44.605185
 31
0.0
  0
LINE
  5
5AD
100
AcDbEntity
  8
HATCH
100
AcDbLine
 10
35.763118
 20
44.132595
 30
0.0
 11
35.763118
 21
44.132595
 31
0.0
  0
LINE
  5
5AE
100
AcDbEntity
  8
HATCH
100
AcDbLine
 10
36.235628
 20
44.132595
 30
0.0
 11
36.235628
 21
44.132595
 31
0.0
  0
LINE
  5
5AF
100
AcDbEntity
  8
HATCH
100
AcDbLine
 10
36.708128
 20
44.132595
 30
0.0
 11
36.708128
 21
44.132595
 31
0.0
  0
LINE
  5
5B0
100
AcDbEntity
  8
HATCH
100
AcDbLine
 10
37.180628
 20
44.132595
 30
0.0
 11
37.180628
 21
44.132595
 31
0.0
  0
LINE
  5
5B1
100
AcDbEntity
  8
HATCH
100
AcDbLine
 10
35.526818
 20
43.660175
 30
0.0
 11
35.526818
 21
43.660175
 31
0.0
  0
LINE
  5
5B2
100
AcDbEntity
  8
HATCH
100
AcDbLine
 10
35.999328
 20
43.660175
 30
0.0
 11
35.999328
 21
43.660175
 31
0.0
  0
LINE
  5
5B3
100
AcDbEntity
  8
HATCH
100
AcDbLine
 10
36.471828
 20
43.660175
 30
0.0
 11
36.471828
 21
43.660175
 31
0.0
  0
LINE
  5
5B4
100
AcDbEntity
  8
HATCH
100
AcDbLine
 10
36.944328
 20
43.660175
 30
0.0
 11
36.944328
 21
43.660175
 31
0.0
  0
LINE
  5
5B5
100
AcDbEntity
  8
HATCH
100
AcDbLine
 10
35.763118
 20
43.187585
 30
0.0
 11
35.763118
 21
43.187585
 31
0.0
  0
LINE
  5
5B6
100
AcDbEntity
  8
HATCH
100
AcDbLine
 10
36.235628
 20
43.187585
 30
0.0
 11
36.235628
 21
43.187585
 31
0.0
  0
LINE
  5
5B7
100
AcDbEntity
  8
HATCH
100
AcDbLine
 10
36.708128
 20
43.187585
 30
0.0
 11
36.708128
 21
43.187585
 31
0.0
  0
LINE
  5
5B8
100
AcDbEntity
  8
HATCH
100
AcDbLine
 10
37.180628
 20
43.187585
 30
0.0
 11
37.180628
 21
43.187585
 31
0.0
  0
LINE
  5
5B9
100
AcDbEntity
  8
HATCH
100
AcDbLine
 10
35.526818
 20
42.715175
 30
0.0
 11
35.526818
 21
42.715175
 31
0.0
  0
LINE
  5
5BA
100
AcDbEntity
  8
HATCH
100
AcDbLine
 10
35.999328
 20
42.715175
 30
0.0
 11
35.999328
 21
42.715175
 31
0.0
  0
LINE
  5
5BB
100
AcDbEntity
  8
HATCH
100
AcDbLine
 10
36.471828
 20
42.715175
 30
0.0
 11
36.471828
 21
42.715175
 31
0.0
  0
LINE
  5
5BC
100
AcDbEntity
  8
HATCH
100
AcDbLine
 10
36.944328
 20
42.715175
 30
0.0
 11
36.944328
 21
42.715175
 31
0.0
  0
LINE
  5
5BD
100
AcDbEntity
  8
HATCH
100
AcDbLine
 10
35.763118
 20
42.242575
 30
0.0
 11
35.763118
 21
42.242575
 31
0.0
  0
LINE
  5
5BE
100
AcDbEntity
  8
HATCH
100
AcDbLine
 10
36.235628
 20
42.242575
 30
0.0
 11
36.235628
 21
42.242575
 31
0.0
  0
LINE
  5
5BF
100
AcDbEntity
  8
HATCH
100
AcDbLine
 10
36.708128
 20
42.242575
 30
0.0
 11
36.708128
 21
42.242575
 31
0.0
  0
LINE
  5
5C0
100
AcDbEntity
  8
HATCH
100
AcDbLine
 10
37.180628
 20
42.242575
 30
0.0
 11
37.180628
 21
42.242575
 31
0.0
  0
LINE
  5
5C1
100
AcDbEntity
  8
HATCH
100
AcDbLine
 10
35.526818
 20
41.770165
 30
0.0
 11
35.526818
 21
41.770165
 31
0.0
  0
LINE
  5
5C2
100
AcDbEntity
  8
HATCH
100
AcDbLine
 10
35.999328
 20
41.770165
 30
0.0
 11
35.999328
 21
41.770165
 31
0.0
  0
LINE
  5
5C3
100
AcDbEntity
  8
HATCH
100
AcDbLine
 10
36.471828
 20
41.770165
 30
0.0
 11
36.471828
 21
41.770165
 31
0.0
  0
LINE
  5
5C4
100
AcDbEntity
  8
HATCH
100
AcDbLine
 10
36.944328
 20
41.770165
 30
0.0
 11
36.944328
 21
41.770165
 31
0.0
  0
LINE
  5
5C5
100
AcDbEntity
  8
HATCH
100
AcDbLine
 10
35.763118
 20
41.297565
 30
0.0
 11
35.763118
 21
41.297565
 31
0.0
  0
LINE
  5
5C6
100
AcDbEntity
  8
HATCH
100
AcDbLine
 10
36.235628
 20
41.297565
 30
0.0
 11
36.235628
 21
41.297565
 31
0.0
  0
LINE
  5
5C7
100
AcDbEntity
  8
HATCH
100
AcDbLine
 10
36.708128
 20
41.297565
 30
0.0
 11
36.708128
 21
41.297565
 31
0.0
  0
LINE
  5
5C8
100
AcDbEntity
  8
HATCH
100
AcDbLine
 10
37.180628
 20
41.297565
 30
0.0
 11
37.180628
 21
41.297565
 31
0.0
  0
LINE
  5
5C9
100
AcDbEntity
  8
HATCH
100
AcDbLine
 10
35.526818
 20
40.825155
 30
0.0
 11
35.526818
 21
40.825155
 31
0.0
  0
LINE
  5
5CA
100
AcDbEntity
  8
HATCH
100
AcDbLine
 10
35.999328
 20
40.825155
 30
0.0
 11
35.999328
 21
40.825155
 31
0.0
  0
LINE
  5
5CB
100
AcDbEntity
  8
HATCH
100
AcDbLine
 10
36.471828
 20
40.825155
 30
0.0
 11
36.471828
 21
40.825155
 31
0.0
  0
LINE
  5
5CC
100
AcDbEntity
  8
HATCH
100
AcDbLine
 10
36.944328
 20
40.825155
 30
0.0
 11
36.944328
 21
40.825155
 31
0.0
  0
LINE
  5
5CD
100
AcDbEntity
  8
HATCH
100
AcDbLine
 10
35.763118
 20
40.352565
 30
0.0
 11
35.763118
 21
40.352565
 31
0.0
  0
LINE
  5
5CE
100
AcDbEntity
  8
HATCH
100
AcDbLine
 10
36.235628
 20
40.352565
 30
0.0
 11
36.235628
 21
40.352565
 31
0.0
  0
LINE
  5
5CF
100
AcDbEntity
  8
HATCH
100
AcDbLine
 10
36.708128
 20
40.352565
 30
0.0
 11
36.708128
 21
40.352565
 31
0.0
  0
LINE
  5
5D0
100
AcDbEntity
  8
HATCH
100
AcDbLine
 10
37.180628
 20
40.352565
 30
0.0
 11
37.180628
 21
40.352565
 31
0.0
  0
LINE
  5
5D1
100
AcDbEntity
  8
HATCH
100
AcDbLine
 10
35.526818
 20
39.880145
 30
0.0
 11
35.526818
 21
39.880145
 31
0.0
  0
LINE
  5
5D2
100
AcDbEntity
  8
HATCH
100
AcDbLine
 10
35.999328
 20
39.880145
 30
0.0
 11
35.999328
 21
39.880145
 31
0.0
  0
LINE
  5
5D3
100
AcDbEntity
  8
HATCH
100
AcDbLine
 10
36.471828
 20
39.880145
 30
0.0
 11
36.471828
 21
39.880145
 31
0.0
  0
LINE
  5
5D4
100
AcDbEntity
  8
HATCH
100
AcDbLine
 10
36.944328
 20
39.880145
 30
0.0
 11
36.944328
 21
39.880145
 31
0.0
  0
LINE
  5
5D5
100
AcDbEntity
  8
HATCH
100
AcDbLine
 10
35.763118
 20
39.407555
 30
0.0
 11
35.763118
 21
39.407555
 31
0.0
  0
LINE
  5
5D6
100
AcDbEntity
  8
HATCH
100
AcDbLine
 10
36.235628
 20
39.407555
 30
0.0
 11
36.235628
 21
39.407555
 31
0.0
  0
LINE
  5
5D7
100
AcDbEntity
  8
HATCH
100
AcDbLine
 10
36.708128
 20
39.407555
 30
0.0
 11
36.708128
 21
39.407555
 31
0.0
  0
LINE
  5
5D8
100
AcDbEntity
  8
HATCH
100
AcDbLine
 10
37.180628
 20
39.407555
 30
0.0
 11
37.180628
 21
39.407555
 31
0.0
  0
LINE
  5
5D9
100
AcDbEntity
  8
HATCH
100
AcDbLine
 10
35.526818
 20
38.935145
 30
0.0
 11
35.526818
 21
38.935145
 31
0.0
  0
LINE
  5
5DA
100
AcDbEntity
  8
HATCH
100
AcDbLine
 10
35.999328
 20
38.935145
 30
0.0
 11
35.999328
 21
38.935145
 31
0.0
  0
LINE
  5
5DB
100
AcDbEntity
  8
HATCH
100
AcDbLine
 10
36.471828
 20
38.935145
 30
0.0
 11
36.471828
 21
38.935145
 31
0.0
  0
LINE
  5
5DC
100
AcDbEntity
  8
HATCH
100
AcDbLine
 10
36.944328
 20
38.935145
 30
0.0
 11
36.944328
 21
38.935145
 31
0.0
  0
LINE
  5
5DD
100
AcDbEntity
  8
DRAWING
100
AcDbLine
 10
27.280298
 20
48.521995
 30
0.0
 11
27.280298
 21
59.021995
 31
0.0
  0
LINE
  5
5DE
100
AcDbEntity
  8
DRAWING
100
AcDbLine
 10
29.170228
 20
48.521995
 30
0.0
 11
29.170228
 21
59.021995
 31
0.0
  0
LINE
  5
5DF
100
AcDbEntity
  8
DRAWING
100
AcDbLine
 10
29.296278
 20
48.521995
 30
0.0
 11
27.280298
 21
48.521995
 31
0.0
  0
LINE
  5
5E0
100
AcDbEntity
  8
DRAWING
100
AcDbLine
 10
29.170228
 20
48.521995
 30
0.0
 11
27.280298
 21
48.521995
 31
0.0
  0
LINE
  5
5E1
100
AcDbEntity
  8
DIM_TEXT
100
AcDbLine
 10
27.494348
 20
48.385035
 30
0.0
 11
27.164028
 21
47.236415
 31
0.0
  0
LINE
  5
5E2
100
AcDbEntity
  8
DIM_TEXT
100
AcDbLine
 10
27.494348
 20
48.385035
 30
0.0
 11
26.540738
 21
47.664325
 31
0.0
  0
LINE
  5
5E3
100
AcDbEntity
  8
DIM_TEXT
100
AcDbLine
 10
27.164028
 20
47.236415
 30
0.0
 11
26.540738
 21
47.664325
 31
0.0
  0
LINE
  5
5E4
100
AcDbEntity
  8
HATCH
100
AcDbLine
 10
27.494348
 20
48.385035
 30
0.0
 11
27.494348
 21
48.385035
 31
0.0
  0
LINE
  5
5E5
100
AcDbEntity
  8
HATCH
100
AcDbLine
 10
27.966858
 20
48.385035
 30
0.0
 11
27.966858
 21
48.385035
 31
0.0
  0
LINE
  5
5E6
100
AcDbEntity
  8
HATCH
100
AcDbLine
 10
27.730648
 20
47.912625
 30
0.0
 11
27.730648
 21
47.912625
 31
0.0
  0
LINE
  5
5E7
100
AcDbEntity
  8
HATCH
100
AcDbLine
 10
28.203148
 20
47.912625
 30
0.0
 11
28.203148
 21
47.912625
 31
0.0
  0
LINE
  5
5E8
100
AcDbEntity
  8
HATCH
100
AcDbLine
 10
27.494348
 20
47.440025
 30
0.0
 11
27.494348
 21
47.440025
 31
0.0
  0
LINE
  5
5E9
100
AcDbEntity
  8
HATCH
100
AcDbLine
 10
27.966858
 20
47.440025
 30
0.0
 11
27.966858
 21
47.440025
 31
0.0
  0
LINE
  5
5EA
100
AcDbEntity
  8
HATCH
100
AcDbLine
 10
27.730648
 20
46.967615
 30
0.0
 11
27.730648
 21
46.967615
 31
0.0
  0
LINE
  5
5EB
100
AcDbEntity
  8
HATCH
100
AcDbLine
 10
28.203148
 20
46.967615
 30
0.0
 11
28.203148
 21
46.967615
 31
0.0
  0
LINE
  5
5EC
100
AcDbEntity
  8
HATCH
100
AcDbLine
 10
27.494348
 20
46.495205
 30
0.0
 11
27.494348
 21
46.495205
 31
0.0
  0
LINE
  5
5ED
100
AcDbEntity
  8
HATCH
100
AcDbLine
 10
27.966858
 20
46.495205
 30
0.0
 11
27.966858
 21
46.495205
 31
0.0
  0
LINE
  5
5EE
100
AcDbEntity
  8
HATCH
100
AcDbLine
 10
27.730648
 20
46.022605
 30
0.0
 11
27.730648
 21
46.022605
 31
0.0
  0
LINE
  5
5EF
100
AcDbEntity
  8
HATCH
100
AcDbLine
 10
28.203148
 20
46.022605
 30
0.0
 11
28.203148
 21
46.022605
 31
0.0
  0
LINE
  5
5F0
100
AcDbEntity
  8
HATCH
100
AcDbLine
 10
27.494348
 20
48.658955
 30
0.0
 11
27.494348
 21
48.658955
 31
0.0
  0
LINE
  5
5F1
100
AcDbEntity
  8
HATCH
100
AcDbLine
 10
27.966858
 20
48.658955
 30
0.0
 11
27.966858
 21
48.658955
 31
0.0
  0
LINE
  5
5F2
100
AcDbEntity
  8
HATCH
100
AcDbLine
 10
27.730648
 20
49.131375
 30
0.0
 11
27.730648
 21
49.131375
 31
0.0
  0
LINE
  5
5F3
100
AcDbEntity
  8
HATCH
100
AcDbLine
 10
28.203148
 20
49.131375
 30
0.0
 11
28.203148
 21
49.131375
 31
0.0
  0
LINE
  5
5F4
100
AcDbEntity
  8
HATCH
100
AcDbLine
 10
27.494348
 20
49.603965
 30
0.0
 11
27.494348
 21
49.603965
 31
0.0
  0
LINE
  5
5F5
100
AcDbEntity
  8
HATCH
100
AcDbLine
 10
27.966858
 20
49.603965
 30
0.0
 11
27.966858
 21
49.603965
 31
0.0
  0
LINE
  5
5F6
100
AcDbEntity
  8
HATCH
100
AcDbLine
 10
27.730648
 20
50.076375
 30
0.0
 11
27.730648
 21
50.076375
 31
0.0
  0
LINE
  5
5F7
100
AcDbEntity
  8
HATCH
100
AcDbLine
 10
28.203148
 20
50.076375
 30
0.0
 11
28.203148
 21
50.076375
 31
0.0
  0
LINE
  5
5F8
100
AcDbEntity
  8
HATCH
100
AcDbLine
 10
27.494348
 20
50.548975
 30
0.0
 11
27.494348
 21
50.548975
 31
0.0
  0
LINE
  5
5F9
100
AcDbEntity
  8
HATCH
100
AcDbLine
 10
27.966858
 20
50.548975
 30
0.0
 11
27.966858
 21
50.548975
 31
0.0
  0
LINE
  5
5FA
100
AcDbEntity
  8
HATCH
100
AcDbLine
 10
27.730648
 20
51.021385
 30
0.0
 11
27.730648
 21
51.021385
 31
0.0
  0
LINE
  5
5FB
100
AcDbEntity
  8
HATCH
100
AcDbLine
 10
28.203148
 20
51.021385
 30
0.0
 11
28.203148
 21
51.021385
 31
0.0
  0
LINE
  5
5FC
100
AcDbEntity
  8
HATCH
100
AcDbLine
 10
27.494348
 20
51.493985
 30
0.0
 11
27.494348
 21
51.493985
 31
0.0
  0
LINE
  5
5FD
100
AcDbEntity
  8
HATCH
100
AcDbLine
 10
27.966858
 20
51.493985
 30
0.0
 11
27.966858
 21
51.493985
 31
0.0
  0
LINE
  5
5FE
100
AcDbEntity
  8
HATCH
100
AcDbLine
 10
27.730648
 20
51.966385
 30
0.0
 11
27.730648
 21
51.966385
 31
0.0
  0
LINE
  5
5FF
100
AcDbEntity
  8
HATCH
100
AcDbLine
 10
28.203148
 20
51.966385
 30
0.0
 11
28.203148
 21
51.966385
 31
0.0
  0
LINE
  5
600
100
AcDbEntity
  8
HATCH
100
AcDbLine
 10
27.494348
 20
52.438785
 30
0.0
 11
27.494348
 21
52.438785
 31
0.0
  0
LINE
  5
601
100
AcDbEntity
  8
HATCH
100
AcDbLine
 10
27.966858
 20
52.438785
 30
0.0
 11
27.966858
 21
52.438785
 31
0.0
  0
LINE
  5
602
100
AcDbEntity
  8
HATCH
100
AcDbLine
 10
29.966638
 20
46.043665
 30
0.0
 11
30.002808
 21
46.095295
 31
0.0
  0
LINE
  5
603
100
AcDbEntity
  8
HATCH
100
AcDbLine
 10
29.279538
 20
46.508015
 30
0.0
 11
29.290338
 21
46.570095
 31
0.0
  0
LINE
  5
604
100
AcDbEntity
  8
HATCH
100
AcDbLine
 10
28.439358
 20
48.385035
 30
0.0
 11
28.439358
 21
48.385035
 31
0.0
  0
LINE
  5
605
100
AcDbEntity
  8
HATCH
100
AcDbLine
 10
28.675658
 20
47.912625
 30
0.0
 11
28.675658
 21
47.912625
 31
0.0
  0
LINE
  5
606
100
AcDbEntity
  8
HATCH
100
AcDbLine
 10
29.148158
 20
47.912625
 30
0.0
 11
29.148158
 21
47.912625
 31
0.0
  0
LINE
  5
607
100
AcDbEntity
  8
HATCH
100
AcDbLine
 10
28.439358
 20
47.440025
 30
0.0
 11
28.439358
 21
47.440025
 31
0.0
  0
LINE
  5
608
100
AcDbEntity
  8
HATCH
100
AcDbLine
 10
28.911858
 20
47.440025
 30
0.0
 11
28.911858
 21
47.440025
 31
0.0
  0
LINE
  5
609
100
AcDbEntity
  8
HATCH
100
AcDbLine
 10
28.675658
 20
46.967615
 30
0.0
 11
28.675658
 21
46.967615
 31
0.0
  0
LINE
  5
60A
100
AcDbEntity
  8
HATCH
100
AcDbLine
 10
29.148158
 20
46.967615
 30
0.0
 11
29.148158
 21
46.967615
 31
0.0
  0
LINE
  5
60B
100
AcDbEntity
  8
HATCH
100
AcDbLine
 10
28.439358
 20
46.495205
 30
0.0
 11
28.439358
 21
46.495205
 31
0.0
  0
LINE
  5
60C
100
AcDbEntity
  8
HATCH
100
AcDbLine
 10
28.911858
 20
46.495205
 30
0.0
 11
28.911858
 21
46.495205
 31
0.0
  0
LINE
  5
60D
100
AcDbEntity
  8
HATCH
100
AcDbLine
 10
28.675658
 20
46.022605
 30
0.0
 11
28.675658
 21
46.022605
 31
0.0
  0
LINE
  5
60E
100
AcDbEntity
  8
HATCH
100
AcDbLine
 10
29.148158
 20
46.022605
 30
0.0
 11
29.148158
 21
46.022605
 31
0.0
  0
LINE
  5
60F
100
AcDbEntity
  8
HATCH
100
AcDbLine
 10
28.439358
 20
48.658955
 30
0.0
 11
28.439358
 21
48.658955
 31
0.0
  0
LINE
  5
610
100
AcDbEntity
  8
HATCH
100
AcDbLine
 10
28.911858
 20
48.658955
 30
0.0
 11
28.911858
 21
48.658955
 31
0.0
  0
LINE
  5
611
100
AcDbEntity
  8
HATCH
100
AcDbLine
 10
28.675658
 20
49.131375
 30
0.0
 11
28.675658
 21
49.131375
 31
0.0
  0
LINE
  5
612
100
AcDbEntity
  8
HATCH
100
AcDbLine
 10
29.148158
 20
49.131375
 30
0.0
 11
29.148158
 21
49.131375
 31
0.0
  0
LINE
  5
613
100
AcDbEntity
  8
HATCH
100
AcDbLine
 10
28.439358
 20
49.603965
 30
0.0
 11
28.439358
 21
49.603965
 31
0.0
  0
LINE
  5
614
100
AcDbEntity
  8
HATCH
100
AcDbLine
 10
28.911858
 20
49.603965
 30
0.0
 11
28.911858
 21
49.603965
 31
0.0
  0
LINE
  5
615
100
AcDbEntity
  8
HATCH
100
AcDbLine
 10
28.675658
 20
50.076375
 30
0.0
 11
28.675658
 21
50.076375
 31
0.0
  0
LINE
  5
616
100
AcDbEntity
  8
HATCH
100
AcDbLine
 10
29.148158
 20
50.076375
 30
0.0
 11
29.148158
 21
50.076375
 31
0.0
  0
LINE
  5
617
100
AcDbEntity
  8
HATCH
100
AcDbLine
 10
28.439358
 20
50.548975
 30
0.0
 11
28.439358
 21
50.548975
 31
0.0
  0
LINE
  5
618
100
AcDbEntity
  8
HATCH
100
AcDbLine
 10
28.911858
 20
50.548975
 30
0.0
 11
28.911858
 21
50.548975
 31
0.0
  0
LINE
  5
619
100
AcDbEntity
  8
HATCH
100
AcDbLine
 10
28.675658
 20
51.021385
 30
0.0
 11
28.675658
 21
51.021385
 31
0.0
  0
LINE
  5
61A
100
AcDbEntity
  8
HATCH
100
AcDbLine
 10
29.148158
 20
51.021385
 30
0.0
 11
29.148158
 21
51.021385
 31
0.0
  0
LINE
  5
61B
100
AcDbEntity
  8
HATCH
100
AcDbLine
 10
28.439358
 20
51.493985
 30
0.0
 11
28.439358
 21
51.493985
 31
0.0
  0
LINE
  5
61C
100
AcDbEntity
  8
HATCH
100
AcDbLine
 10
28.911858
 20
51.493985
 30
0.0
 11
28.911858
 21
51.493985
 31
0.0
  0
LINE
  5
61D
100
AcDbEntity
  8
HATCH
100
AcDbLine
 10
28.675658
 20
51.966385
 30
0.0
 11
28.675658
 21
51.966385
 31
0.0
  0
LINE
  5
61E
100
AcDbEntity
  8
HATCH
100
AcDbLine
 10
29.148158
 20
51.966385
 30
0.0
 11
29.148158
 21
51.966385
 31
0.0
  0
LINE
  5
61F
100
AcDbEntity
  8
HATCH
100
AcDbLine
 10
28.439358
 20
52.438785
 30
0.0
 11
28.439358
 21
52.438785
 31
0.0
  0
LINE
  5
620
100
AcDbEntity
  8
HATCH
100
AcDbLine
 10
28.911858
 20
52.438785
 30
0.0
 11
28.911858
 21
52.438785
 31
0.0
  0
CIRCLE
  5
621
100
AcDbEntity
  8
DRAWING
100
AcDbCircle
 10
30.930508
 20
46.810265
 30
0.0
 40
0.315
  0
LINE
  5
622
100
AcDbEntity
  8
HATCH
100
AcDbLine
 10
27.730648
 20
52.911385
 30
0.0
 11
27.730648
 21
52.911385
 31
0.0
  0
LINE
  5
623
100
AcDbEntity
  8
HATCH
100
AcDbLine
 10
28.203148
 20
52.911385
 30
0.0
 11
28.203148
 21
52.911385
 31
0.0
  0
LINE
  5
624
100
AcDbEntity
  8
HATCH
100
AcDbLine
 10
27.494348
 20
53.383785
 30
0.0
 11
27.494348
 21
53.383785
 31
0.0
  0
LINE
  5
625
100
AcDbEntity
  8
HATCH
100
AcDbLine
 10
27.966858
 20
53.383785
 30
0.0
 11
27.966858
 21
53.383785
 31
0.0
  0
LINE
  5
626
100
AcDbEntity
  8
HATCH
100
AcDbLine
 10
27.730648
 20
53.856385
 30
0.0
 11
27.730648
 21
53.856385
 31
0.0
  0
LINE
  5
627
100
AcDbEntity
  8
HATCH
100
AcDbLine
 10
28.203148
 20
53.856385
 30
0.0
 11
28.203148
 21
53.856385
 31
0.0
  0
LINE
  5
628
100
AcDbEntity
  8
HATCH
100
AcDbLine
 10
27.494348
 20
54.328785
 30
0.0
 11
27.494348
 21
54.328785
 31
0.0
  0
LINE
  5
629
100
AcDbEntity
  8
HATCH
100
AcDbLine
 10
27.966858
 20
54.328785
 30
0.0
 11
27.966858
 21
54.328785
 31
0.0
  0
LINE
  5
62A
100
AcDbEntity
  8
HATCH
100
AcDbLine
 10
27.730648
 20
54.801385
 30
0.0
 11
27.730648
 21
54.801385
 31
0.0
  0
LINE
  5
62B
100
AcDbEntity
  8
HATCH
100
AcDbLine
 10
28.203148
 20
54.801385
 30
0.0
 11
28.203148
 21
54.801385
 31
0.0
  0
LINE
  5
62C
100
AcDbEntity
  8
HATCH
100
AcDbLine
 10
27.494348
 20
55.273785
 30
0.0
 11
27.494348
 21
55.273785
 31
0.0
  0
LINE
  5
62D
100
AcDbEntity
  8
HATCH
100
AcDbLine
 10
27.966858
 20
55.273785
 30
0.0
 11
27.966858
 21
55.273785
 31
0.0
  0
LINE
  5
62E
100
AcDbEntity
  8
HATCH
100
AcDbLine
 10
27.730648
 20
55.746385
 30
0.0
 11
27.730648
 21
55.746385
 31
0.0
  0
LINE
  5
62F
100
AcDbEntity
  8
HATCH
100
AcDbLine
 10
28.203148
 20
55.746385
 30
0.0
 11
28.203148
 21
55.746385
 31
0.0
  0
LINE
  5
630
100
AcDbEntity
  8
HATCH
100
AcDbLine
 10
27.494348
 20
56.218785
 30
0.0
 11
27.494348
 21
56.218785
 31
0.0
  0
LINE
  5
631
100
AcDbEntity
  8
HATCH
100
AcDbLine
 10
27.966858
 20
56.218785
 30
0.0
 11
27.966858
 21
56.218785
 31
0.0
  0
LINE
  5
632
100
AcDbEntity
  8
HATCH
100
AcDbLine
 10
28.675658
 20
52.911385
 30
0.0
 11
28.675658
 21
52.911385
 31
0.0
  0
LINE
  5
633
100
AcDbEntity
  8
HATCH
100
AcDbLine
 10
29.148158
 20
52.911385
 30
0.0
 11
29.148158
 21
52.911385
 31
0.0
  0
LINE
  5
634
100
AcDbEntity
  8
HATCH
100
AcDbLine
 10
28.439358
 20
53.383785
 30
0.0
 11
28.439358
 21
53.383785
 31
0.0
  0
LINE
  5
635
100
AcDbEntity
  8
HATCH
100
AcDbLine
 10
28.911858
 20
53.383785
 30
0.0
 11
28.911858
 21
53.383785
 31
0.0
  0
LINE
  5
636
100
AcDbEntity
  8
HATCH
100
AcDbLine
 10
28.675658
 20
53.856385
 30
0.0
 11
28.675658
 21
53.856385
 31
0.0
  0
LINE
  5
637
100
AcDbEntity
  8
HATCH
100
AcDbLine
 10
29.148158
 20
53.856385
 30
0.0
 11
29.148158
 21
53.856385
 31
0.0
  0
LINE
  5
638
100
AcDbEntity
  8
HATCH
100
AcDbLine
 10
28.439358
 20
54.328785
 30
0.0
 11
28.439358
 21
54.328785
 31
0.0
  0
LINE
  5
639
100
AcDbEntity
  8
HATCH
100
AcDbLine
 10
28.911858
 20
54.328785
 30
0.0
 11
28.911858
 21
54.328785
 31
0.0
  0
LINE
  5
63A
100
AcDbEntity
  8
HATCH
100
AcDbLine
 10
28.675658
 20
54.801385
 30
0.0
 11
28.675658
 21
54.801385
 31
0.0
  0
LINE
  5
63B
100
AcDbEntity
  8
HATCH
100
AcDbLine
 10
29.148158
 20
54.801385
 30
0.0
 11
29.148158
 21
54.801385
 31
0.0
  0
LINE
  5
63C
100
AcDbEntity
  8
HATCH
100
AcDbLine
 10
28.439358
 20
55.273785
 30
0.0
 11
28.439358
 21
55.273785
 31
0.0
  0
LINE
  5
63D
100
AcDbEntity
  8
HATCH
100
AcDbLine
 10
28.911858
 20
55.273785
 30
0.0
 11
28.911858
 21
55.273785
 31
0.0
  0
LINE
  5
63E
100
AcDbEntity
  8
HATCH
100
AcDbLine
 10
28.675658
 20
55.746385
 30
0.0
 11
28.675658
 21
55.746385
 31
0.0
  0
LINE
  5
63F
100
AcDbEntity
  8
HATCH
100
AcDbLine
 10
29.148158
 20
55.746385
 30
0.0
 11
29.148158
 21
55.746385
 31
0.0
  0
LINE
  5
640
100
AcDbEntity
  8
HATCH
100
AcDbLine
 10
28.439358
 20
56.218785
 30
0.0
 11
28.439358
 21
56.218785
 31
0.0
  0
LINE
  5
641
100
AcDbEntity
  8
HATCH
100
AcDbLine
 10
28.911858
 20
56.218785
 30
0.0
 11
28.911858
 21
56.218785
 31
0.0
  0
CIRCLE
  5
642
100
AcDbEntity
  8
DRAWING
100
AcDbCircle
 10
33.609528
 20
56.010095
 30
0.0
 40
0.315
  0
CIRCLE
  5
643
100
AcDbEntity
  8
DRAWING
100
AcDbCircle
 10
33.788238
 20
46.810265
 30
0.0
 40
0.315
  0
LINE
  5
644
100
AcDbEntity
  8
DRAWING
100
AcDbLine
 10
37.360258
 20
48.521995
 30
0.0
 11
35.344278
 21
48.521995
 31
0.0
  0
LINE
  5
645
100
AcDbEntity
  8
HATCH
100
AcDbLine
 10
35.999328
 20
48.385035
 30
0.0
 11
35.999328
 21
48.385035
 31
0.0
  0
LINE
  5
646
100
AcDbEntity
  8
HATCH
100
AcDbLine
 10
35.763118
 20
47.912625
 30
0.0
 11
35.763118
 21
47.912625
 31
0.0
  0
LINE
  5
647
100
AcDbEntity
  8
HATCH
100
AcDbLine
 10
36.235628
 20
47.912625
 30
0.0
 11
36.235628
 21
47.912625
 31
0.0
  0
LINE
  5
648
100
AcDbEntity
  8
HATCH
100
AcDbLine
 10
36.708128
 20
47.912625
 30
0.0
 11
36.708128
 21
47.912625
 31
0.0
  0
LINE
  5
649
100
AcDbEntity
  8
HATCH
100
AcDbLine
 10
37.180628
 20
47.912625
 30
0.0
 11
37.180628
 21
47.912625
 31
0.0
  0
LINE
  5
64A
100
AcDbEntity
  8
HATCH
100
AcDbLine
 10
35.526818
 20
47.440025
 30
0.0
 11
35.526818
 21
47.440025
 31
0.0
  0
LINE
  5
64B
100
AcDbEntity
  8
HATCH
100
AcDbLine
 10
35.999328
 20
47.440025
 30
0.0
 11
35.999328
 21
47.440025
 31
0.0
  0
LINE
  5
64C
100
AcDbEntity
  8
HATCH
100
AcDbLine
 10
36.471828
 20
47.440025
 30
0.0
 11
36.471828
 21
47.440025
 31
0.0
  0
LINE
  5
64D
100
AcDbEntity
  8
HATCH
100
AcDbLine
 10
36.944328
 20
47.440025
 30
0.0
 11
36.944328
 21
47.440025
 31
0.0
  0
LINE
  5
64E
100
AcDbEntity
  8
HATCH
100
AcDbLine
 10
35.763118
 20
46.967615
 30
0.0
 11
35.763118
 21
46.967615
 31
0.0
  0
LINE
  5
64F
100
AcDbEntity
  8
HATCH
100
AcDbLine
 10
36.235628
 20
46.967615
 30
0.0
 11
36.235628
 21
46.967615
 31
0.0
  0
LINE
  5
650
100
AcDbEntity
  8
HATCH
100
AcDbLine
 10
36.708128
 20
46.967615
 30
0.0
 11
36.708128
 21
46.967615
 31
0.0
  0
LINE
  5
651
100
AcDbEntity
  8
HATCH
100
AcDbLine
 10
37.180628
 20
46.967615
 30
0.0
 11
37.180628
 21
46.967615
 31
0.0
  0
LINE
  5
652
100
AcDbEntity
  8
HATCH
100
AcDbLine
 10
35.526818
 20
46.495205
 30
0.0
 11
35.526818
 21
46.495205
 31
0.0
  0
LINE
  5
653
100
AcDbEntity
  8
HATCH
100
AcDbLine
 10
35.999328
 20
46.495205
 30
0.0
 11
35.999328
 21
46.495205
 31
0.0
  0
LINE
  5
654
100
AcDbEntity
  8
HATCH
100
AcDbLine
 10
36.471828
 20
46.495205
 30
0.0
 11
36.471828
 21
46.495205
 31
0.0
  0
LINE
  5
655
100
AcDbEntity
  8
HATCH
100
AcDbLine
 10
36.944328
 20
46.495205
 30
0.0
 11
36.944328
 21
46.495205
 31
0.0
  0
LINE
  5
656
100
AcDbEntity
  8
HATCH
100
AcDbLine
 10
35.763118
 20
46.022605
 30
0.0
 11
35.763118
 21
46.022605
 31
0.0
  0
LINE
  5
657
100
AcDbEntity
  8
HATCH
100
AcDbLine
 10
36.235628
 20
46.022605
 30
0.0
 11
36.235628
 21
46.022605
 31
0.0
  0
LINE
  5
658
100
AcDbEntity
  8
HATCH
100
AcDbLine
 10
36.708128
 20
46.022605
 30
0.0
 11
36.708128
 21
46.022605
 31
0.0
  0
LINE
  5
659
100
AcDbEntity
  8
HATCH
100
AcDbLine
 10
37.180628
 20
46.022605
 30
0.0
 11
37.180628
 21
46.022605
 31
0.0
  0
ARC
  5
65A
100
AcDbEntity
  8
DRAWING
100
AcDbCircle
 10
33.571988
 20
56.577895
 30
0.0
 40
0.504
100
AcDbArc
 50
90.0
 51
180.0
  0
LINE
  5
65B
100
AcDbEntity
  8
DIM_TEXT
100
AcDbLine
 10
32.734188
 20
63.914995
 30
0.0
 11
31.984188
 21
63.164995
 31
0.0
  0
LINE
  5
65C
100
AcDbEntity
  8
DIM_TEXT
100
AcDbLine
 10
57.378258
 20
57.081895
 30
0.0
 11
57.378258
 21
63.539995
 31
0.0
  0
LINE
  5
65D
100
AcDbEntity
  8
DIM_TEXT
100
AcDbLine
 10
55.721068
 20
67.262295
 30
0.0
 11
50.710658
 21
59.437495
 31
0.0
  0
LINE
  5
65E
100
AcDbEntity
  8
DIM_TEXT
100
AcDbLine
 10
59.900178
 20
64.225895
 30
0.0
 11
57.800958
 21
58.678195
 31
0.0
  0
TEXT
  5
65F
100
AcDbEntity
  8
DIM_TEXT
100
AcDbText
 10
49.614158
 20
44.961725
 30
0.0
 40
1.125
  1
D
 51
15.0
  7
INFO
100
AcDbText
  0
LINE
  5
660
100
AcDbEntity
  8
DIM_TEXT
100
AcDbLine
 10
45.940208
 20
43.961725
 30
0.0
 11
56.020258
 21
43.961725
 31
0.0
  0
ARC
  5
661
100
AcDbEntity
  8
DRAWING
100
AcDbCircle
 10
50.980188
 20
56.082055
 30
0.0
 40
3.024
100
AcDbArc
 50
180.0
 51
0.0
  0
LINE
  5
662
100
AcDbEntity
  8
DRAWING
100
AcDbLine
 10
56.020258
 20
48.521995
 30
0.0
 11
45.940208
 21
48.521995
 31
0.0
  0
LINE
  5
663
100
AcDbEntity
  8
DRAWING
100
AcDbLine
 10
45.940208
 20
48.521995
 30
0.0
 11
45.940208
 21
56.082055
 31
0.0
  0
LINE
  5
664
100
AcDbEntity
  8
DRAWING
100
AcDbLine
 10
45.940208
 20
56.082055
 30
0.0
 11
45.940208
 21
48.521995
 31
0.0
  0
TEXT
  5
665
100
AcDbEntity
  8
DIM_TEXT
100
AcDbText
 10
39.534208
 20
44.961725
 30
0.0
 40
1.125
  1
D
 51
15.0
  7
INFO
100
AcDbText
  0
LINE
  5
666
100
AcDbEntity
  8
DIM_TEXT
100
AcDbLine
 10
50.316428
 20
37.970058
 30
0.0
 11
46.542448
 21
47.571855
 31
0.0
  0
LINE
  5
667
100
AcDbEntity
  8
DIM_TEXT
100
AcDbLine
 10
45.940208
 20
47.522005
 30
0.0
 11
45.940208
 21
43.961725
 31
0.0
  0
LINE
  5
668
100
AcDbEntity
  8
DIM_TEXT
100
AcDbLine
 10
45.565208
 20
43.586725
 30
0.0
 11
46.315208
 21
44.336725
 31
0.0
  0
LINE
  5
669
100
AcDbEntity
  8
DIM_TEXT
100
AcDbLine
 10
46.315208
 20
44.336725
 30
0.0
 11
45.565208
 21
43.586725
 31
0.0
  0
LINE
  5
66A
100
AcDbEntity
  8
DIM_TEXT
100
AcDbLine
 10
51.025238
 20
37.970058
 30
0.0
 11
50.316428
 21
37.970058
 31
0.0
  0
LINE
  5
66B
100
AcDbEntity
  8
DIM_TEXT
100
AcDbLine
 10
45.940208
 20
48.521995
 30
0.0
 11
46.859218
 21
47.772545
 31
0.0
  0
LINE
  5
66C
100
AcDbEntity
  8
DIM_TEXT
100
AcDbLine
 10
45.940208
 20
48.521995
 30
0.0
 11
46.225668
 21
47.371175
 31
0.0
  0
LINE
  5
66D
100
AcDbEntity
  8
DIM_TEXT
100
AcDbLine
 10
46.859218
 20
47.772545
 30
0.0
 11
46.225668
 21
47.371175
 31
0.0
  0
LINE
  5
66E
100
AcDbEntity
  8
DRAWING
100
AcDbLine
 10
45.940208
 20
56.082055
 30
0.0
 11
43.924138
 21
56.082055
 31
0.0
  0
LINE
  5
66F
100
AcDbEntity
  8
DIM_TEXT
100
AcDbLine
 10
41.254178
 20
55.071675
 30
0.0
 11
40.961028
 21
53.912985
 31
0.0
  0
LINE
  5
670
100
AcDbEntity
  8
DIM_TEXT
100
AcDbLine
 10
41.714958
 20
53.968835
 30
0.0
 11
40.961028
 21
53.912985
 31
0.0
  0
ARC
  5
671
100
AcDbEntity
  8
DRAWING
100
AcDbCircle
 10
40.900138
 20
56.082055
 30
0.0
 40
3.024
100
AcDbArc
 50
180.0
 51
0.0
  0
LINE
  5
672
100
AcDbEntity
  8
DRAWING
100
AcDbLine
 10
38.932308
 20
55.071675
 30
0.0
 11
43.576048
 21
55.071675
 31
0.0
  0
CIRCLE
  5
673
100
AcDbEntity
  8
DRAWING
100
AcDbCircle
 10
39.789698
 20
55.071675
 30
0.0
 40
0.315
  0
LINE
  5
674
100
AcDbEntity
  8
DIM_TEXT
100
AcDbLine
 10
41.254178
 20
55.071675
 30
0.0
 11
41.714958
 21
53.968835
 31
0.0
  0
CIRCLE
  5
675
100
AcDbEntity
  8
DRAWING
100
AcDbCircle
 10
42.647338
 20
55.071675
 30
0.0
 40
0.315
  0
LINE
  5
676
100
AcDbEntity
  8
DIM_TEXT
100
AcDbLine
 10
42.620788
 20
59.939595
 30
0.0
 11
42.814418
 21
61.119095
 31
0.0
  0
LINE
  5
677
100
AcDbEntity
  8
DIM_TEXT
100
AcDbLine
 10
42.620788
 20
59.939595
 30
0.0
 11
43.483488
 21
60.766995
 31
0.0
  0
LINE
  5
678
100
AcDbEntity
  8
DIM_TEXT
100
AcDbLine
 10
37.860588
 20
57.081895
 30
0.0
 11
37.870568
 21
58.277195
 31
0.0
  0
LINE
  5
679
100
AcDbEntity
  8
DIM_TEXT
100
AcDbLine
 10
37.860588
 20
57.081895
 30
0.0
 11
38.585688
 21
58.032195
 31
0.0
  0
LINE
  5
67A
100
AcDbEntity
  8
DIM_TEXT
100
AcDbLine
 10
37.870568
 20
58.277195
 30
0.0
 11
38.585688
 21
58.032195
 31
0.0
  0
CIRCLE
  5
67B
100
AcDbEntity
  8
DRAWING
100
AcDbCircle
 10
39.789608
 20
58.106495
 30
0.0
 40
0.315
  0
LINE
  5
67C
100
AcDbEntity
  8
DIM_TEXT
100
AcDbLine
 10
44.262138
 20
63.057995
 30
0.0
 11
43.148958
 21
60.942995
 31
0.0
  0
LINE
  5
67D
100
AcDbEntity
  8
DIM_TEXT
100
AcDbLine
 10
42.814418
 20
61.119095
 30
0.0
 11
43.483488
 21
60.766995
 31
0.0
  0
CIRCLE
  5
67E
100
AcDbEntity
  8
DRAWING
100
AcDbCircle
 10
42.647248
 20
58.106495
 30
0.0
 40
0.315
  0
LINE
  5
67F
100
AcDbEntity
  8
DRAWING
100
AcDbLine
 10
47.956188
 20
56.082055
 30
0.0
 11
45.940208
 21
56.082055
 31
0.0
  0
CIRCLE
  5
680
100
AcDbEntity
  8
DRAWING
100
AcDbCircle
 10
49.970178
 20
55.071675
 30
0.0
 40
0.315
  0
LINE
  5
681
100
AcDbEntity
  8
DIM_TEXT
100
AcDbLine
 10
50.104028
 20
58.490095
 30
0.0
 11
50.394898
 21
59.639695
 31
0.0
  0
LINE
  5
682
100
AcDbEntity
  8
DIM_TEXT
100
AcDbLine
 10
50.104028
 20
58.490095
 30
0.0
 11
51.026428
 21
59.235395
 31
0.0
  0
LINE
  5
683
100
AcDbEntity
  8
DIM_TEXT
100
AcDbLine
 10
50.394898
 20
59.639695
 30
0.0
 11
51.026428
 21
59.235395
 31
0.0
  0
CIRCLE
  5
684
100
AcDbEntity
  8
DRAWING
100
AcDbCircle
 10
49.970088
 20
58.106495
 30
0.0
 40
0.315
  0
LINE
  5
685
100
AcDbEntity
  8
DRAWING
100
AcDbLine
 10
56.020258
 20
48.521995
 30
0.0
 11
56.020168
 21
56.082055
 31
0.0
  0
LINE
  5
686
100
AcDbEntity
  8
DRAWING
100
AcDbLine
 10
66.100215
 20
48.521995
 30
0.0
 11
66.100215
 21
56.082055
 31
0.0
  0
LINE
  5
687
100
AcDbEntity
  8
DRAWING
100
AcDbLine
 10
56.020168
 20
56.082055
 30
0.0
 11
56.020258
 21
48.521995
 31
0.0
  0
LINE
  5
688
100
AcDbEntity
  8
DRAWING
100
AcDbLine
 10
66.100215
 20
56.082055
 30
0.0
 11
66.100215
 21
48.521995
 31
0.0
  0
LINE
  5
689
100
AcDbEntity
  8
DIM_TEXT
100
AcDbLine
 10
56.020258
 20
43.961725
 30
0.0
 11
66.100215
 21
43.961725
 31
0.0
  0
LINE
  5
68A
100
AcDbEntity
  8
DRAWING
100
AcDbLine
 10
66.100215
 20
48.521995
 30
0.0
 11
56.020258
 21
48.521995
 31
0.0
  0
LINE
  5
68B
100
AcDbEntity
  8
DIM_TEXT
100
AcDbLine
 10
56.020258
 20
47.522135
 30
0.0
 11
56.020258
 21
43.961725
 31
0.0
  0
LINE
  5
68C
100
AcDbEntity
  8
DIM_TEXT
100
AcDbLine
 10
55.645258
 20
43.586725
 30
0.0
 11
56.395258
 21
44.336725
 31
0.0
  0
LINE
  5
68D
100
AcDbEntity
  8
DIM_TEXT
100
AcDbLine
 10
56.395258
 20
44.336725
 30
0.0
 11
55.645258
 21
43.586725
 31
0.0
  0
LINE
  5
68E
100
AcDbEntity
  8
DIM_TEXT
100
AcDbLine
 10
66.100215
 20
47.522135
 30
0.0
 11
66.100215
 21
43.961725
 31
0.0
  0
LINE
  5
68F
100
AcDbEntity
  8
DIM_TEXT
100
AcDbLine
 10
65.725215
 20
43.586725
 30
0.0
 11
66.475215
 21
44.336725
 31
0.0
  0
TEXT
  5
690
100
AcDbEntity
  8
DIM_TEXT
100
AcDbText
 10
59.694168
 20
44.961725
 30
0.0
 40
1.125
  1
D
 51
15.0
  7
INFO
100
AcDbText
  0
ARC
  5
691
100
AcDbEntity
  8
DRAWING
100
AcDbCircle
 10
61.060238
 20
56.082055
 30
0.0
 40
3.024
100
AcDbArc
 50
180.0
 51
0.0
  0
CIRCLE
  5
692
100
AcDbEntity
  8
DRAWING
100
AcDbCircle
 10
59.436278
 20
55.071675
 30
0.0
 40
0.315
  0
CIRCLE
  5
693
100
AcDbEntity
  8
DRAWING
100
AcDbCircle
 10
59.436188
 20
58.106495
 30
0.0
 40
0.315
  0
LINE
  5
694
100
AcDbEntity
  8
DRAWING
100
AcDbLine
 10
56.020168
 20
56.082055
 30
0.0
 11
54.004188
 21
56.082055
 31
0.0
  0
CIRCLE
  5
695
100
AcDbEntity
  8
DRAWING
100
AcDbCircle
 10
52.827818
 20
55.071675
 30
0.0
 40
0.315
  0
LINE
  5
696
100
AcDbEntity
  8
DRAWING
100
AcDbLine
 10
58.036238
 20
56.082055
 30
0.0
 11
56.020168
 21
56.082055
 31
0.0
  0
CIRCLE
  5
697
100
AcDbEntity
  8
DRAWING
100
AcDbCircle
 10
52.827728
 20
58.106495
 30
0.0
 40
0.315
  0
LINE
  5
698
100
AcDbEntity
  8
DIM_TEXT
100
AcDbLine
 10
57.399688
 20
57.617595
 30
0.0
 11
57.447478
 21
58.811995
 31
0.0
  0
LINE
  5
699
100
AcDbEntity
  8
DIM_TEXT
100
AcDbLine
 10
57.399688
 20
57.617595
 30
0.0
 11
58.154538
 21
58.544495
 31
0.0
  0
LINE
  5
69A
100
AcDbEntity
  8
DIM_TEXT
100
AcDbLine
 10
57.447478
 20
58.811995
 30
0.0
 11
58.154538
 21
58.544495
 31
0.0
  0
CIRCLE
  5
69B
100
AcDbEntity
  8
DRAWING
100
AcDbCircle
 10
62.293998
 20
55.071675
 30
0.0
 40
0.315
  0
LINE
  5
69C
100
AcDbEntity
  8
DRAWING
100
AcDbLine
 10
66.100215
 20
56.082055
 30
0.0
 11
64.084238
 21
56.082055
 31
0.0
  0
CIRCLE
  5
69D
100
AcDbEntity
  8
DRAWING
100
AcDbCircle
 10
62.293908
 20
58.106495
 30
0.0
 40
0.315
  0
TEXT
  5
69E
100
AcDbEntity
  8
DIM_TEXT
100
AcDbText
 10
46.790828
 20
75.656595
 30
0.0
 40
1.134
  1
SLAB REINF.
 51
15.0
  7
INFO
100
AcDbText
  0
TEXT
  5
69F
100
AcDbEntity
  8
DIM_TEXT
100
AcDbText
 10
41.279358
 20
63.845595
 30
0.0
 40
1.125
  1
DOWEL LAP
 51
15.0
  7
INFO
100
AcDbText
  0
LINE
  5
6A0
100
AcDbEntity
  8
DIM_TEXT
100
AcDbLine
 10
45.719208
 20
76.371095
 30
0.0
 11
44.468958
 21
76.371095
 31
0.0
  0
LINE
  5
6A1
100
AcDbEntity
  8
DIM_TEXT
100
AcDbLine
 10
47.978908
 20
70.119995
 30
0.0
 11
45.527225
 21
65.46175
 31
0.0
  0
LINE
  5
6A2
100
AcDbEntity
  8
DIM_TEXT
100
AcDbLine
 10
44.468958
 20
76.371095
 30
0.0
 11
38.228088
 21
58.154695
 31
0.0
  0
LINE
  5
6A3
100
AcDbEntity
  8
DIM_TEXT
100
AcDbLine
 10
49.050538
 20
70.119995
 30
0.0
 11
47.978908
 21
70.119995
 31
0.0
  0
LINE
  5
6A4
100
AcDbEntity
  8
DIM_TEXT
100
AcDbLine
 10
62.400658
 20
64.217311
 30
0.0
 11
59.900178
 21
64.225895
 31
0.0
  0
LINE
  5
6A5
100
AcDbEntity
  8
DIM_TEXT
100
AcDbLine
 10
57.003258
 20
63.164995
 30
0.0
 11
57.753258
 21
63.914995
 31
0.0
  0
LINE
  5
6A6
100
AcDbEntity
  8
DIM_TEXT
100
AcDbLine
 10
57.864318
 20
67.279765
 30
0.0
 11
55.721068
 21
67.262295
 31
0.0
  0
LINE
  5
6A7
100
AcDbEntity
  8
DIM_TEXT
100
AcDbLine
 10
75.653926
 20
48.521995
 30
0.0
 11
75.653926
 21
59.021905
 31
0.0
  0
LINE
  5
6A8
100
AcDbEntity
  8
HATCH
100
AcDbLine
 10
66.937556
 20
52.035425
 30
0.0
 11
71.597591
 21
51.027795
 31
0.0
  0
LINE
  5
6A9
100
AcDbEntity
  8
DIM_TEXT
100
AcDbLine
 10
72.031367
 20
48.521995
 30
0.0
 11
75.653926
 21
48.521995
 31
0.0
  0
LINE
  5
6AA
100
AcDbEntity
  8
HATCH
100
AcDbLine
 10
71.597591
 20
51.027795
 30
0.0
 11
72.474299
 21
45.962915
 31
0.0
  0
TEXT
  5
6AB
100
AcDbEntity
  8
DIM_TEXT
100
AcDbText
 10
75.299617
 20
41.617085
 30
0.0
 40
1.125
  1
4 1/2
 50
90.0
 51
15.0
  7
INFO
100
AcDbText
  0
LINE
  5
6AC
100
AcDbEntity
  8
DIM_TEXT
100
AcDbLine
 10
75.278926
 20
48.896995
 30
0.0
 11
76.028926
 21
48.146995
 31
0.0
  0
LINE
  5
6AD
100
AcDbEntity
  8
DIM_TEXT
100
AcDbLine
 10
68.823505
 20
59.021995
 30
0.0
 11
75.653836
 21
59.021995
 31
0.0
  0
LINE
  5
6AE
100
AcDbEntity
  8
HATCH
100
AcDbLine
 10
69.186241
 20
56.926178
 30
0.0
 11
72.164936
 21
55.690291
 31
0.0
  0
LINE
  5
6AF
100
AcDbEntity
  8
HATCH
100
AcDbLine
 10
72.164936
 20
55.690291
 30
0.0
 11
66.937556
 21
52.035425
 31
0.0
  0
LINE
  5
6B0
100
AcDbEntity
  8
HATCH
100
AcDbLine
 10
68.252887
 20
62.318923
 30
0.0
 11
69.186241
 21
56.926178
 31
0.0
  0
ARC
  5
6B1
100
AcDbEntity
  8
DRAWING
100
AcDbCircle
 10
71.140193
 20
56.082055
 30
0.0
 40
3.024
100
AcDbArc
 50
180.0
 51
232.438987
  0
TEXT
  5
6B2
100
AcDbEntity
  8
DIM_TEXT
100
AcDbText
 10
75.139098
 20
53.205799
 30
0.0
 40
1.125
  1
VARIES
 50
90.0
 51
15.0
  7
INFO
100
AcDbText
  0
LINE
  5
6B3
100
AcDbEntity
  8
DIM_TEXT
100
AcDbLine
 10
76.028926
 20
52.683065
 30
0.0
 11
75.278926
 21
53.433065
 31
0.0
  0
LINE
  5
6B4
100
AcDbEntity
  8
DIM_TEXT
100
AcDbLine
 10
75.278926
 20
53.433065
 30
0.0
 11
76.028926
 21
52.683065
 31
0.0
  0
LINE
  5
6B5
100
AcDbEntity
  8
DIM_TEXT
100
AcDbLine
 10
76.028836
 20
58.646995
 30
0.0
 11
75.278836
 21
59.396995
 31
0.0
  0
TEXT
  5
6B6
100
AcDbEntity
  8
DRAWING
100
AcDbText
 10
21.450615
 20
4.961431
 30
0.0
 40
2.5
  1
WALL CONNECTION
  7
TITLE
 72
     1
 11
39.6649
 21
4.961431
 31
0.0
100
AcDbText
  0
LINE
  5
6B7
100
AcDbEntity
  8
HATCH
100
AcDbLine
 10
27.966858
 20
57.188161
 30
0.0
 11
27.966858
 21
57.188161
 31
0.0
  0
LINE
  5
6B8
100
AcDbEntity
  8
HATCH
100
AcDbLine
 10
27.494348
 20
57.188161
 30
0.0
 11
27.494348
 21
57.188161
 31
0.0
  0
LINE
  5
6B9
100
AcDbEntity
  8
HATCH
100
AcDbLine
 10
27.730648
 20
56.715761
 30
0.0
 11
27.730648
 21
56.715761
 31
0.0
  0
LINE
  5
6BA
100
AcDbEntity
  8
HATCH
100
AcDbLine
 10
27.730648
 20
58.605761
 30
0.0
 11
27.730648
 21
58.605761
 31
0.0
  0
LINE
  5
6BB
100
AcDbEntity
  8
HATCH
100
AcDbLine
 10
27.966858
 20
58.133161
 30
0.0
 11
27.966858
 21
58.133161
 31
0.0
  0
LINE
  5
6BC
100
AcDbEntity
  8
HATCH
100
AcDbLine
 10
27.494348
 20
58.133161
 30
0.0
 11
27.494348
 21
58.133161
 31
0.0
  0
LINE
  5
6BD
100
AcDbEntity
  8
HATCH
100
AcDbLine
 10
27.730648
 20
57.660761
 30
0.0
 11
27.730648
 21
57.660761
 31
0.0
  0
LINE
  5
6BE
100
AcDbEntity
  8
HATCH
100
AcDbLine
 10
28.911858
 20
57.188161
 30
0.0
 11
28.911858
 21
57.188161
 31
0.0
  0
LINE
  5
6BF
100
AcDbEntity
  8
HATCH
100
AcDbLine
 10
28.439358
 20
57.188161
 30
0.0
 11
28.439358
 21
57.188161
 31
0.0
  0
LINE
  5
6C0
100
AcDbEntity
  8
HATCH
100
AcDbLine
 10
28.675658
 20
56.715761
 30
0.0
 11
28.675658
 21
56.715761
 31
0.0
  0
LINE
  5
6C1
100
AcDbEntity
  8
HATCH
100
AcDbLine
 10
28.203148
 20
56.715761
 30
0.0
 11
28.203148
 21
56.715761
 31
0.0
  0
LINE
  5
6C2
100
AcDbEntity
  8
HATCH
100
AcDbLine
 10
29.148158
 20
56.715761
 30
0.0
 11
29.148158
 21
56.715761
 31
0.0
  0
LINE
  5
6C3
100
AcDbEntity
  8
HATCH
100
AcDbLine
 10
28.675658
 20
58.605761
 30
0.0
 11
28.675658
 21
58.605761
 31
0.0
  0
LINE
  5
6C4
100
AcDbEntity
  8
HATCH
100
AcDbLine
 10
28.911858
 20
58.133161
 30
0.0
 11
28.911858
 21
58.133161
 31
0.0
  0
LINE
  5
6C5
100
AcDbEntity
  8
HATCH
100
AcDbLine
 10
28.439358
 20
58.133161
 30
0.0
 11
28.439358
 21
58.133161
 31
0.0
  0
LINE
  5
6C6
100
AcDbEntity
  8
HATCH
100
AcDbLine
 10
28.675658
 20
57.660761
 30
0.0
 11
28.675658
 21
57.660761
 31
0.0
  0
LINE
  5
6C7
100
AcDbEntity
  8
HATCH
100
AcDbLine
 10
28.203148
 20
58.605761
 30
0.0
 11
28.203148
 21
58.605761
 31
0.0
  0
LINE
  5
6C8
100
AcDbEntity
  8
HATCH
100
AcDbLine
 10
28.203148
 20
57.660761
 30
0.0
 11
28.203148
 21
57.660761
 31
0.0
  0
LINE
  5
6C9
100
AcDbEntity
  8
HATCH
100
AcDbLine
 10
29.148158
 20
58.605761
 30
0.0
 11
29.148158
 21
58.605761
 31
0.0
  0
LINE
  5
6CA
100
AcDbEntity
  8
HATCH
100
AcDbLine
 10
29.148158
 20
57.660761
 30
0.0
 11
29.148158
 21
57.660761
 31
0.0
  0
INSERT
  5
6CB
100
AcDbEntity
  8
HATCH
100
AcDbBlockReference
  2
*X0
 10
0.0
 20
-6.125
 30
0.0
1001
ACAD
1000
HATCH
1002
{
1070
    16
1000
DOTS
1040
10.0
1040
0.0
1002
}
  0
INSERT
  5
6CC
100
AcDbEntity
  8
HATCH
100
AcDbBlockReference
  2
*X1
 10
0.0
 20
-6.125
 30
0.0
1001
ACAD
1000
HATCH
1002
{
1070
    16
1000
DOTS
1040
10.0
1040
0.0
1002
}
  0
INSERT
  5
6CD
100
AcDbEntity
  8
HATCH
100
AcDbBlockReference
  2
*X2
 10
0.0
 20
-6.125
 30
0.0
1001
ACAD
1000
HATCH
1002
{
1070
    16
1000
DOTS
1040
10.0
1040
0.0
1002
}
  0
INSERT
  5
6CE
100
AcDbEntity
  8
HATCH
100
AcDbBlockReference
  2
*X3
 10
0.0
 20
-6.125
 30
0.0
1001
ACAD
1000
HATCH
1002
{
1070
    16
1000
DOTS
1040
10.0
1040
0.0
1002
}
  0
INSERT
  5
6CF
100
AcDbEntity
  8
HATCH
100
AcDbBlockReference
  2
*X4
 10
0.0
 20
-6.125
 30
0.0
1001
ACAD
1000
HATCH
1002
{
1070
    16
1000
AR-SAND
1040
1.0
1040
0.0
1002
}
  0
TEXT
  5
6D5
100
AcDbEntity
  8
DIM_TEXT
100
AcDbText
 10
54.080292
 20
41.391373
 30
0.0
 40
1.125
  1
D= 12" OR 14"
 51
15.0
  7
INFO
100
AcDbText
  0
LINE
  5
6D6
100
AcDbEntity
  8
DIM_TEXT
100
AcDbLine
 10
37.429509
 20
39.98583
 30
0.0
 11
38.331849
 21
39.20177
 31
0.0
  0
LINE
  5
6D7
100
AcDbEntity
  8
DIM_TEXT
100
AcDbLine
 10
37.429509
 20
39.98583
 30
0.0
 11
37.680909
 21
38.81706
 31
0.0
  0
LINE
  5
6D8
100
AcDbEntity
  8
DIM_TEXT
100
AcDbLine
 10
42.073249
 20
32.12713
 30
0.0
 11
38.006379
 21
39.00951
 31
0.0
  0
LINE
  5
6D9
100
AcDbEntity
  8
DIM_TEXT
100
AcDbLine
 10
42.703679
 20
32.12713
 30
0.0
 11
42.167909
 21
32.12713
 31
0.0
  0
LINE
  5
6DA
100
AcDbEntity
  8
DIM_TEXT
100
AcDbLine
 10
37.680909
 20
38.81706
 30
0.0
 11
38.331849
 21
39.20177
 31
0.0
  0
ENDSEC
  0
SECTION
  2
OBJECTS
  0
DICTIONARY
  5
C
100
AcDbDictionary
  3
ACAD_GROUP
350
D
  3
ACAD_MLINESTYLE
350
1A
  3
ACDBVARIABLEDICTIONARY
350
2E
  0
DICTIONARY
  5
D
102
{ACAD_REACTORS
330
C
102
}
100
AcDbDictionary
  0
DICTIONARY
  5
1A
102
{ACAD_REACTORS
330
C
102
}
100
AcDbDictionary
  3
STANDARD
350
1B
  0
DICTIONARY
  5
2E
102
{ACAD_REACTORS
330
C
102
}
100
AcDbDictionary
  3
DIMADEC
350
2F
  0
MLINESTYLE
  5
1B
102
{ACAD_REACTORS
330
1A
102
}
100
AcDbMlineStyle
  2
STANDARD
 70
     0
  3

 62
   256
 51
90.0
 52
90.0
 71
     2
 49
0.5
 62
   256
  6
BYLAYER
 49
-0.5
 62
   256
  6
BYLAYER
  0
DICTIONARYVAR
  5
2F
102
{ACAD_REACTORS
330
2E
102
}
100
DictionaryVariables
280
     0
  1
0
  0
ENDSEC
  0
EOF
