  0
SECTION
  2
HEADER
  9
$ACADVER
  1
AC1014
  9
$ACADMAINTVER
 70
     8
  9
$DWGCODEPAGE
  3
ANSI_1252
  9
$INSBASE
 10
0.0
 20
0.0
 30
0.0
  9
$EXTMIN
 10
5.259517
 20
5.086431
 30
0.0
  9
$EXTMAX
 10
82.534599
 20
68.744781
 30
0.0
  9
$LIMMIN
 10
0.0
 20
0.0
  9
$LIMMAX
 10
85.0
 20
110.0
  9
$ORTHOMODE
 70
     1
  9
$REGENMODE
 70
     1
  9
$FILLMODE
 70
     1
  9
$QTEXTMODE
 70
     0
  9
$MIRRTEXT
 70
     1
  9
$DRAGMODE
 70
     2
  9
$LTSCALE
 40
3.0
  9
$OSMODE
 70
    37
  9
$ATTMODE
 70
     1
  9
$TEXTSIZE
 40
0.2
  9
$TRACEWID
 40
0.05
  9
$TEXTSTYLE
  7
STANDARD
  9
$CLAYER
  8
0
  9
$CELTYPE
  6
BYLAYER
  9
$CECOLOR
 62
   256
  9
$CELTSCALE
 40
1.0
  9
$DELOBJ
 70
     1
  9
$DISPSILH
 70
     0
  9
$DIMSCALE
 40
1.0
  9
$DIMASZ
 40
0.0
  9
$DIMEXO
 40
0.5
  9
$DIMDLI
 40
1.0
  9
$DIMRND
 40
0.0
  9
$DIMDLE
 40
0.0
  9
$DIMEXE
 40
0.5
  9
$DIMTP
 40
0.0
  9
$DIMTM
 40
0.0
  9
$DIMTXT
 40
1.125
  9
$DIMCEN
 40
0.0625
  9
$DIMTSZ
 40
0.5
  9
$DIMTOL
 70
     0
  9
$DIMLIM
 70
     0
  9
$DIMTIH
 70
     1
  9
$DIMTOH
 70
     1
  9
$DIMSE1
 70
     0
  9
$DIMSE2
 70
     0
  9
$DIMTAD
 70
     0
  9
$DIMZIN
 70
     0
  9
$DIMBLK
  1

  9
$DIMASO
 70
     1
  9
$DIMSHO
 70
     1
  9
$DIMPOST
  1

  9
$DIMAPOST
  1

  9
$DIMALT
 70
     0
  9
$DIMALTD
 70
     2
  9
$DIMALTF
 40
25.4
  9
$DIMLFAC
 40
1.0
  9
$DIMTOFL
 70
     0
  9
$DIMTVP
 40
0.0
  9
$DIMTIX
 70
     0
  9
$DIMSOXD
 70
     0
  9
$DIMSAH
 70
     0
  9
$DIMBLK1
  1

  9
$DIMBLK2
  1

  9
$DIMSTYLE
  2
STANDARD
  9
$DIMCLRD
 70
     0
  9
$DIMCLRE
 70
     0
  9
$DIMCLRT
 70
     0
  9
$DIMTFAC
 40
0.666667
  9
$DIMGAP
 40
0.5
  9
$DIMJUST
 70
     0
  9
$DIMSD1
 70
     0
  9
$DIMSD2
 70
     0
  9
$DIMTOLJ
 70
     1
  9
$DIMTZIN
 70
     0
  9
$DIMALTZ
 70
     0
  9
$DIMALTTZ
 70
     0
  9
$DIMFIT
 70
     5
  9
$DIMUPT
 70
     0
  9
$DIMUNIT
 70
     4
  9
$DIMDEC
 70
     4
  9
$DIMTDEC
 70
     4
  9
$DIMALTU
 70
     4
  9
$DIMALTTD
 70
     2
  9
$DIMTXSTY
  7
STANDARD
  9
$DIMAUNIT
 70
     2
  9
$LUNITS
 70
     4
  9
$LUPREC
 70
     4
  9
$SKETCHINC
 40
0.1
  9
$FILLETRAD
 40
0.0
  9
$AUNITS
 70
     2
  9
$AUPREC
 70
     0
  9
$MENU
  1
acad
  9
$ELEVATION
 40
0.0
  9
$PELEVATION
 40
0.0
  9
$THICKNESS
 40
0.0
  9
$LIMCHECK
 70
     0
  9
$BLIPMODE
 70
     1
  9
$CHAMFERA
 40
0.0
  9
$CHAMFERB
 40
0.0
  9
$CHAMFERC
 40
0.0
  9
$CHAMFERD
 40
0.0
  9
$SKPOLY
 70
     0
  9
$TDCREATE
 40
2451170.790483912
  9
$TDUPDATE
 40
2452234.630165046
  9
$TDINDWG
 40
0.0487648148
  9
$TDUSRTIMER
 40
0.0487648148
  9
$USRTIMER
 70
     1
  9
$ANGBASE
 50
0.0
  9
$ANGDIR
 70
     0
  9
$PDMODE
 70
     0
  9
$PDSIZE
 40
0.0
  9
$PLINEWID
 40
0.0
  9
$COORDS
 70
     1
  9
$SPLFRAME
 70
     0
  9
$SPLINETYPE
 70
     6
  9
$SPLINESEGS
 70
     8
  9
$ATTDIA
 70
     0
  9
$ATTREQ
 70
     1
  9
$HANDLING
 70
     1
  9
$HANDSEED
  5
24C
  9
$SURFTAB1
 70
     6
  9
$SURFTAB2
 70
     6
  9
$SURFTYPE
 70
     6
  9
$SURFU
 70
     6
  9
$SURFV
 70
     6
  9
$UCSNAME
  2

  9
$UCSORG
 10
0.0
 20
0.0
 30
0.0
  9
$UCSXDIR
 10
1.0
 20
0.0
 30
0.0
  9
$UCSYDIR
 10
0.0
 20
1.0
 30
0.0
  9
$PUCSNAME
  2

  9
$PUCSORG
 10
0.0
 20
0.0
 30
0.0
  9
$PUCSXDIR
 10
1.0
 20
0.0
 30
0.0
  9
$PUCSYDIR
 10
0.0
 20
1.0
 30
0.0
  9
$USERI1
 70
     0
  9
$USERI2
 70
     0
  9
$USERI3
 70
     0
  9
$USERI4
 70
     0
  9
$USERI5
 70
     0
  9
$USERR1
 40
0.0
  9
$USERR2
 40
0.0
  9
$USERR3
 40
0.0
  9
$USERR4
 40
0.0
  9
$USERR5
 40
0.0
  9
$WORLDVIEW
 70
     1
  9
$SHADEDGE
 70
     3
  9
$SHADEDIF
 70
    70
  9
$TILEMODE
 70
     1
  9
$MAXACTVP
 70
    16
  9
$PINSBASE
 10
0.0
 20
0.0
 30
0.0
  9
$PLIMCHECK
 70
     0
  9
$PEXTMIN
 10
1.000000E+20
 20
1.000000E+20
 30
1.000000E+20
  9
$PEXTMAX
 10
-1.000000E+20
 20
-1.000000E+20
 30
-1.000000E+20
  9
$PLIMMIN
 10
0.0
 20
0.0
  9
$PLIMMAX
 10
12.0
 20
9.0
  9
$UNITMODE
 70
     0
  9
$VISRETAIN
 70
     0
  9
$PLINEGEN
 70
     0
  9
$PSLTSCALE
 70
     1
  9
$TREEDEPTH
 70
  3020
  9
$PICKSTYLE
 70
     1
  9
$CMLSTYLE
  2
STANDARD
  9
$CMLJUST
 70
     0
  9
$CMLSCALE
 40
1.0
  9
$PROXYGRAPHICS
 70
     1
  9
$MEASUREMENT
 70
     0
  0
ENDSEC
  0
SECTION
  2
CLASSES
  0
CLASS
  1
DICTIONARYVAR
  2
AcDbDictionaryVar
  3
"AutoCAD"
 90
        0
280
     0
281
     0
  0
ENDSEC
  0
SECTION
  2
TABLES
  0
TABLE
  2
VPORT
  5
8
100
AcDbSymbolTable
 70
     1
  0
VPORT
  5
246
100
AcDbSymbolTableRecord
100
AcDbViewportTableRecord
  2
*ACTIVE
 70
     0
 10
0.0
 20
0.0
 11
1.0
 21
1.0
 12
50.562242
 22
35.72005
 13
0.0
 23
0.0
 14
1.0
 24
1.0
 15
1.0
 25
1.0
 16
0.0
 26
0.0
 36
1.0
 17
0.0
 27
0.0
 37
0.0
 40
79.719722
 41
1.474388
 42
50.0
 43
0.0
 44
0.0
 50
0.0
 51
0.0
 71
     0
 72
   100
 73
     1
 74
     1
 75
     0
 76
     0
 77
     0
 78
     0
  0
ENDTAB
  0
TABLE
  2
LTYPE
  5
5
100
AcDbSymbolTable
 70
     1
  0
LTYPE
  5
11
100
AcDbSymbolTableRecord
100
AcDbLinetypeTableRecord
  2
BYBLOCK
 70
     0
  3

 72
    65
 73
     0
 40
0.0
  0
LTYPE
  5
12
100
AcDbSymbolTableRecord
100
AcDbLinetypeTableRecord
  2
BYLAYER
 70
     0
  3

 72
    65
 73
     0
 40
0.0
  0
LTYPE
  5
13
100
AcDbSymbolTableRecord
100
AcDbLinetypeTableRecord
  2
CONTINUOUS
 70
     0
  3
Solid line
 72
    65
 73
     0
 40
0.0
  0
ENDTAB
  0
TABLE
  2
LAYER
  5
2
100
AcDbSymbolTable
 70
     4
  0
LAYER
  5
E
100
AcDbSymbolTableRecord
100
AcDbLayerTableRecord
  2
0
 70
     0
 62
     7
  6
CONTINUOUS
  0
LAYER
  5
22
100
AcDbSymbolTableRecord
100
AcDbLayerTableRecord
  2
DRAWING
 70
     0
 62
     7
  6
CONTINUOUS
  0
LAYER
  5
23
100
AcDbSymbolTableRecord
100
AcDbLayerTableRecord
  2
HATCH
 70
     0
 62
     3
  6
CONTINUOUS
  0
LAYER
  5
24
100
AcDbSymbolTableRecord
100
AcDbLayerTableRecord
  2
DIM_TEXT
 70
     0
 62
     6
  6
CONTINUOUS
  0
ENDTAB
  0
TABLE
  2
STYLE
  5
3
100
AcDbSymbolTable
 70
     3
  0
STYLE
  5
F
100
AcDbSymbolTableRecord
100
AcDbTextStyleTableRecord
  2
STANDARD
 70
     0
 40
0.0
 41
1.0
 50
0.0
 71
     0
 42
0.2
  3
txt
  4

  0
STYLE
  5
1C
100
AcDbSymbolTableRecord
100
AcDbTextStyleTableRecord
  2
INFO
 70
     0
 40
0.0
 41
1.0
 50
15.0
 71
     0
 42
1.08
  3
C:\ACADWIN\FONTS\ROMANS.SHX
  4

  0
STYLE
  5
1D
100
AcDbSymbolTableRecord
100
AcDbTextStyleTableRecord
  2
TITLE
 70
     0
 40
0.0
 41
1.0
 50
0.0
 71
     0
 42
2.8
  3
C:\ACADWIN\FONTS\ROMANC.SHX
  4

  0
ENDTAB
  0
TABLE
  2
VIEW
  5
6
100
AcDbSymbolTable
 70
     0
  0
ENDTAB
  0
TABLE
  2
UCS
  5
7
100
AcDbSymbolTable
 70
     0
  0
ENDTAB
  0
TABLE
  2
APPID
  5
9
100
AcDbSymbolTable
 70
     2
  0
APPID
  5
10
100
AcDbSymbolTableRecord
100
AcDbRegAppTableRecord
  2
ACAD
 70
     0
  0
APPID
  5
21
100
AcDbSymbolTableRecord
100
AcDbRegAppTableRecord
  2
ZIMM
 70
     0
  0
ENDTAB
  0
TABLE
  2
DIMSTYLE
  5
A
100
AcDbSymbolTable
 70
     1
  0
DIMSTYLE
105
22D
100
AcDbSymbolTableRecord
100
AcDbDimStyleTableRecord
  2
STANDARD
 70
     0
  3

  4

  5

  6

  7

 40
1.0
 41
0.18
 42
0.0625
 43
0.38
 44
0.18
 45
0.0
 46
0.0
 47
0.0
 48
0.0
140
0.18
141
0.09
142
0.0
143
25.4
144
1.0
145
0.0
146
1.0
147
0.09
 71
     0
 72
     0
 73
     1
 74
     1
 75
     0
 76
     0
 77
     0
 78
     0
170
     0
171
     2
172
     0
173
     0
174
     0
175
     0
176
     0
177
     0
178
     0
270
     2
271
     4
272
     4
273
     2
274
     2
340
F
275
     0
280
     0
281
     0
282
     0
283
     1
284
     0
285
     0
286
     0
287
     3
288
     0
  0
ENDTAB
  0
TABLE
  2
BLOCK_RECORD
  5
1
100
AcDbSymbolTable
 70
     0
  0
BLOCK_RECORD
  5
17
100
AcDbSymbolTableRecord
100
AcDbBlockTableRecord
  2
*MODEL_SPACE
  0
BLOCK_RECORD
  5
14
100
AcDbSymbolTableRecord
100
AcDbBlockTableRecord
  2
*PAPER_SPACE
  0
ENDTAB
  0
ENDSEC
  0
SECTION
  2
BLOCKS
  0
BLOCK
  5
27
100
AcDbEntity
  8
0
100
AcDbBlockBegin
  2
*MODEL_SPACE
 70
     0
 10
0.0
 20
0.0
 30
0.0
  3
*MODEL_SPACE
  1

  0
ENDBLK
  5
28
100
AcDbEntity
  8
0
100
AcDbBlockEnd
  0
BLOCK
  5
25
100
AcDbEntity
 67
     1
  8
0
100
AcDbBlockBegin
  2
*PAPER_SPACE
 70
     0
 10
0.0
 20
0.0
 30
0.0
  3
*PAPER_SPACE
  1

  0
ENDBLK
  5
26
100
AcDbEntity
 67
     1
  8
0
100
AcDbBlockEnd
  0
ENDSEC
  0
SECTION
  2
ENTITIES
  0
TEXT
  5
2B
100
AcDbEntity
  8
DRAWING
100
AcDbText
 10
21.897224
 20
10.086431
 30
0.0
 40
2.5
  1
RASTRA FLOOR TO
  7
TITLE
 72
     1
 11
40.290081
 21
10.086431
 31
0.0
100
AcDbText
  0
LINE
  5
2D
100
AcDbEntity
  8
DIM_TEXT
100
AcDbLine
 10
38.542417
 20
30.097924
 30
0.0
 11
50.029117
 21
30.097924
 31
0.0
  0
LINE
  5
2E
100
AcDbEntity
  8
DIM_TEXT
100
AcDbLine
 10
39.792717
 20
44.840324
 30
0.0
 11
50.029117
 21
44.840324
 31
0.0
  0
LINE
  5
2F
100
AcDbEntity
  8
HATCH
100
AcDbLine
 10
40.121191
 20
20.41229
 30
0.0
 11
41.134253
 21
22.843702
 31
0.0
  0
ARC
  5
30
100
AcDbEntity
  8
DRAWING
100
AcDbCircle
 10
39.155859
 20
31.336988
 30
0.0
 40
3.125
100
AcDbArc
 50
181.527481
 51
0.00001
  0
ARC
  5
31
100
AcDbEntity
  8
DRAWING
100
AcDbCircle
 10
39.155867
 20
31.336988
 30
0.0
 40
3.0
100
AcDbArc
 50
0.0
 51
180.000005
  0
ARC
  5
32
100
AcDbEntity
  8
DRAWING
100
AcDbCircle
 10
39.155867
 20
46.336988
 30
0.0
 40
3.0
100
AcDbArc
 50
180.000005
 51
0.00001
  0
LINE
  5
33
100
AcDbEntity
  8
HATCH
100
AcDbLine
 10
40.62364
 20
35.978742
 30
0.0
 11
40.682478
 21
36.000104
 31
0.0
  0
LINE
  5
34
100
AcDbEntity
  8
DIM_TEXT
100
AcDbLine
 10
38.542417
 20
59.445488
 30
0.0
 11
62.772217
 21
59.445488
 31
0.0
  0
LINE
  5
35
100
AcDbEntity
  8
DRAWING
100
AcDbLine
 10
17.494917
 20
55.408888
 30
0.0
 11
71.681017
 21
55.409088
 31
0.0
  0
LINE
  5
36
100
AcDbEntity
  8
DRAWING
100
AcDbLine
 10
17.010017
 20
53.577288
 30
0.0
 11
72.158917
 21
53.577288
 31
0.0
  0
LINE
  5
37
100
AcDbEntity
  8
DRAWING
100
AcDbLine
 10
62.734417
 20
54.827388
 30
0.0
 11
39.046417
 21
54.827388
 31
0.0
  0
TEXT
  5
38
100
AcDbEntity
  8
DIM_TEXT
100
AcDbText
 10
32.733822
 20
66.539488
 30
0.0
 40
1.134
  1
CONT. REINF.
 51
15.0
  7
INFO
100
AcDbText
  0
LINE
  5
3A
100
AcDbEntity
  8
DIM_TEXT
100
AcDbLine
 10
45.865217
 20
66.896788
 30
0.0
 11
39.960636
 21
55.193079
 31
0.0
  0
LINE
  5
3B
100
AcDbEntity
  8
DRAWING
100
AcDbLine
 10
29.167617
 20
52.385088
 30
0.0
 11
29.167617
 21
46.336988
 31
0.0
  0
LINE
  5
3C
100
AcDbEntity
  8
DRAWING
100
AcDbLine
 10
29.167617
 20
46.336988
 30
0.0
 11
29.167617
 21
52.385088
 31
0.0
  0
LINE
  5
3D
100
AcDbEntity
  8
DRAWING
100
AcDbLine
 10
38.542417
 20
54.323488
 30
0.0
 11
38.542417
 21
30.097924
 31
0.0
  0
CIRCLE
  5
3E
100
AcDbEntity
  8
DRAWING
100
AcDbCircle
 10
37.113617
 20
46.790188
 30
0.0
 40
0.315
  0
LINE
  5
3F
100
AcDbEntity
  8
HATCH
100
AcDbLine
 10
15.874917
 20
49.289188
 30
0.0
 11
14.788017
 21
45.182888
 31
0.0
  0
TEXT
  5
40
100
AcDbEntity
  8
DIM_TEXT
100
AcDbText
 10
6.750717
 20
43.173488
 30
0.0
 40
1.134
  1
4 1/2"
 50
90.0
 51
15.0
  7
INFO
100
AcDbText
  0
LINE
  5
41
100
AcDbEntity
  8
DIM_TEXT
100
AcDbLine
 10
7.087117
 20
46.715088
 30
0.0
 11
7.843117
 21
45.958988
 31
0.0
  0
LINE
  5
42
100
AcDbEntity
  8
DIM_TEXT
100
AcDbLine
 10
7.465117
 20
46.336988
 30
0.0
 11
7.465117
 21
49.381988
 31
0.0
  0
LINE
  5
44
100
AcDbEntity
  8
DRAWING
100
AcDbLine
 10
19.087617
 20
50.795188
 30
0.0
 11
19.087617
 21
46.336988
 31
0.0
  0
LINE
  5
45
100
AcDbEntity
  8
DRAWING
100
AcDbLine
 10
19.087617
 20
46.336988
 30
0.0
 11
19.087617
 21
50.795188
 31
0.0
  0
TEXT
  5
46
100
AcDbEntity
  8
DIM_TEXT
100
AcDbText
 10
7.465117
 20
25.025524
 30
0.0
 40
1.134
  1
RASTRA WALL
 51
15.0
  7
INFO
100
AcDbText
  0
LINE
  5
49
100
AcDbEntity
  8
DIM_TEXT
100
AcDbLine
 10
14.085517
 20
46.336988
 30
0.0
 11
7.465117
 21
46.336988
 31
0.0
  0
LINE
  5
4A
100
AcDbEntity
  8
DRAWING
100
AcDbLine
 10
19.087617
 20
46.336988
 30
0.0
 11
29.167617
 21
46.336988
 31
0.0
  0
LINE
  5
4C
100
AcDbEntity
  8
DIM_TEXT
100
AcDbLine
 10
23.435094
 20
25.739824
 30
0.0
 11
33.396917
 21
29.727724
 31
0.0
  0
LINE
  5
4D
100
AcDbEntity
  8
DIM_TEXT
100
AcDbLine
 10
22.184994
 20
25.739824
 30
0.0
 11
23.435094
 21
25.739824
 31
0.0
  0
LINE
  5
4F
100
AcDbEntity
  8
DRAWING
100
AcDbLine
 10
15.093517
 20
46.336988
 30
0.0
 11
19.087617
 21
46.336988
 31
0.0
  0
LINE
  5
52
100
AcDbEntity
  8
DIM_TEXT
100
AcDbLine
 10
22.392917
 20
46.396988
 30
0.0
 11
22.429117
 21
46.448688
 31
0.0
  0
LINE
  5
53
100
AcDbEntity
  8
DRAWING
100
AcDbLine
 10
39.792717
 20
44.850524
 30
0.0
 11
39.792617
 21
20.756824
 31
0.0
  0
LINE
  5
54
100
AcDbEntity
  8
DRAWING
100
AcDbLine
 10
34.155867
 20
46.336988
 30
0.0
 11
34.155867
 21
31.336988
 31
0.0
  0
LINE
  5
55
100
AcDbEntity
  8
DRAWING
100
AcDbLine
 10
36.030867
 20
46.336988
 30
0.0
 11
36.030867
 21
31.336988
 31
0.0
  0
LINE
  5
56
100
AcDbEntity
  8
DIM_TEXT
100
AcDbLine
 10
34.477917
 20
30.070124
 30
0.0
 11
33.282717
 21
30.088024
 31
0.0
  0
LINE
  5
57
100
AcDbEntity
  8
DIM_TEXT
100
AcDbLine
 10
34.477917
 20
30.070124
 30
0.0
 11
33.511017
 21
29.367324
 31
0.0
  0
LINE
  5
58
100
AcDbEntity
  8
HATCH
100
AcDbLine
 10
33.388052
 20
21.829801
 30
0.0
 11
37.487402
 21
22.366361
 31
0.0
  0
LINE
  5
59
100
AcDbEntity
  8
DIM_TEXT
100
AcDbLine
 10
33.511017
 20
29.367324
 30
0.0
 11
33.282717
 21
30.088024
 31
0.0
  0
LINE
  5
5A
100
AcDbEntity
  8
DRAWING
100
AcDbLine
 10
34.155867
 20
31.336988
 30
0.0
 11
34.155867
 21
21.930296
 31
0.0
  0
LINE
  5
5B
100
AcDbEntity
  8
DRAWING
100
AcDbLine
 10
36.030867
 20
31.336988
 30
0.0
 11
36.030867
 21
22.175718
 31
0.0
  0
LINE
  5
5C
100
AcDbEntity
  8
HATCH
100
AcDbLine
 10
38.34931
 20
24.664793
 30
0.0
 11
40.121191
 21
20.41229
 31
0.0
  0
LINE
  5
5D
100
AcDbEntity
  8
HATCH
100
AcDbLine
 10
34.607283
 20
22.137449
 30
0.0
 11
34.607283
 21
22.137449
 31
0.0
  0
LINE
  5
5E
100
AcDbEntity
  8
HATCH
100
AcDbLine
 10
34.607267
 20
24.347166
 30
0.0
 11
34.607267
 21
24.347166
 31
0.0
  0
LINE
  5
5F
100
AcDbEntity
  8
HATCH
100
AcDbLine
 10
34.883497
 20
23.518522
 30
0.0
 11
34.883497
 21
23.518522
 31
0.0
  0
LINE
  5
60
100
AcDbEntity
  8
HATCH
100
AcDbLine
 10
35.159712
 20
22.689878
 30
0.0
 11
35.159712
 21
22.689878
 31
0.0
  0
LINE
  5
61
100
AcDbEntity
  8
HATCH
100
AcDbLine
 10
34.607267
 20
26.556882
 30
0.0
 11
34.607267
 21
26.556882
 31
0.0
  0
LINE
  5
62
100
AcDbEntity
  8
HATCH
100
AcDbLine
 10
34.883482
 20
25.728239
 30
0.0
 11
34.883482
 21
25.728239
 31
0.0
  0
LINE
  5
63
100
AcDbEntity
  8
HATCH
100
AcDbLine
 10
35.159697
 20
24.899595
 30
0.0
 11
35.159697
 21
24.899595
 31
0.0
  0
LINE
  5
64
100
AcDbEntity
  8
HATCH
100
AcDbLine
 10
35.435926
 20
24.070951
 30
0.0
 11
35.435926
 21
24.070951
 31
0.0
  0
LINE
  5
65
100
AcDbEntity
  8
HATCH
100
AcDbLine
 10
35.712141
 20
23.242307
 30
0.0
 11
35.712141
 21
23.242307
 31
0.0
  0
LINE
  5
66
100
AcDbEntity
  8
HATCH
100
AcDbLine
 10
35.435911
 20
26.280668
 30
0.0
 11
35.435911
 21
26.280668
 31
0.0
  0
LINE
  5
67
100
AcDbEntity
  8
HATCH
100
AcDbLine
 10
35.712126
 20
25.452024
 30
0.0
 11
35.712126
 21
25.452024
 31
0.0
  0
LINE
  5
68
100
AcDbEntity
  8
HATCH
100
AcDbLine
 10
36.564314
 20
24.822156
 30
0.0
 11
36.623152
 21
24.843519
 31
0.0
  0
LINE
  5
69
100
AcDbEntity
  8
DRAWING
100
AcDbLine
 10
36.030867
 20
31.336988
 30
0.0
 11
34.155867
 21
31.336988
 31
0.0
  0
LINE
  5
6A
100
AcDbEntity
  8
DRAWING
100
AcDbLine
 10
34.155867
 20
31.336988
 30
0.0
 11
36.030867
 21
31.336988
 31
0.0
  0
LINE
  5
6B
100
AcDbEntity
  8
DRAWING
100
AcDbLine
 10
36.030867
 20
31.336988
 30
0.0
 11
34.155867
 21
31.336988
 31
0.0
  0
LINE
  5
6C
100
AcDbEntity
  8
DRAWING
100
AcDbLine
 10
34.155867
 20
31.336988
 30
0.0
 11
36.030867
 21
31.336988
 31
0.0
  0
LINE
  5
6D
100
AcDbEntity
  8
HATCH
100
AcDbLine
 10
34.607252
 20
28.766599
 30
0.0
 11
34.607252
 21
28.766599
 31
0.0
  0
LINE
  5
6E
100
AcDbEntity
  8
HATCH
100
AcDbLine
 10
34.883467
 20
27.937955
 30
0.0
 11
34.883467
 21
27.937955
 31
0.0
  0
LINE
  5
6F
100
AcDbEntity
  8
HATCH
100
AcDbLine
 10
35.159697
 20
27.109312
 30
0.0
 11
35.159697
 21
27.109312
 31
0.0
  0
LINE
  5
70
100
AcDbEntity
  8
HATCH
100
AcDbLine
 10
34.607237
 20
30.976316
 30
0.0
 11
34.607237
 21
30.976316
 31
0.0
  0
LINE
  5
71
100
AcDbEntity
  8
HATCH
100
AcDbLine
 10
34.883467
 20
30.147672
 30
0.0
 11
34.883467
 21
30.147672
 31
0.0
  0
LINE
  5
72
100
AcDbEntity
  8
HATCH
100
AcDbLine
 10
35.159681
 20
29.319028
 30
0.0
 11
35.159681
 21
29.319028
 31
0.0
  0
LINE
  5
73
100
AcDbEntity
  8
HATCH
100
AcDbLine
 10
35.435896
 20
28.490385
 30
0.0
 11
35.435896
 21
28.490385
 31
0.0
  0
LINE
  5
74
100
AcDbEntity
  8
HATCH
100
AcDbLine
 10
35.712126
 20
27.661741
 30
0.0
 11
35.712126
 21
27.661741
 31
0.0
  0
LINE
  5
75
100
AcDbEntity
  8
HATCH
100
AcDbLine
 10
36.820906
 20
28.878309
 30
0.0
 11
36.856794
 21
28.929517
 31
0.0
  0
LINE
  5
76
100
AcDbEntity
  8
HATCH
100
AcDbLine
 10
35.435896
 20
30.700101
 30
0.0
 11
35.435896
 21
30.700101
 31
0.0
  0
LINE
  5
77
100
AcDbEntity
  8
DRAWING
100
AcDbLine
 10
35.988325
 20
31.252531
 30
0.0
 11
35.988325
 21
31.252531
 31
0.0
  0
LINE
  5
78
100
AcDbEntity
  8
HATCH
100
AcDbLine
 10
35.712111
 20
29.871458
 30
0.0
 11
35.712111
 21
29.871458
 31
0.0
  0
LINE
  5
79
100
AcDbEntity
  8
HATCH
100
AcDbLine
 10
37.487402
 20
22.366361
 30
0.0
 11
38.34931
 21
24.664793
 31
0.0
  0
LINE
  5
7A
100
AcDbEntity
  8
HATCH
100
AcDbLine
 10
37.419287
 20
22.472913
 30
0.0
 11
37.478125
 21
22.494276
 31
0.0
  0
LINE
  5
7B
100
AcDbEntity
  8
HATCH
100
AcDbLine
 10
37.733007
 20
23.980848
 30
0.0
 11
37.74375
 21
24.042402
 31
0.0
  0
LINE
  5
7C
100
AcDbEntity
  8
HATCH
100
AcDbLine
 10
37.434912
 20
25.396467
 30
0.0
 11
37.4708
 21
25.447675
 31
0.0
  0
LINE
  5
7D
100
AcDbEntity
  8
HATCH
100
AcDbLine
 10
38.167089
 20
26.442884
 30
0.0
 11
38.177832
 21
26.504438
 31
0.0
  0
LINE
  5
7E
100
AcDbEntity
  8
HATCH
100
AcDbLine
 10
39.482763
 20
23.962598
 30
0.0
 11
39.518652
 21
24.013807
 31
0.0
  0
LINE
  5
7F
100
AcDbEntity
  8
HATCH
100
AcDbLine
 10
40.194677
 20
23.546766
 30
0.0
 11
40.20542
 21
23.60832
 31
0.0
  0
LINE
  5
80
100
AcDbEntity
  8
HATCH
100
AcDbLine
 10
38.913672
 20
25.677198
 30
0.0
 11
38.972509
 21
25.69856
 31
0.0
  0
LINE
  5
81
100
AcDbEntity
  8
HATCH
100
AcDbLine
 10
40.628759
 20
26.008802
 30
0.0
 11
40.639502
 21
26.070356
 31
0.0
  0
LINE
  5
82
100
AcDbEntity
  8
HATCH
100
AcDbLine
 10
38.868994
 20
27.444349
 30
0.0
 11
38.904882
 21
27.495557
 31
0.0
  0
LINE
  5
83
100
AcDbEntity
  8
HATCH
100
AcDbLine
 10
38.058691
 20
28.026472
 30
0.0
 11
38.117529
 21
28.047834
 31
0.0
  0
LINE
  5
84
100
AcDbEntity
  8
HATCH
100
AcDbLine
 10
38.261084
 20
29.076337
 30
0.0
 11
38.247412
 21
28.999403
 31
0.0
  0
LINE
  5
85
100
AcDbEntity
  8
HATCH
100
AcDbLine
 10
37.356306
 20
31.224775
 30
0.0
 11
37.311384
 21
31.16078
 31
0.0
  0
LINE
  5
86
100
AcDbEntity
  8
HATCH
100
AcDbLine
 10
39.675146
 20
29.216413
 30
0.0
 11
39.60166
 21
29.18968
 31
0.0
  0
LINE
  5
87
100
AcDbEntity
  8
HATCH
100
AcDbLine
 10
39.406347
 20
30.049116
 30
0.0
 11
39.361425
 21
29.98512
 31
0.0
  0
LINE
  5
88
100
AcDbEntity
  8
DRAWING
100
AcDbLine
 10
29.167617
 20
46.336988
 30
0.0
 11
35.155867
 21
46.336988
 31
0.0
  0
LINE
  5
89
100
AcDbEntity
  8
HATCH
100
AcDbLine
 10
32.472817
 20
46.396988
 30
0.0
 11
32.509117
 21
46.448688
 31
0.0
  0
LINE
  5
8A
100
AcDbEntity
  8
HATCH
100
AcDbLine
 10
34.607313
 20
32.718015
 30
0.0
 11
34.607313
 21
32.718015
 31
0.0
  0
LINE
  5
8B
100
AcDbEntity
  8
HATCH
100
AcDbLine
 10
35.159742
 20
33.270444
 30
0.0
 11
35.159742
 21
33.270444
 31
0.0
  0
LINE
  5
8C
100
AcDbEntity
  8
HATCH
100
AcDbLine
 10
34.708372
 20
31.889387
 30
0.0
 11
34.708372
 21
31.889387
 31
0.0
  0
LINE
  5
8D
100
AcDbEntity
  8
HATCH
100
AcDbLine
 10
35.260801
 20
32.441816
 30
0.0
 11
35.260801
 21
32.441816
 31
0.0
  0
LINE
  5
8E
100
AcDbEntity
  8
HATCH
100
AcDbLine
 10
34.607298
 20
34.927732
 30
0.0
 11
34.607298
 21
34.927732
 31
0.0
  0
LINE
  5
8F
100
AcDbEntity
  8
HATCH
100
AcDbLine
 10
35.159727
 20
35.480161
 30
0.0
 11
35.159727
 21
35.480161
 31
0.0
  0
LINE
  5
90
100
AcDbEntity
  8
HATCH
100
AcDbLine
 10
34.883513
 20
34.099104
 30
0.0
 11
34.883513
 21
34.099104
 31
0.0
  0
LINE
  5
91
100
AcDbEntity
  8
HATCH
100
AcDbLine
 10
35.712172
 20
33.822874
 30
0.0
 11
35.712172
 21
33.822874
 31
0.0
  0
LINE
  5
92
100
AcDbEntity
  8
HATCH
100
AcDbLine
 10
35.537031
 20
31.613157
 30
0.0
 11
35.537031
 21
31.613157
 31
0.0
  0
LINE
  5
93
100
AcDbEntity
  8
HATCH
100
AcDbLine
 10
35.712156
 20
36.03259
 30
0.0
 11
35.712156
 21
36.03259
 31
0.0
  0
LINE
  5
94
100
AcDbEntity
  8
HATCH
100
AcDbLine
 10
35.435942
 20
34.651533
 30
0.0
 11
35.435942
 21
34.651533
 31
0.0
  0
LINE
  5
95
100
AcDbEntity
  8
HATCH
100
AcDbLine
 10
36.614607
 20
34.866834
 30
0.0
 11
36.650496
 21
34.918043
 31
0.0
  0
LINE
  5
96
100
AcDbEntity
  8
HATCH
100
AcDbLine
 10
36.864851
 20
34.056776
 30
0.0
 11
36.875593
 21
34.11833
 31
0.0
  0
LINE
  5
97
100
AcDbEntity
  8
HATCH
100
AcDbLine
 10
34.607283
 20
37.137449
 30
0.0
 11
34.607283
 21
37.137449
 31
0.0
  0
LINE
  5
98
100
AcDbEntity
  8
HATCH
100
AcDbLine
 10
35.159712
 20
37.689878
 30
0.0
 11
35.159712
 21
37.689878
 31
0.0
  0
LINE
  5
99
100
AcDbEntity
  8
HATCH
100
AcDbLine
 10
34.883513
 20
36.308805
 30
0.0
 11
34.883513
 21
36.308805
 31
0.0
  0
LINE
  5
9A
100
AcDbEntity
  8
HATCH
100
AcDbLine
 10
34.883482
 20
40.728223
 30
0.0
 11
34.883482
 21
40.728223
 31
0.0
  0
LINE
  5
9B
100
AcDbEntity
  8
HATCH
100
AcDbLine
 10
34.607267
 20
39.347166
 30
0.0
 11
34.607267
 21
39.347166
 31
0.0
  0
LINE
  5
9C
100
AcDbEntity
  8
HATCH
100
AcDbLine
 10
35.159697
 20
39.899595
 30
0.0
 11
35.159697
 21
39.899595
 31
0.0
  0
LINE
  5
9D
100
AcDbEntity
  8
HATCH
100
AcDbLine
 10
34.883497
 20
38.518522
 30
0.0
 11
34.883497
 21
38.518522
 31
0.0
  0
LINE
  5
9E
100
AcDbEntity
  8
HATCH
100
AcDbLine
 10
35.712141
 20
38.242307
 30
0.0
 11
35.712141
 21
38.242307
 31
0.0
  0
LINE
  5
9F
100
AcDbEntity
  8
HATCH
100
AcDbLine
 10
35.435942
 20
36.861234
 30
0.0
 11
35.435942
 21
36.861234
 31
0.0
  0
LINE
  5
A0
100
AcDbEntity
  8
HATCH
100
AcDbLine
 10
35.712126
 20
40.452024
 30
0.0
 11
35.712126
 21
40.452024
 31
0.0
  0
LINE
  5
A1
100
AcDbEntity
  8
HATCH
100
AcDbLine
 10
35.435926
 20
39.070951
 30
0.0
 11
35.435926
 21
39.070951
 31
0.0
  0
LINE
  5
A2
100
AcDbEntity
  8
HATCH
100
AcDbLine
 10
36.564314
 20
39.822156
 30
0.0
 11
36.623152
 21
39.843519
 31
0.0
  0
LINE
  5
A3
100
AcDbEntity
  8
HATCH
100
AcDbLine
 10
38.274275
 20
35.123701
 30
0.0
 11
38.333113
 21
35.145063
 31
0.0
  0
LINE
  5
A4
100
AcDbEntity
  8
HATCH
100
AcDbLine
 10
39.148787
 20
33.78462
 30
0.0
 11
39.103865
 21
33.720625
 31
0.0
  0
LINE
  5
A5
100
AcDbEntity
  8
HATCH
100
AcDbLine
 10
39.482771
 20
32.288526
 30
0.0
 11
39.51866
 21
32.339735
 31
0.0
  0
LINE
  5
A6
100
AcDbEntity
  8
HATCH
100
AcDbLine
 10
40.194685
 20
31.872694
 30
0.0
 11
40.205427
 21
31.934248
 31
0.0
  0
LINE
  5
A7
100
AcDbEntity
  8
HATCH
100
AcDbLine
 10
39.760603
 20
36.08473
 30
0.0
 11
39.771345
 21
36.146284
 31
0.0
  0
LINE
  5
A8
100
AcDbEntity
  8
HATCH
100
AcDbLine
 10
39.707869
 20
34.285749
 30
0.0
 11
39.696882
 21
34.224256
 31
0.0
  0
LINE
  5
A9
100
AcDbEntity
  8
HATCH
100
AcDbLine
 10
40.09654
 20
35.480787
 30
0.0
 11
40.132429
 21
35.531995
 31
0.0
  0
LINE
  5
AA
100
AcDbEntity
  8
HATCH
100
AcDbLine
 10
37.419294
 20
37.472913
 30
0.0
 11
37.478132
 21
37.494276
 31
0.0
  0
LINE
  5
AB
100
AcDbEntity
  8
HATCH
100
AcDbLine
 10
37.298933
 20
36.518812
 30
0.0
 11
37.309675
 21
36.580366
 31
0.0
  0
LINE
  5
AC
100
AcDbEntity
  8
HATCH
100
AcDbLine
 10
38.048689
 20
36.914716
 30
0.0
 11
38.084578
 21
36.965925
 31
0.0
  0
LINE
  5
AD
100
AcDbEntity
  8
HATCH
100
AcDbLine
 10
37.434919
 20
40.396467
 30
0.0
 11
37.470808
 21
40.447675
 31
0.0
  0
LINE
  5
AE
100
AcDbEntity
  8
HATCH
100
AcDbLine
 10
37.733015
 20
38.980848
 30
0.0
 11
37.743757
 21
39.042402
 31
0.0
  0
LINE
  5
AF
100
AcDbEntity
  8
HATCH
100
AcDbLine
 10
38.913679
 20
40.677198
 30
0.0
 11
38.972517
 21
40.69856
 31
0.0
  0
LINE
  5
B0
100
AcDbEntity
  8
HATCH
100
AcDbLine
 10
39.482771
 20
38.962598
 30
0.0
 11
39.51866
 21
39.013807
 31
0.0
  0
LINE
  5
B1
100
AcDbEntity
  8
HATCH
100
AcDbLine
 10
40.194685
 20
38.546766
 30
0.0
 11
40.205427
 21
38.60832
 31
0.0
  0
LINE
  5
B2
100
AcDbEntity
  8
HATCH
100
AcDbLine
 10
34.883467
 20
42.93794
 30
0.0
 11
34.883467
 21
42.93794
 31
0.0
  0
LINE
  5
B3
100
AcDbEntity
  8
HATCH
100
AcDbLine
 10
34.607267
 20
41.556867
 30
0.0
 11
34.607267
 21
41.556867
 31
0.0
  0
LINE
  5
B4
100
AcDbEntity
  8
HATCH
100
AcDbLine
 10
35.159697
 20
42.109296
 30
0.0
 11
35.159697
 21
42.109296
 31
0.0
  0
LINE
  5
B5
100
AcDbEntity
  8
HATCH
100
AcDbLine
 10
34.883467
 20
45.147657
 30
0.0
 11
34.883467
 21
45.147657
 31
0.0
  0
LINE
  5
B6
100
AcDbEntity
  8
HATCH
100
AcDbLine
 10
34.607252
 20
43.766584
 30
0.0
 11
34.607252
 21
43.766584
 31
0.0
  0
LINE
  5
B7
100
AcDbEntity
  8
HATCH
100
AcDbLine
 10
35.159681
 20
44.319013
 30
0.0
 11
35.159681
 21
44.319013
 31
0.0
  0
LINE
  5
B8
100
AcDbEntity
  8
HATCH
100
AcDbLine
 10
35.712126
 20
42.661726
 30
0.0
 11
35.712126
 21
42.661726
 31
0.0
  0
LINE
  5
B9
100
AcDbEntity
  8
HATCH
100
AcDbLine
 10
35.435911
 20
41.280653
 30
0.0
 11
35.435911
 21
41.280653
 31
0.0
  0
LINE
  5
BA
100
AcDbEntity
  8
HATCH
100
AcDbLine
 10
35.712111
 20
44.871442
 30
0.0
 11
35.712111
 21
44.871442
 31
0.0
  0
LINE
  5
BB
100
AcDbEntity
  8
HATCH
100
AcDbLine
 10
35.435896
 20
43.490369
 30
0.0
 11
35.435896
 21
43.490369
 31
0.0
  0
LINE
  5
BC
100
AcDbEntity
  8
HATCH
100
AcDbLine
 10
36.820906
 20
43.878309
 30
0.0
 11
36.856794
 21
43.929517
 31
0.0
  0
LINE
  5
BD
100
AcDbEntity
  8
DRAWING
100
AcDbLine
 10
34.155867
 20
46.336988
 30
0.0
 11
36.155867
 21
46.336988
 31
0.0
  0
LINE
  5
BE
100
AcDbEntity
  8
HATCH
100
AcDbLine
 10
34.607237
 20
45.976301
 30
0.0
 11
34.607237
 21
45.976301
 31
0.0
  0
LINE
  5
BF
100
AcDbEntity
  8
HATCH
100
AcDbLine
 10
34.607298
 20
46.433296
 30
0.0
 11
34.607298
 21
46.433296
 31
0.0
  0
LINE
  5
C0
100
AcDbEntity
  8
HATCH
100
AcDbLine
 10
35.435896
 20
45.700086
 30
0.0
 11
35.435896
 21
45.700086
 31
0.0
  0
LINE
  5
C1
100
AcDbEntity
  8
HATCH
100
AcDbLine
 10
35.988325
 20
46.252515
 30
0.0
 11
35.988325
 21
46.252515
 31
0.0
  0
LINE
  5
C2
100
AcDbEntity
  8
HATCH
100
AcDbLine
 10
36.614607
 20
46.372398
 30
0.0
 11
36.650496
 21
46.423607
 31
0.0
  0
LINE
  5
C4
100
AcDbEntity
  8
HATCH
100
AcDbLine
 10
38.869001
 20
42.444349
 30
0.0
 11
38.90489
 21
42.495557
 31
0.0
  0
LINE
  5
C5
100
AcDbEntity
  8
HATCH
100
AcDbLine
 10
38.058699
 20
43.026472
 30
0.0
 11
38.117537
 21
43.047834
 31
0.0
  0
LINE
  5
C6
100
AcDbEntity
  8
HATCH
100
AcDbLine
 10
38.167097
 20
41.442884
 30
0.0
 11
38.177839
 21
41.504438
 31
0.0
  0
LINE
  5
C7
100
AcDbEntity
  8
HATCH
100
AcDbLine
 10
37.961117
 20
44.872024
 30
0.0
 11
37.997117
 21
44.923624
 31
0.0
  0
LINE
  5
C8
100
AcDbEntity
  8
HATCH
100
AcDbLine
 10
38.261091
 20
44.076337
 30
0.0
 11
38.247419
 21
43.999403
 31
0.0
  0
LINE
  5
C9
100
AcDbEntity
  8
HATCH
100
AcDbLine
 10
40.628767
 20
41.008802
 30
0.0
 11
40.639509
 21
41.070356
 31
0.0
  0
LINE
  5
CA
100
AcDbEntity
  8
DIM_TEXT
100
AcDbLine
 10
39.214617
 20
43.743445
 30
0.0
 11
39.995439
 21
42.481982
 31
0.0
  0
LINE
  5
CB
100
AcDbEntity
  8
DIM_TEXT
100
AcDbLine
 10
39.214617
 20
43.743445
 30
0.0
 11
40.424361
 21
43.046372
 31
0.0
  0
LINE
  5
CC
100
AcDbEntity
  8
HATCH
100
AcDbLine
 10
39.480017
 20
45.212324
 30
0.0
 11
39.491017
 21
45.274424
 31
0.0
  0
LINE
  5
CD
100
AcDbEntity
  8
HATCH
100
AcDbLine
 10
39.675154
 20
44.216413
 30
0.0
 11
39.601667
 21
44.18968
 31
0.0
  0
LINE
  5
CE
100
AcDbEntity
  8
HATCH
100
AcDbLine
 10
39.406355
 20
45.049116
 30
0.0
 11
39.361433
 21
44.98512
 31
0.0
  0
LINE
  5
CF
100
AcDbEntity
  8
DIM_TEXT
100
AcDbLine
 10
40.424361
 20
43.046372
 30
0.0
 11
39.995439
 21
42.481982
 31
0.0
  0
LINE
  5
D0
100
AcDbEntity
  8
HATCH
100
AcDbLine
 10
37.356306
 20
46.224775
 30
0.0
 11
37.311384
 21
46.16078
 31
0.0
  0
CIRCLE
  5
D1
100
AcDbEntity
  8
DRAWING
100
AcDbCircle
 10
39.106671
 20
44.097826
 30
0.0
 40
0.252
  0
LINE
  5
D2
100
AcDbEntity
  8
DIM_TEXT
100
AcDbLine
 10
23.475917
 20
49.381988
 30
0.0
 11
7.465117
 21
49.381988
 31
0.0
  0
LINE
  5
D3
100
AcDbEntity
  8
DIM_TEXT
100
AcDbLine
 10
16.486917
 20
55.408888
 30
0.0
 11
7.465117
 21
55.408888
 31
0.0
  0
TEXT
  5
D4
100
AcDbEntity
  8
DIM_TEXT
100
AcDbText
 10
6.393517
 20
50.189872
 30
0.0
 40
1.134
  1
VARIES
 50
90.0
 51
15.0
  7
INFO
100
AcDbText
  0
LINE
  5
D5
100
AcDbEntity
  8
DIM_TEXT
100
AcDbLine
 10
7.465117
 20
49.381988
 30
0.0
 11
7.465117
 21
55.408888
 31
0.0
  0
LINE
  5
D6
100
AcDbEntity
  8
DIM_TEXT
100
AcDbLine
 10
7.843117
 20
49.004088
 30
0.0
 11
7.087117
 21
49.760088
 31
0.0
  0
LINE
  5
D7
100
AcDbEntity
  8
DIM_TEXT
100
AcDbLine
 10
7.087117
 20
49.760088
 30
0.0
 11
7.843117
 21
49.004088
 31
0.0
  0
LINE
  5
D8
100
AcDbEntity
  8
DIM_TEXT
100
AcDbLine
 10
7.843117
 20
55.030988
 30
0.0
 11
7.087117
 21
55.786988
 31
0.0
  0
ARC
  5
D9
100
AcDbEntity
  8
DRAWING
100
AcDbCircle
 10
24.127617
 20
52.385088
 30
0.0
 40
3.024
100
AcDbArc
 50
180.0
 51
0.0
  0
LINE
  5
DA
100
AcDbEntity
  8
HATCH
100
AcDbLine
 10
12.644717
 20
51.255388
 30
0.0
 11
20.146117
 21
50.719588
 31
0.0
  0
LINE
  5
DB
100
AcDbEntity
  8
HATCH
100
AcDbLine
 10
20.146117
 20
50.719588
 30
0.0
 11
16.890617
 21
53.125788
 31
0.0
  0
LINE
  5
DC
100
AcDbEntity
  8
HATCH
100
AcDbLine
 10
19.185317
 20
54.017688
 30
0.0
 11
19.244517
 21
54.039088
 31
0.0
  0
LINE
  5
DD
100
AcDbEntity
  8
DRAWING
100
AcDbLine
 10
21.103617
 20
52.385088
 30
0.0
 11
19.087617
 21
52.385088
 31
0.0
  0
LINE
  5
DE
100
AcDbEntity
  8
HATCH
100
AcDbLine
 10
18.002817
 20
57.327888
 30
0.0
 11
16.890617
 21
53.125788
 31
0.0
  0
LINE
  5
DF
100
AcDbEntity
  8
HATCH
100
AcDbLine
 10
15.874917
 20
49.289188
 30
0.0
 11
12.644717
 21
51.255388
 31
0.0
  0
ARC
  5
E0
100
AcDbEntity
  8
DRAWING
100
AcDbCircle
 10
14.047617
 20
52.385088
 30
0.0
 40
3.024
100
AcDbArc
 50
294.592
 51
331.9809
  0
LINE
  5
E1
100
AcDbEntity
  8
HATCH
100
AcDbLine
 10
15.532317
 20
47.014288
 30
0.0
 11
15.543117
 21
47.076188
 31
0.0
  0
LINE
  5
E2
100
AcDbEntity
  8
HATCH
100
AcDbLine
 10
16.171617
 20
47.541788
 30
0.0
 11
16.230917
 21
47.563388
 31
0.0
  0
LINE
  5
E3
100
AcDbEntity
  8
HATCH
100
AcDbLine
 10
15.822717
 20
47.015888
 30
0.0
 11
15.858917
 21
47.067588
 31
0.0
  0
LINE
  5
E4
100
AcDbEntity
  8
HATCH
100
AcDbLine
 10
15.969817
 20
49.495888
 30
0.0
 11
15.980617
 21
49.557988
 31
0.0
  0
LINE
  5
E5
100
AcDbEntity
  8
HATCH
100
AcDbLine
 10
18.213417
 20
46.679888
 30
0.0
 11
18.272717
 21
46.701488
 31
0.0
  0
LINE
  5
E6
100
AcDbEntity
  8
DRAWING
100
AcDbLine
 10
19.087617
 20
52.385088
 30
0.0
 11
17.892817
 21
52.385088
 31
0.0
  0
LINE
  5
E7
100
AcDbEntity
  8
HATCH
100
AcDbLine
 10
18.457217
 20
53.101588
 30
0.0
 11
18.468217
 21
53.163688
 31
0.0
  0
LINE
  5
E8
100
AcDbEntity
  8
DRAWING
100
AcDbLine
 10
19.087617
 20
52.385088
 30
0.0
 11
19.087617
 21
51.501788
 31
0.0
  0
LINE
  5
E9
100
AcDbEntity
  8
DRAWING
100
AcDbLine
 10
19.087617
 20
51.501788
 30
0.0
 11
19.087617
 21
52.385088
 31
0.0
  0
LINE
  5
EA
100
AcDbEntity
  8
HATCH
100
AcDbLine
 10
19.942217
 20
47.014288
 30
0.0
 11
19.953117
 21
47.076188
 31
0.0
  0
LINE
  5
EB
100
AcDbEntity
  8
HATCH
100
AcDbLine
 10
20.232617
 20
47.015888
 30
0.0
 11
20.268817
 21
47.067588
 31
0.0
  0
LINE
  5
EC
100
AcDbEntity
  8
HATCH
100
AcDbLine
 10
21.774017
 20
49.906588
 30
0.0
 11
21.810217
 21
49.958188
 31
0.0
  0
CIRCLE
  5
ED
100
AcDbEntity
  8
DRAWING
100
AcDbCircle
 10
19.610317
 20
53.041388
 30
0.0
 40
0.315
  0
LINE
  5
EE
100
AcDbEntity
  8
HATCH
100
AcDbLine
 10
20.938917
 20
52.663988
 30
0.0
 11
20.949817
 21
52.726088
 31
0.0
  0
LINE
  5
EF
100
AcDbEntity
  8
HATCH
100
AcDbLine
 10
19.382817
 20
54.386488
 30
0.0
 11
19.419017
 21
54.438088
 31
0.0
  0
LINE
  5
F0
100
AcDbEntity
  8
HATCH
100
AcDbLine
 10
21.447117
 20
52.940988
 30
0.0
 11
21.483217
 21
52.992688
 31
0.0
  0
LINE
  5
F1
100
AcDbEntity
  8
HATCH
100
AcDbLine
 10
22.415217
 20
52.511488
 30
0.0
 11
22.474417
 21
52.533088
 31
0.0
  0
LINE
  5
F2
100
AcDbEntity
  8
HATCH
100
AcDbLine
 10
21.553417
 20
54.879588
 30
0.0
 11
21.612517
 21
54.900988
 31
0.0
  0
LINE
  5
F3
100
AcDbEntity
  8
HATCH
100
AcDbLine
 10
21.376617
 20
55.145788
 30
0.0
 11
21.387517
 21
55.207688
 31
0.0
  0
LINE
  5
F4
100
AcDbEntity
  8
HATCH
100
AcDbLine
 10
23.130917
 20
47.451688
 30
0.0
 11
23.141817
 21
47.513788
 31
0.0
  0
LINE
  5
F5
100
AcDbEntity
  8
HATCH
100
AcDbLine
 10
23.838417
 20
48.461188
 30
0.0
 11
23.874617
 21
48.512788
 31
0.0
  0
LINE
  5
F6
100
AcDbEntity
  8
HATCH
100
AcDbLine
 10
23.021717
 20
49.047988
 30
0.0
 11
23.081017
 21
49.069588
 31
0.0
  0
LINE
  5
F7
100
AcDbEntity
  8
HATCH
100
AcDbLine
 10
23.277117
 20
50.143388
 30
0.0
 11
23.336217
 21
50.164988
 31
0.0
  0
LINE
  5
F8
100
AcDbEntity
  8
HATCH
100
AcDbLine
 10
26.251717
 20
47.541788
 30
0.0
 11
26.311017
 21
47.563388
 31
0.0
  0
LINE
  5
F9
100
AcDbEntity
  8
HATCH
100
AcDbLine
 10
26.049917
 20
49.495888
 30
0.0
 11
26.060717
 21
49.557988
 31
0.0
  0
LINE
  5
FA
100
AcDbEntity
  8
HATCH
100
AcDbLine
 10
25.645117
 20
51.005188
 30
0.0
 11
25.704417
 21
51.026788
 31
0.0
  0
CIRCLE
  5
FB
100
AcDbEntity
  8
DRAWING
100
AcDbCircle
 10
24.571317
 20
53.916088
 30
0.0
 40
0.315
  0
CIRCLE
  5
FC
100
AcDbEntity
  8
DRAWING
100
AcDbCircle
 10
24.124001
 20
50.193096
 30
0.0
 40
0.315
  0
LINE
  5
FD
100
AcDbEntity
  8
HATCH
100
AcDbLine
 10
23.511317
 20
51.495588
 30
0.0
 11
23.547517
 21
51.547188
 31
0.0
  0
LINE
  5
FE
100
AcDbEntity
  8
HATCH
100
AcDbLine
 10
23.420717
 20
52.226388
 30
0.0
 11
23.431617
 21
52.288388
 31
0.0
  0
LINE
  5
FF
100
AcDbEntity
  8
HATCH
100
AcDbLine
 10
22.892517
 20
55.005188
 30
0.0
 11
22.928717
 21
55.056788
 31
0.0
  0
CIRCLE
  5
100
100
AcDbEntity
  8
DRAWING
100
AcDbCircle
 10
23.330917
 20
53.916088
 30
0.0
 40
0.315
  0
LINE
  5
101
100
AcDbEntity
  8
HATCH
100
AcDbLine
 10
23.858317
 20
54.708188
 30
0.0
 11
23.869317
 21
54.770088
 31
0.0
  0
LINE
  5
102
100
AcDbEntity
  8
HATCH
100
AcDbLine
 10
24.783217
 20
53.373288
 30
0.0
 11
24.842517
 21
53.394988
 31
0.0
  0
LINE
  5
103
100
AcDbEntity
  8
HATCH
100
AcDbLine
 10
25.902517
 20
51.788688
 30
0.0
 11
25.913417
 21
51.850788
 31
0.0
  0
LINE
  5
104
100
AcDbEntity
  8
HATCH
100
AcDbLine
 10
24.956717
 20
53.559688
 30
0.0
 11
24.992817
 21
53.611388
 31
0.0
  0
LINE
  5
105
100
AcDbEntity
  8
HATCH
100
AcDbLine
 10
26.340017
 20
54.270588
 30
0.0
 11
26.351017
 21
54.332488
 31
0.0
  0
ARC
  5
106
100
AcDbEntity
  8
DRAWING
100
AcDbCircle
 10
34.207617
 20
52.385088
 30
0.0
 40
3.024
100
AcDbArc
 50
180.0
 51
288.274789
  0
CIRCLE
  5
107
100
AcDbEntity
  8
DRAWING
100
AcDbCircle
 10
33.430717
 20
53.916088
 30
0.0
 40
0.315
  0
LINE
  5
108
100
AcDbEntity
  8
DRAWING
100
AcDbLine
 10
31.183617
 20
52.385088
 30
0.0
 11
29.167617
 21
52.385088
 31
0.0
  0
LINE
  5
109
100
AcDbEntity
  8
DRAWING
100
AcDbLine
 10
29.167617
 20
52.385088
 30
0.0
 11
27.151617
 21
52.385088
 31
0.0
  0
LINE
  5
10A
100
AcDbEntity
  8
HATCH
100
AcDbLine
 10
27.151317
 20
54.235188
 30
0.0
 11
27.210517
 21
54.256788
 31
0.0
  0
LINE
  5
10B
100
AcDbEntity
  8
HATCH
100
AcDbLine
 10
28.466317
 20
54.178588
 30
0.0
 11
28.502517
 21
54.230288
 31
0.0
  0
LINE
  5
10C
100
AcDbEntity
  8
HATCH
100
AcDbLine
 10
28.821817
 20
53.832888
 30
0.0
 11
28.832717
 21
53.894788
 31
0.0
  0
LINE
  5
10D
100
AcDbEntity
  8
HATCH
100
AcDbLine
 10
29.519417
 20
55.097088
 30
0.0
 11
29.578517
 21
55.118688
 31
0.0
  0
LINE
  5
10E
100
AcDbEntity
  8
HATCH
100
AcDbLine
 10
33.210917
 20
47.451688
 30
0.0
 11
33.221717
 21
47.513788
 31
0.0
  0
LINE
  5
10F
100
AcDbEntity
  8
HATCH
100
AcDbLine
 10
31.853917
 20
49.906588
 30
0.0
 11
31.890117
 21
49.958188
 31
0.0
  0
LINE
  5
110
100
AcDbEntity
  8
HATCH
100
AcDbLine
 10
33.101617
 20
49.047988
 30
0.0
 11
33.161017
 21
49.069588
 31
0.0
  0
LINE
  5
111
100
AcDbEntity
  8
HATCH
100
AcDbLine
 10
33.347717
 20
50.475888
 30
0.0
 11
33.358617
 21
50.537988
 31
0.0
  0
LINE
  5
112
100
AcDbEntity
  8
HATCH
100
AcDbLine
 10
30.530617
 20
52.733188
 30
0.0
 11
30.566817
 21
52.784788
 31
0.0
  0
LINE
  5
113
100
AcDbEntity
  8
HATCH
100
AcDbLine
 10
31.303517
 20
53.395288
 30
0.0
 11
31.314517
 21
53.457388
 31
0.0
  0
LINE
  5
114
100
AcDbEntity
  8
HATCH
100
AcDbLine
 10
32.594917
 20
51.287788
 30
0.0
 11
32.631017
 21
51.339388
 31
0.0
  0
LINE
  5
115
100
AcDbEntity
  8
HATCH
100
AcDbLine
 10
31.976017
 20
54.797488
 30
0.0
 11
32.012217
 21
54.849188
 31
0.0
  0
LINE
  5
116
100
AcDbEntity
  8
HATCH
100
AcDbLine
 10
32.749217
 20
53.590888
 30
0.0
 11
32.808517
 21
53.612488
 31
0.0
  0
LINE
  5
117
100
AcDbEntity
  8
DIM_TEXT
100
AcDbLine
 10
38.542417
 20
54.323488
 30
0.0
 11
38.542417
 21
59.445488
 31
0.0
  0
LINE
  5
118
100
AcDbEntity
  8
HATCH
100
AcDbLine
 10
33.963517
 20
46.679888
 30
0.0
 11
34.022717
 21
46.701488
 31
0.0
  0
LINE
  5
119
100
AcDbEntity
  8
HATCH
100
AcDbLine
 10
33.918517
 20
48.461188
 30
0.0
 11
33.954617
 21
48.512788
 31
0.0
  0
LINE
  5
11A
100
AcDbEntity
  8
HATCH
100
AcDbLine
 10
33.534117
 20
49.842288
 30
0.0
 11
33.570217
 21
49.893988
 31
0.0
  0
LINE
  5
11B
100
AcDbEntity
  8
HATCH
100
AcDbLine
 10
36.723317
 20
48.396888
 30
0.0
 11
36.759417
 21
48.448488
 31
0.0
  0
LINE
  5
11C
100
AcDbEntity
  8
HATCH
100
AcDbLine
 10
36.841017
 20
49.716688
 30
0.0
 11
36.900217
 21
49.738188
 31
0.0
  0
LINE
  5
11D
100
AcDbEntity
  8
HATCH
100
AcDbLine
 10
33.611017
 20
51.222988
 30
0.0
 11
33.670317
 21
51.244388
 31
0.0
  0
LINE
  5
11E
100
AcDbEntity
  8
HATCH
100
AcDbLine
 10
34.040217
 20
53.352088
 30
0.0
 11
34.076417
 21
53.403688
 31
0.0
  0
LINE
  5
11F
100
AcDbEntity
  8
HATCH
100
AcDbLine
 10
33.785317
 20
52.957688
 30
0.0
 11
33.796217
 21
53.019588
 31
0.0
  0
CIRCLE
  5
120
100
AcDbEntity
  8
DRAWING
100
AcDbCircle
 10
35.197501
 20
50.193096
 30
0.0
 40
0.315
  0
CIRCLE
  5
121
100
AcDbEntity
  8
DRAWING
100
AcDbCircle
 10
34.671017
 20
53.916088
 30
0.0
 40
0.315
  0
LINE
  5
122
100
AcDbEntity
  8
HATCH
100
AcDbLine
 10
35.117317
 20
54.452788
 30
0.0
 11
35.176517
 21
54.474388
 31
0.0
  0
LINE
  5
123
100
AcDbEntity
  8
HATCH
100
AcDbLine
 10
36.267017
 20
52.520088
 30
0.0
 11
36.278017
 21
52.581988
 31
0.0
  0
LINE
  5
124
100
AcDbEntity
  8
HATCH
100
AcDbLine
 10
36.704617
 20
55.001688
 30
0.0
 11
36.715617
 21
55.063788
 31
0.0
  0
LINE
  5
125
100
AcDbEntity
  8
HATCH
100
AcDbLine
 10
37.702917
 20
47.348588
 30
0.0
 11
37.762017
 21
47.370188
 31
0.0
  0
LINE
  5
126
100
AcDbEntity
  8
HATCH
100
AcDbLine
 10
37.873517
 20
47.118988
 30
0.0
 11
37.884517
 21
47.180888
 31
0.0
  0
LINE
  5
127
100
AcDbEntity
  8
HATCH
100
AcDbLine
 10
38.787517
 20
46.951488
 30
0.0
 11
38.823717
 21
47.003088
 31
0.0
  0
LINE
  5
128
100
AcDbEntity
  8
HATCH
100
AcDbLine
 10
38.168717
 20
50.461188
 30
0.0
 11
38.204817
 21
50.512888
 31
0.0
  0
LINE
  5
129
100
AcDbEntity
  8
HATCH
100
AcDbLine
 10
38.311217
 20
49.600588
 30
0.0
 11
38.322117
 21
49.662688
 31
0.0
  0
LINE
  5
12A
100
AcDbEntity
  8
HATCH
100
AcDbLine
 10
40.070917
 20
48.210488
 30
0.0
 11
40.130117
 21
48.232088
 31
0.0
  0
LINE
  5
12B
100
AcDbEntity
  8
HATCH
100
AcDbLine
 10
40.355317
 20
46.681388
 30
0.0
 11
40.366217
 21
46.743288
 31
0.0
  0
LINE
  5
12C
100
AcDbEntity
  8
HATCH
100
AcDbLine
 10
39.209117
 20
50.578588
 30
0.0
 11
39.268317
 21
50.599988
 31
0.0
  0
LINE
  5
12D
100
AcDbEntity
  8
HATCH
100
AcDbLine
 10
40.232917
 20
49.015788
 30
0.0
 11
40.269017
 21
49.067388
 31
0.0
  0
ARC
  5
12E
100
AcDbEntity
  8
DRAWING
100
AcDbCircle
 10
39.046417
 20
54.323488
 30
0.0
 40
0.504
100
AcDbArc
 50
90.0
 51
180.0
  0
LINE
  5
12F
100
AcDbEntity
  8
HATCH
100
AcDbLine
 10
38.347117
 20
52.946688
 30
0.0
 11
38.406317
 21
52.968288
 31
0.0
  0
LINE
  5
130
100
AcDbEntity
  8
HATCH
100
AcDbLine
 10
38.748817
 20
52.082288
 30
0.0
 11
38.759717
 21
52.144288
 31
0.0
  0
LINE
  5
131
100
AcDbEntity
  8
HATCH
100
AcDbLine
 10
37.485417
 20
55.314588
 30
0.0
 11
37.544517
 21
55.336188
 31
0.0
  0
LINE
  5
132
100
AcDbEntity
  8
HATCH
100
AcDbLine
 10
37.549917
 20
53.970988
 30
0.0
 11
37.586017
 21
54.022588
 31
0.0
  0
LINE
  5
133
100
AcDbEntity
  8
HATCH
100
AcDbLine
 10
39.614017
 20
52.525588
 30
0.0
 11
39.650117
 21
52.577188
 31
0.0
  0
LINE
  5
134
100
AcDbEntity
  8
DIM_TEXT
100
AcDbLine
 10
39.44236
 20
54.184424
 30
0.0
 11
40.29056
 21
55.026724
 31
0.0
  0
LINE
  5
135
100
AcDbEntity
  8
DIM_TEXT
100
AcDbLine
 10
39.61566
 20
55.367024
 30
0.0
 11
40.29056
 21
55.026724
 31
0.0
  0
LINE
  5
136
100
AcDbEntity
  8
DIM_TEXT
100
AcDbLine
 10
39.44236
 20
54.184424
 30
0.0
 11
39.61566
 21
55.367024
 31
0.0
  0
CIRCLE
  5
137
100
AcDbEntity
  8
DRAWING
100
AcDbCircle
 10
39.256817
 20
54.113088
 30
0.0
 40
0.315
  0
LINE
  5
138
100
AcDbEntity
  8
HATCH
100
AcDbLine
 10
39.186417
 20
54.563888
 30
0.0
 11
39.197317
 21
54.625988
 31
0.0
  0
LINE
  5
139
100
AcDbEntity
  8
DIM_TEXT
100
AcDbLine
 10
38.917417
 20
59.820488
 30
0.0
 11
38.167417
 21
59.070488
 31
0.0
  0
LINE
  5
13A
100
AcDbEntity
  8
DRAWING
100
AcDbLine
 10
49.327617
 20
46.336988
 30
0.0
 11
49.327617
 21
52.385088
 31
0.0
  0
LINE
  5
13B
100
AcDbEntity
  8
DRAWING
100
AcDbLine
 10
59.407617
 20
46.336988
 30
0.0
 11
59.407617
 21
52.385088
 31
0.0
  0
LINE
  5
13C
100
AcDbEntity
  8
DRAWING
100
AcDbLine
 10
49.327617
 20
52.385088
 30
0.0
 11
49.327617
 21
46.336988
 31
0.0
  0
LINE
  5
13D
100
AcDbEntity
  8
DRAWING
100
AcDbLine
 10
69.487617
 20
46.336988
 30
0.0
 11
69.487617
 21
52.385088
 31
0.0
  0
LINE
  5
13E
100
AcDbEntity
  8
DRAWING
100
AcDbLine
 10
59.407617
 20
52.385088
 30
0.0
 11
59.407617
 21
46.336988
 31
0.0
  0
CIRCLE
  5
13F
100
AcDbEntity
  8
DRAWING
100
AcDbCircle
 10
41.042817
 20
46.790188
 30
0.0
 40
0.315
  0
LINE
  5
140
100
AcDbEntity
  8
HATCH
100
AcDbLine
 10
73.327317
 20
49.098588
 30
0.0
 11
74.442117
 21
44.825588
 31
0.0
  0
LINE
  5
141
100
AcDbEntity
  8
DRAWING
100
AcDbLine
 10
69.487617
 20
52.385088
 30
0.0
 11
69.487617
 21
46.336988
 31
0.0
  0
LINE
  5
142
100
AcDbEntity
  8
DIM_TEXT
100
AcDbLine
 10
60.510917
 20
41.356088
 30
0.0
 11
52.591717
 21
52.574788
 31
0.0
  0
LINE
  5
143
100
AcDbEntity
  8
DRAWING
100
AcDbLine
 10
59.407617
 20
46.336988
 30
0.0
 11
69.487617
 21
46.336988
 31
0.0
  0
TEXT
  5
144
100
AcDbEntity
  8
DIM_TEXT
100
AcDbText
 10
62.475517
 20
40.820388
 30
0.0
 40
1.134
  1
SLAB REINF.
 51
15.0
  7
INFO
100
AcDbText
  0
TEXT
  5
145
100
AcDbEntity
  8
DIM_TEXT
100
AcDbText
 10
57.276533
 20
36.306921
 30
0.0
 40
1.134
  1
RASTRA ROOF PANEL
 51
15.0
  7
INFO
100
AcDbText
  0
LINE
  5
146
100
AcDbEntity
  8
DIM_TEXT
100
AcDbLine
 10
55.331317
 20
36.712388
 30
0.0
 11
49.923117
 21
45.382388
 31
0.0
  0
LINE
  5
147
100
AcDbEntity
  8
DRAWING
100
AcDbLine
 10
49.327617
 20
46.336988
 30
0.0
 11
59.407617
 21
46.336988
 31
0.0
  0
LINE
  5
148
100
AcDbEntity
  8
DIM_TEXT
100
AcDbLine
 10
50.029117
 20
44.840324
 30
0.0
 11
50.029117
 21
30.097924
 31
0.0
  0
LINE
  5
149
100
AcDbEntity
  8
DRAWING
100
AcDbLine
 10
44.155867
 20
31.336988
 30
0.0
 11
44.155867
 21
46.336988
 31
0.0
  0
LINE
  5
14A
100
AcDbEntity
  8
DRAWING
100
AcDbLine
 10
42.280867
 20
31.336988
 30
0.0
 11
42.280867
 21
46.336988
 31
0.0
  0
LINE
  5
14B
100
AcDbEntity
  8
HATCH
100
AcDbLine
 10
41.134253
 20
22.843702
 30
0.0
 11
44.668982
 21
23.306364
 31
0.0
  0
LINE
  5
14C
100
AcDbEntity
  8
DRAWING
100
AcDbLine
 10
44.155859
 20
23.239194
 30
0.0
 11
44.155859
 21
31.336988
 31
0.0
  0
LINE
  5
14D
100
AcDbEntity
  8
DRAWING
100
AcDbLine
 10
42.280859
 20
22.993772
 30
0.0
 11
42.280859
 21
31.336988
 31
0.0
  0
LINE
  5
14E
100
AcDbEntity
  8
HATCH
100
AcDbLine
 10
41.263037
 20
26.53224
 30
0.0
 11
41.321875
 21
26.553602
 31
0.0
  0
LINE
  5
14F
100
AcDbEntity
  8
HATCH
100
AcDbLine
 10
42.875799
 20
24.070951
 30
0.0
 11
42.875799
 21
24.070951
 31
0.0
  0
LINE
  5
150
100
AcDbEntity
  8
HATCH
100
AcDbLine
 10
42.599585
 20
23.242307
 30
0.0
 11
42.599585
 21
23.242307
 31
0.0
  0
LINE
  5
151
100
AcDbEntity
  8
HATCH
100
AcDbLine
 10
43.704474
 20
24.347166
 30
0.0
 11
43.704474
 21
24.347166
 31
0.0
  0
LINE
  5
152
100
AcDbEntity
  8
HATCH
100
AcDbLine
 10
43.428228
 20
23.518522
 30
0.0
 11
43.428228
 21
23.518522
 31
0.0
  0
LINE
  5
153
100
AcDbEntity
  8
HATCH
100
AcDbLine
 10
42.87583
 20
26.280668
 30
0.0
 11
42.87583
 21
26.280668
 31
0.0
  0
LINE
  5
154
100
AcDbEntity
  8
HATCH
100
AcDbLine
 10
43.152044
 20
24.899595
 30
0.0
 11
43.152044
 21
24.899595
 31
0.0
  0
LINE
  5
155
100
AcDbEntity
  8
HATCH
100
AcDbLine
 10
42.599615
 20
25.452024
 30
0.0
 11
42.599615
 21
25.452024
 31
0.0
  0
LINE
  5
156
100
AcDbEntity
  8
HATCH
100
AcDbLine
 10
43.704474
 20
26.556882
 30
0.0
 11
43.704474
 21
26.556882
 31
0.0
  0
LINE
  5
157
100
AcDbEntity
  8
HATCH
100
AcDbLine
 10
43.428259
 20
25.728239
 30
0.0
 11
43.428259
 21
25.728239
 31
0.0
  0
LINE
  5
158
100
AcDbEntity
  8
DRAWING
100
AcDbLine
 10
44.155859
 20
31.336988
 30
0.0
 11
42.280859
 21
31.336988
 31
0.0
  0
LINE
  5
159
100
AcDbEntity
  8
DRAWING
100
AcDbLine
 10
42.280859
 20
31.336988
 30
0.0
 11
44.155859
 21
31.336988
 31
0.0
  0
LINE
  5
15A
100
AcDbEntity
  8
DRAWING
100
AcDbLine
 10
44.155867
 20
31.336988
 30
0.0
 11
42.280867
 21
31.336988
 31
0.0
  0
LINE
  5
15B
100
AcDbEntity
  8
DRAWING
100
AcDbLine
 10
42.280867
 20
31.336988
 30
0.0
 11
44.155867
 21
31.336988
 31
0.0
  0
LINE
  5
15C
100
AcDbEntity
  8
HATCH
100
AcDbLine
 10
41.062841
 20
28.470838
 30
0.0
 11
41.073584
 21
28.532392
 31
0.0
  0
LINE
  5
15D
100
AcDbEntity
  8
HATCH
100
AcDbLine
 10
42.323401
 20
31.252531
 30
0.0
 11
42.323401
 21
31.252531
 31
0.0
  0
LINE
  5
15E
100
AcDbEntity
  8
HATCH
100
AcDbLine
 10
42.87583
 20
28.490385
 30
0.0
 11
42.87583
 21
28.490385
 31
0.0
  0
LINE
  5
15F
100
AcDbEntity
  8
HATCH
100
AcDbLine
 10
43.152044
 20
27.109312
 30
0.0
 11
43.152044
 21
27.109312
 31
0.0
  0
LINE
  5
160
100
AcDbEntity
  8
HATCH
100
AcDbLine
 10
42.599615
 20
27.661741
 30
0.0
 11
42.599615
 21
27.661741
 31
0.0
  0
LINE
  5
161
100
AcDbEntity
  8
HATCH
100
AcDbLine
 10
43.704474
 20
28.766599
 30
0.0
 11
43.704474
 21
28.766599
 31
0.0
  0
LINE
  5
162
100
AcDbEntity
  8
HATCH
100
AcDbLine
 10
43.428259
 20
27.937955
 30
0.0
 11
43.428259
 21
27.937955
 31
0.0
  0
LINE
  5
163
100
AcDbEntity
  8
HATCH
100
AcDbLine
 10
42.87583
 20
30.700101
 30
0.0
 11
42.87583
 21
30.700101
 31
0.0
  0
LINE
  5
164
100
AcDbEntity
  8
HATCH
100
AcDbLine
 10
43.152044
 20
29.319028
 30
0.0
 11
43.152044
 21
29.319028
 31
0.0
  0
LINE
  5
165
100
AcDbEntity
  8
HATCH
100
AcDbLine
 10
42.599615
 20
29.871458
 30
0.0
 11
42.599615
 21
29.871458
 31
0.0
  0
LINE
  5
166
100
AcDbEntity
  8
HATCH
100
AcDbLine
 10
43.704504
 20
30.976316
 30
0.0
 11
43.704504
 21
30.976316
 31
0.0
  0
LINE
  5
167
100
AcDbEntity
  8
HATCH
100
AcDbLine
 10
43.428259
 20
30.147672
 30
0.0
 11
43.428259
 21
30.147672
 31
0.0
  0
LINE
  5
168
100
AcDbEntity
  8
DIM_TEXT
100
AcDbLine
 10
49.654117
 20
30.472924
 30
0.0
 11
50.404117
 21
29.722924
 31
0.0
  0
LINE
  5
169
100
AcDbEntity
  8
DRAWING
100
AcDbLine
 10
43.155867
 20
46.336988
 30
0.0
 11
49.327617
 21
46.336988
 31
0.0
  0
LINE
  5
16A
100
AcDbEntity
  8
HATCH
100
AcDbLine
 10
41.478376
 20
33.629499
 30
0.0
 11
41.537214
 21
33.650861
 31
0.0
  0
LINE
  5
16B
100
AcDbEntity
  8
HATCH
100
AcDbLine
 10
43.050932
 20
32.441816
 30
0.0
 11
43.050932
 21
32.441816
 31
0.0
  0
LINE
  5
16C
100
AcDbEntity
  8
HATCH
100
AcDbLine
 10
42.774702
 20
31.613157
 30
0.0
 11
42.774702
 21
31.613157
 31
0.0
  0
LINE
  5
16D
100
AcDbEntity
  8
HATCH
100
AcDbLine
 10
43.151991
 20
33.270444
 30
0.0
 11
43.151991
 21
33.270444
 31
0.0
  0
LINE
  5
16E
100
AcDbEntity
  8
HATCH
100
AcDbLine
 10
42.599562
 20
33.822874
 30
0.0
 11
42.599562
 21
33.822874
 31
0.0
  0
LINE
  5
16F
100
AcDbEntity
  8
HATCH
100
AcDbLine
 10
43.603361
 20
31.889387
 30
0.0
 11
43.603361
 21
31.889387
 31
0.0
  0
LINE
  5
170
100
AcDbEntity
  8
HATCH
100
AcDbLine
 10
43.70442
 20
32.718015
 30
0.0
 11
43.70442
 21
32.718015
 31
0.0
  0
LINE
  5
171
100
AcDbEntity
  8
HATCH
100
AcDbLine
 10
43.152006
 20
35.480161
 30
0.0
 11
43.152006
 21
35.480161
 31
0.0
  0
LINE
  5
172
100
AcDbEntity
  8
HATCH
100
AcDbLine
 10
42.599577
 20
36.03259
 30
0.0
 11
42.599577
 21
36.03259
 31
0.0
  0
LINE
  5
173
100
AcDbEntity
  8
HATCH
100
AcDbLine
 10
42.875792
 20
34.651533
 30
0.0
 11
42.875792
 21
34.651533
 31
0.0
  0
LINE
  5
174
100
AcDbEntity
  8
HATCH
100
AcDbLine
 10
43.704435
 20
34.927732
 30
0.0
 11
43.704435
 21
34.927732
 31
0.0
  0
LINE
  5
175
100
AcDbEntity
  8
HATCH
100
AcDbLine
 10
43.428221
 20
34.099104
 30
0.0
 11
43.428221
 21
34.099104
 31
0.0
  0
LINE
  5
176
100
AcDbEntity
  8
HATCH
100
AcDbLine
 10
41.530623
 20
37.528669
 30
0.0
 11
41.566511
 21
37.579877
 31
0.0
  0
LINE
  5
177
100
AcDbEntity
  8
HATCH
100
AcDbLine
 10
43.152021
 20
37.689878
 30
0.0
 11
43.152021
 21
37.689878
 31
0.0
  0
LINE
  5
178
100
AcDbEntity
  8
HATCH
100
AcDbLine
 10
42.599592
 20
38.242307
 30
0.0
 11
42.599592
 21
38.242307
 31
0.0
  0
LINE
  5
179
100
AcDbEntity
  8
HATCH
100
AcDbLine
 10
42.875792
 20
36.861234
 30
0.0
 11
42.875792
 21
36.861234
 31
0.0
  0
LINE
  5
17A
100
AcDbEntity
  8
HATCH
100
AcDbLine
 10
43.704451
 20
37.137449
 30
0.0
 11
43.704451
 21
37.137449
 31
0.0
  0
LINE
  5
17B
100
AcDbEntity
  8
HATCH
100
AcDbLine
 10
43.428221
 20
36.308805
 30
0.0
 11
43.428221
 21
36.308805
 31
0.0
  0
LINE
  5
17C
100
AcDbEntity
  8
HATCH
100
AcDbLine
 10
43.152037
 20
39.899595
 30
0.0
 11
43.152037
 21
39.899595
 31
0.0
  0
LINE
  5
17D
100
AcDbEntity
  8
HATCH
100
AcDbLine
 10
42.599607
 20
40.452024
 30
0.0
 11
42.599607
 21
40.452024
 31
0.0
  0
LINE
  5
17E
100
AcDbEntity
  8
HATCH
100
AcDbLine
 10
42.875807
 20
39.070951
 30
0.0
 11
42.875807
 21
39.070951
 31
0.0
  0
LINE
  5
17F
100
AcDbEntity
  8
HATCH
100
AcDbLine
 10
43.428251
 20
40.728223
 30
0.0
 11
43.428251
 21
40.728223
 31
0.0
  0
LINE
  5
180
100
AcDbEntity
  8
HATCH
100
AcDbLine
 10
43.704466
 20
39.347166
 30
0.0
 11
43.704466
 21
39.347166
 31
0.0
  0
LINE
  5
181
100
AcDbEntity
  8
HATCH
100
AcDbLine
 10
43.428236
 20
38.518522
 30
0.0
 11
43.428236
 21
38.518522
 31
0.0
  0
LINE
  5
182
100
AcDbEntity
  8
HATCH
100
AcDbLine
 10
41.263044
 20
41.53224
 30
0.0
 11
41.321882
 21
41.553602
 31
0.0
  0
LINE
  5
183
100
AcDbEntity
  8
HATCH
100
AcDbLine
 10
41.062849
 20
43.470838
 30
0.0
 11
41.073591
 21
43.532392
 31
0.0
  0
LINE
  5
184
100
AcDbEntity
  8
HATCH
100
AcDbLine
 10
43.152037
 20
42.109296
 30
0.0
 11
43.152037
 21
42.109296
 31
0.0
  0
LINE
  5
185
100
AcDbEntity
  8
HATCH
100
AcDbLine
 10
42.599607
 20
42.661726
 30
0.0
 11
42.599607
 21
42.661726
 31
0.0
  0
LINE
  5
186
100
AcDbEntity
  8
HATCH
100
AcDbLine
 10
42.875822
 20
41.280653
 30
0.0
 11
42.875822
 21
41.280653
 31
0.0
  0
LINE
  5
187
100
AcDbEntity
  8
HATCH
100
AcDbLine
 10
43.428267
 20
42.93794
 30
0.0
 11
43.428267
 21
42.93794
 31
0.0
  0
LINE
  5
188
100
AcDbEntity
  8
HATCH
100
AcDbLine
 10
43.704466
 20
41.556867
 30
0.0
 11
43.704466
 21
41.556867
 31
0.0
  0
LINE
  5
189
100
AcDbEntity
  8
HATCH
100
AcDbLine
 10
43.152052
 20
44.319013
 30
0.0
 11
43.152052
 21
44.319013
 31
0.0
  0
LINE
  5
18A
100
AcDbEntity
  8
HATCH
100
AcDbLine
 10
42.599623
 20
44.871442
 30
0.0
 11
42.599623
 21
44.871442
 31
0.0
  0
LINE
  5
18B
100
AcDbEntity
  8
HATCH
100
AcDbLine
 10
42.875837
 20
43.490369
 30
0.0
 11
42.875837
 21
43.490369
 31
0.0
  0
LINE
  5
18C
100
AcDbEntity
  8
HATCH
100
AcDbLine
 10
43.428267
 20
45.147657
 30
0.0
 11
43.428267
 21
45.147657
 31
0.0
  0
LINE
  5
18D
100
AcDbEntity
  8
HATCH
100
AcDbLine
 10
43.704481
 20
43.766584
 30
0.0
 11
43.704481
 21
43.766584
 31
0.0
  0
LINE
  5
18E
100
AcDbEntity
  8
DRAWING
100
AcDbLine
 10
42.155867
 20
46.336988
 30
0.0
 11
44.155867
 21
46.336988
 31
0.0
  0
LINE
  5
18F
100
AcDbEntity
  8
HATCH
100
AcDbLine
 10
42.323408
 20
46.252515
 30
0.0
 11
42.323408
 21
46.252515
 31
0.0
  0
LINE
  5
190
100
AcDbEntity
  8
HATCH
100
AcDbLine
 10
42.875837
 20
45.700086
 30
0.0
 11
42.875837
 21
45.700086
 31
0.0
  0
LINE
  5
191
100
AcDbEntity
  8
HATCH
100
AcDbLine
 10
43.704496
 20
45.976301
 30
0.0
 11
43.704496
 21
45.976301
 31
0.0
  0
LINE
  5
192
100
AcDbEntity
  8
HATCH
100
AcDbLine
 10
43.704435
 20
46.433296
 30
0.0
 11
43.704435
 21
46.433296
 31
0.0
  0
TEXT
  5
193
100
AcDbEntity
  8
DIM_TEXT
100
AcDbText
 10
49.723417
 20
33.879824
 30
0.0
 40
1.125
  1
DOWEL LAP
 50
90.00001
 51
15.0
  7
INFO
100
AcDbText
  0
LINE
  5
194
100
AcDbEntity
  8
DIM_TEXT
100
AcDbLine
 10
48.380317
 20
34.237624
 30
0.0
 11
48.416517
 21
34.289224
 31
0.0
  0
LINE
  5
195
100
AcDbEntity
  8
DIM_TEXT
100
AcDbLine
 10
49.327617
 20
46.336988
 30
0.0
 11
50.241217
 21
45.580888
 31
0.0
  0
LINE
  5
196
100
AcDbEntity
  8
DIM_TEXT
100
AcDbLine
 10
50.241217
 20
45.580888
 30
0.0
 11
49.604917
 21
45.183988
 31
0.0
  0
LINE
  5
197
100
AcDbEntity
  8
DIM_TEXT
100
AcDbLine
 10
49.327617
 20
46.336988
 30
0.0
 11
49.604917
 21
45.183988
 31
0.0
  0
LINE
  5
198
100
AcDbEntity
  8
HATCH
100
AcDbLine
 10
52.632817
 20
46.396988
 30
0.0
 11
52.669117
 21
46.448688
 31
0.0
  0
TEXT
  5
19A
100
AcDbEntity
  8
DIM_TEXT
100
AcDbText
 10
59.796517
 20
28.870463
 30
0.0
 40
1.134
  1
HORIZ. REINF.
 51
15.0
  7
INFO
100
AcDbText
  0
LINE
  5
19B
100
AcDbEntity
  8
DIM_TEXT
100
AcDbLine
 10
58.903517
 20
29.298628
 30
0.0
 11
55.450745
 21
29.298628
 31
0.0
  0
LINE
  5
19C
100
AcDbEntity
  8
DIM_TEXT
100
AcDbLine
 10
56.847864
 20
36.664121
 30
0.0
 11
55.331317
 21
36.712388
 31
0.0
  0
LINE
  5
19D
100
AcDbEntity
  8
DIM_TEXT
100
AcDbLine
 10
61.582517
 20
41.356088
 30
0.0
 11
60.510917
 21
41.356088
 31
0.0
  0
LINE
  5
19E
100
AcDbEntity
  8
HATCH
100
AcDbLine
 10
62.712917
 20
46.396988
 30
0.0
 11
62.749117
 21
46.448688
 31
0.0
  0
LINE
  5
19F
100
AcDbEntity
  8
DRAWING
100
AcDbLine
 10
69.487617
 20
46.336988
 30
0.0
 11
74.047717
 21
46.336988
 31
0.0
  0
LINE
  5
1A0
100
AcDbEntity
  8
HATCH
100
AcDbLine
 10
72.792917
 20
46.396988
 30
0.0
 11
72.829117
 21
46.448688
 31
0.0
  0
LINE
  5
1A1
100
AcDbEntity
  8
DRAWING
100
AcDbLine
 10
71.503617
 20
52.385088
 30
0.0
 11
67.471617
 21
52.385088
 31
0.0
  0
TEXT
  5
1A2
100
AcDbEntity
  8
DIM_TEXT
100
AcDbText
 10
63.757017
 20
62.071388
 30
0.0
 40
1.134
  1
SLAB REINF.
 51
15.0
  7
INFO
100
AcDbText
  0
LINE
  5
1A3
100
AcDbEntity
  8
DIM_TEXT
100
AcDbLine
 10
54.777717
 20
54.059288
 30
0.0
 11
55.073217
 21
55.207688
 31
0.0
  0
LINE
  5
1A4
100
AcDbEntity
  8
DIM_TEXT
100
AcDbLine
 10
54.777717
 20
54.059288
 30
0.0
 11
55.703117
 21
54.800788
 31
0.0
  0
ARC
  5
1A5
100
AcDbEntity
  8
DRAWING
100
AcDbCircle
 10
54.367617
 20
52.385088
 30
0.0
 40
3.024
100
AcDbArc
 50
180.0
 51
0.0
  0
CIRCLE
  5
1A6
100
AcDbEntity
  8
DRAWING
100
AcDbCircle
 10
54.870517
 20
53.916088
 30
0.0
 40
0.315
  0
LINE
  5
1A7
100
AcDbEntity
  8
DIM_TEXT
100
AcDbLine
 10
53.545317
 20
68.146788
 30
0.0
 11
51.176617
 21
61.717788
 31
0.0
  0
LINE
  5
1A8
100
AcDbEntity
  8
DRAWING
100
AcDbLine
 10
49.327617
 20
52.385088
 30
0.0
 11
47.311617
 21
52.385088
 31
0.0
  0
ARC
  5
1A9
100
AcDbEntity
  8
DRAWING
100
AcDbCircle
 10
44.287617
 20
52.385088
 30
0.0
 40
3.024
100
AcDbArc
 50
248.021662
 51
0.0
  0
LINE
  5
1AA
100
AcDbEntity
  8
HATCH
100
AcDbLine
 10
43.712217
 20
51.207188
 30
0.0
 11
43.723217
 21
51.269288
 31
0.0
  0
LINE
  5
1AB
100
AcDbEntity
  8
HATCH
100
AcDbLine
 10
40.792917
 20
49.162988
 30
0.0
 11
40.803917
 21
49.225088
 31
0.0
  0
LINE
  5
1AC
100
AcDbEntity
  8
HATCH
100
AcDbLine
 10
41.678317
 20
51.080088
 30
0.0
 11
41.714417
 21
51.131788
 31
0.0
  0
LINE
  5
1AD
100
AcDbEntity
  8
HATCH
100
AcDbLine
 10
43.998417
 20
48.461188
 30
0.0
 11
44.034617
 21
48.512788
 31
0.0
  0
LINE
  5
1AE
100
AcDbEntity
  8
HATCH
100
AcDbLine
 10
43.742617
 20
49.634488
 30
0.0
 11
43.778817
 21
49.686088
 31
0.0
  0
LINE
  5
1AF
100
AcDbEntity
  8
HATCH
100
AcDbLine
 10
41.230517
 20
51.644588
 30
0.0
 11
41.241517
 21
51.706688
 31
0.0
  0
LINE
  5
1B0
100
AcDbEntity
  8
HATCH
100
AcDbLine
 10
41.577117
 20
51.440488
 30
0.0
 11
41.636317
 21
51.461888
 31
0.0
  0
LINE
  5
1B1
100
AcDbEntity
  8
HATCH
100
AcDbLine
 10
40.715217
 20
53.808588
 30
0.0
 11
40.774417
 21
53.830188
 31
0.0
  0
LINE
  5
1B2
100
AcDbEntity
  8
HATCH
100
AcDbLine
 10
41.059417
 20
54.589888
 30
0.0
 11
41.095617
 21
54.641488
 31
0.0
  0
LINE
  5
1B3
100
AcDbEntity
  8
HATCH
100
AcDbLine
 10
41.668117
 20
54.126288
 30
0.0
 11
41.679117
 21
54.188288
 31
0.0
  0
LINE
  5
1B4
100
AcDbEntity
  8
HATCH
100
AcDbLine
 10
43.123617
 20
53.144488
 30
0.0
 11
43.159817
 21
53.196088
 31
0.0
  0
CIRCLE
  5
1B5
100
AcDbEntity
  8
DRAWING
100
AcDbCircle
 10
44.127701
 20
50.193096
 30
0.0
 40
0.315
  0
LINE
  5
1B6
100
AcDbEntity
  8
HATCH
100
AcDbLine
 10
43.945117
 20
52.302388
 30
0.0
 11
44.004417
 21
52.323788
 31
0.0
  0
CIRCLE
  5
1B7
100
AcDbEntity
  8
DRAWING
100
AcDbCircle
 10
43.530417
 20
53.916088
 30
0.0
 40
0.315
  0
LINE
  5
1B8
100
AcDbEntity
  8
HATCH
100
AcDbLine
 10
43.083317
 20
54.670488
 30
0.0
 11
43.142417
 21
54.692088
 31
0.0
  0
LINE
  5
1B9
100
AcDbEntity
  8
HATCH
100
AcDbLine
 10
44.149817
 20
53.688788
 30
0.0
 11
44.160817
 21
53.750888
 31
0.0
  0
LINE
  5
1BA
100
AcDbEntity
  8
HATCH
100
AcDbLine
 10
44.399617
 20
48.725388
 30
0.0
 11
44.404617
 21
48.754088
 31
0.0
  0
LINE
  5
1BB
100
AcDbEntity
  8
HATCH
100
AcDbLine
 10
45.168517
 20
46.679888
 30
0.0
 11
45.227817
 21
46.701488
 31
0.0
  0
LINE
  5
1BC
100
AcDbEntity
  8
HATCH
100
AcDbLine
 10
45.772317
 20
47.014288
 30
0.0
 11
45.783117
 21
47.076188
 31
0.0
  0
LINE
  5
1BD
100
AcDbEntity
  8
HATCH
100
AcDbLine
 10
44.807017
 20
49.934288
 30
0.0
 11
44.866217
 21
49.955888
 31
0.0
  0
LINE
  5
1BE
100
AcDbEntity
  8
HATCH
100
AcDbLine
 10
46.411717
 20
47.541788
 30
0.0
 11
46.471017
 21
47.563388
 31
0.0
  0
LINE
  5
1BF
100
AcDbEntity
  8
HATCH
100
AcDbLine
 10
46.062717
 20
47.015888
 30
0.0
 11
46.098817
 21
47.067588
 31
0.0
  0
LINE
  5
1C0
100
AcDbEntity
  8
HATCH
100
AcDbLine
 10
46.209917
 20
49.495888
 30
0.0
 11
46.220717
 21
49.557988
 31
0.0
  0
LINE
  5
1C1
100
AcDbEntity
  8
HATCH
100
AcDbLine
 10
46.193917
 20
50.769588
 30
0.0
 11
46.204817
 21
50.831688
 31
0.0
  0
LINE
  5
1C2
100
AcDbEntity
  8
HATCH
100
AcDbLine
 10
45.188017
 20
51.698788
 30
0.0
 11
45.224117
 21
51.750488
 31
0.0
  0
LINE
  5
1C3
100
AcDbEntity
  8
HATCH
100
AcDbLine
 10
44.569017
 20
55.208788
 30
0.0
 11
44.605117
 21
55.260388
 31
0.0
  0
CIRCLE
  5
1C4
100
AcDbEntity
  8
DRAWING
100
AcDbCircle
 10
44.770817
 20
53.916088
 30
0.0
 40
0.315
  0
LINE
  5
1C5
100
AcDbEntity
  8
HATCH
100
AcDbLine
 10
46.313217
 20
53.164188
 30
0.0
 11
46.372417
 21
53.185688
 31
0.0
  0
LINE
  5
1C6
100
AcDbEntity
  8
HATCH
100
AcDbLine
 10
46.631617
 20
53.251188
 30
0.0
 11
46.642517
 21
53.313288
 31
0.0
  0
LINE
  5
1C7
100
AcDbEntity
  8
HATCH
100
AcDbLine
 10
46.633417
 20
53.763188
 30
0.0
 11
46.669517
 21
53.814788
 31
0.0
  0
LINE
  5
1C8
100
AcDbEntity
  8
DIM_TEXT
100
AcDbLine
 10
50.129917
 20
58.876788
 30
0.0
 11
48.936317
 21
55.637088
 31
0.0
  0
LINE
  5
1C9
100
AcDbEntity
  8
DRAWING
100
AcDbLine
 10
51.343617
 20
52.385088
 30
0.0
 11
49.327617
 21
52.385088
 31
0.0
  0
LINE
  5
1CA
100
AcDbEntity
  8
HATCH
100
AcDbLine
 10
49.113317
 20
52.813788
 30
0.0
 11
49.124217
 21
52.875788
 31
0.0
  0
LINE
  5
1CB
100
AcDbEntity
  8
DIM_TEXT
100
AcDbLine
 10
48.544317
 20
54.572888
 30
0.0
 11
49.291017
 21
55.506288
 31
0.0
  0
LINE
  5
1CC
100
AcDbEntity
  8
DIM_TEXT
100
AcDbLine
 10
48.581617
 20
55.767788
 30
0.0
 11
49.291017
 21
55.506288
 31
0.0
  0
LINE
  5
1CD
100
AcDbEntity
  8
HATCH
100
AcDbLine
 10
48.681217
 20
54.026088
 30
0.0
 11
48.740417
 21
54.047488
 31
0.0
  0
LINE
  5
1CE
100
AcDbEntity
  8
DIM_TEXT
100
AcDbLine
 10
48.544317
 20
54.572888
 30
0.0
 11
48.581617
 21
55.767788
 31
0.0
  0
LINE
  5
1CF
100
AcDbEntity
  8
HATCH
100
AcDbLine
 10
49.550917
 20
55.295388
 30
0.0
 11
49.561817
 21
55.357488
 31
0.0
  0
LINE
  5
1D0
100
AcDbEntity
  8
HATCH
100
AcDbLine
 10
50.143017
 20
54.382088
 30
0.0
 11
50.179117
 21
54.433688
 31
0.0
  0
LINE
  5
1D1
100
AcDbEntity
  8
HATCH
100
AcDbLine
 10
51.049317
 20
54.887988
 30
0.0
 11
51.108517
 21
54.909388
 31
0.0
  0
LINE
  5
1D2
100
AcDbEntity
  8
HATCH
100
AcDbLine
 10
52.014017
 20
49.906588
 30
0.0
 11
52.050117
 21
49.958188
 31
0.0
  0
LINE
  5
1D3
100
AcDbEntity
  8
HATCH
100
AcDbLine
 10
52.773017
 20
50.151788
 30
0.0
 11
52.832217
 21
50.173388
 31
0.0
  0
LINE
  5
1D4
100
AcDbEntity
  8
HATCH
100
AcDbLine
 10
54.078517
 20
48.461188
 30
0.0
 11
54.114617
 21
48.512788
 31
0.0
  0
LINE
  5
1D5
100
AcDbEntity
  8
HATCH
100
AcDbLine
 10
53.370917
 20
47.451688
 30
0.0
 11
53.381717
 21
47.513788
 31
0.0
  0
LINE
  5
1D6
100
AcDbEntity
  8
HATCH
100
AcDbLine
 10
54.123517
 20
46.679888
 30
0.0
 11
54.182717
 21
46.701488
 31
0.0
  0
LINE
  5
1D7
100
AcDbEntity
  8
HATCH
100
AcDbLine
 10
53.261617
 20
49.047988
 30
0.0
 11
53.321017
 21
49.069588
 31
0.0
  0
LINE
  5
1D8
100
AcDbEntity
  8
DIM_TEXT
100
AcDbLine
 10
51.937817
 20
53.501288
 30
0.0
 11
52.900517
 21
52.792888
 31
0.0
  0
LINE
  5
1D9
100
AcDbEntity
  8
DIM_TEXT
100
AcDbLine
 10
52.900517
 20
52.792888
 30
0.0
 11
52.282917
 21
52.356888
 31
0.0
  0
LINE
  5
1DA
100
AcDbEntity
  8
DIM_TEXT
100
AcDbLine
 10
51.937817
 20
53.501288
 30
0.0
 11
52.282917
 21
52.356888
 31
0.0
  0
LINE
  5
1DB
100
AcDbEntity
  8
HATCH
100
AcDbLine
 10
51.911117
 20
52.519888
 30
0.0
 11
51.970317
 21
52.541488
 31
0.0
  0
LINE
  5
1DC
100
AcDbEntity
  8
HATCH
100
AcDbLine
 10
52.207317
 20
52.936588
 30
0.0
 11
52.243417
 21
52.988288
 31
0.0
  0
LINE
  5
1DD
100
AcDbEntity
  8
HATCH
100
AcDbLine
 10
51.595017
 20
52.376188
 30
0.0
 11
51.605917
 21
52.438188
 31
0.0
  0
LINE
  5
1DE
100
AcDbEntity
  8
HATCH
100
AcDbLine
 10
52.032617
 20
54.857788
 30
0.0
 11
52.043517
 21
54.919888
 31
0.0
  0
LINE
  5
1DF
100
AcDbEntity
  8
HATCH
100
AcDbLine
 10
54.076717
 20
51.938488
 30
0.0
 11
54.087717
 21
52.000388
 31
0.0
  0
CIRCLE
  5
1E0
100
AcDbEntity
  8
DRAWING
100
AcDbCircle
 10
54.844001
 20
50.193096
 30
0.0
 40
0.315
  0
LINE
  5
1E1
100
AcDbEntity
  8
HATCH
100
AcDbLine
 10
54.279117
 20
53.381788
 30
0.0
 11
54.338317
 21
53.403388
 31
0.0
  0
LINE
  5
1E2
100
AcDbEntity
  8
HATCH
100
AcDbLine
 10
54.271517
 20
51.491188
 30
0.0
 11
54.307617
 21
51.542788
 31
0.0
  0
LINE
  5
1E3
100
AcDbEntity
  8
HATCH
100
AcDbLine
 10
53.652717
 20
55.000988
 30
0.0
 11
53.688717
 21
55.052588
 31
0.0
  0
CIRCLE
  5
1E4
100
AcDbEntity
  8
DRAWING
100
AcDbCircle
 10
53.630117
 20
53.916088
 30
0.0
 40
0.315
  0
LINE
  5
1E5
100
AcDbEntity
  8
HATCH
100
AcDbLine
 10
54.514317
 20
54.420188
 30
0.0
 11
54.525217
 21
54.481988
 31
0.0
  0
TEXT
  5
1E6
100
AcDbEntity
  8
DIM_TEXT
100
AcDbText
 10
46.233222
 20
59.751088
 30
0.0
 40
1.125
  1
DOWEL LAP
 51
15.0
  7
INFO
100
AcDbText
  0
LINE
  5
1E7
100
AcDbEntity
  8
DIM_TEXT
100
AcDbLine
 10
44.079217
 20
66.896788
 30
0.0
 11
45.865217
 21
66.896788
 31
0.0
  0
LINE
  5
1E8
100
AcDbEntity
  8
DIM_TEXT
100
AcDbLine
 10
55.021729
 20
68.146781
 30
0.0
 11
53.545317
 21
68.146788
 31
0.0
  0
LINE
  5
1E9
100
AcDbEntity
  8
DIM_TEXT
100
AcDbLine
 10
62.685217
 20
62.428588
 30
0.0
 11
60.184817
 21
62.428588
 31
0.0
  0
ARC
  5
1EA
100
AcDbEntity
  8
DRAWING
100
AcDbCircle
 10
64.447617
 20
52.385088
 30
0.0
 40
3.024
100
AcDbArc
 50
180.0
 51
0.0
  0
LINE
  5
1EB
100
AcDbEntity
  8
DIM_TEXT
100
AcDbLine
 10
60.184817
 20
62.428588
 30
0.0
 11
55.388117
 21
55.004288
 31
0.0
  0
LINE
  5
1EC
100
AcDbEntity
  8
DRAWING
100
AcDbLine
 10
59.407617
 20
52.385088
 30
0.0
 11
57.391617
 21
52.385088
 31
0.0
  0
LINE
  5
1ED
100
AcDbEntity
  8
HATCH
100
AcDbLine
 10
55.852317
 20
47.014288
 30
0.0
 11
55.863117
 21
47.076188
 31
0.0
  0
LINE
  5
1EE
100
AcDbEntity
  8
HATCH
100
AcDbLine
 10
56.491617
 20
47.541788
 30
0.0
 11
56.550917
 21
47.563388
 31
0.0
  0
LINE
  5
1EF
100
AcDbEntity
  8
HATCH
100
AcDbLine
 10
56.142717
 20
47.015888
 30
0.0
 11
56.178917
 21
47.067588
 31
0.0
  0
LINE
  5
1F0
100
AcDbEntity
  8
HATCH
100
AcDbLine
 10
55.141017
 20
51.013688
 30
0.0
 11
55.200217
 21
51.035288
 31
0.0
  0
LINE
  5
1F1
100
AcDbEntity
  8
HATCH
100
AcDbLine
 10
56.289817
 20
49.495888
 30
0.0
 11
56.300617
 21
49.557988
 31
0.0
  0
LINE
  5
1F2
100
AcDbEntity
  8
HATCH
100
AcDbLine
 10
56.558417
 20
51.500888
 30
0.0
 11
56.569417
 21
51.562988
 31
0.0
  0
LINE
  5
1F3
100
AcDbEntity
  8
DIM_TEXT
100
AcDbLine
 10
55.073217
 20
55.207688
 30
0.0
 11
55.703117
 21
54.800788
 31
0.0
  0
LINE
  5
1F4
100
AcDbEntity
  8
HATCH
100
AcDbLine
 10
55.716917
 20
53.555488
 30
0.0
 11
55.753017
 21
53.607188
 31
0.0
  0
LINE
  5
1F5
100
AcDbEntity
  8
HATCH
100
AcDbLine
 10
56.647217
 20
54.243588
 30
0.0
 11
56.706417
 21
54.265288
 31
0.0
  0
LINE
  5
1F6
100
AcDbEntity
  8
HATCH
100
AcDbLine
 10
56.996117
 20
53.982488
 30
0.0
 11
57.007117
 21
54.044588
 31
0.0
  0
LINE
  5
1F7
100
AcDbEntity
  8
HATCH
100
AcDbLine
 10
62.094017
 20
49.906588
 30
0.0
 11
62.130217
 21
49.958188
 31
0.0
  0
LINE
  5
1F8
100
AcDbEntity
  8
DRAWING
100
AcDbLine
 10
61.423617
 20
52.385088
 30
0.0
 11
59.407617
 21
52.385088
 31
0.0
  0
LINE
  5
1F9
100
AcDbEntity
  8
HATCH
100
AcDbLine
 10
59.877017
 20
52.737588
 30
0.0
 11
59.936217
 21
52.758988
 31
0.0
  0
LINE
  5
1FA
100
AcDbEntity
  8
HATCH
100
AcDbLine
 10
59.015217
 20
55.105488
 30
0.0
 11
59.074417
 21
55.127088
 31
0.0
  0
LINE
  5
1FB
100
AcDbEntity
  8
HATCH
100
AcDbLine
 10
59.226617
 20
54.174188
 30
0.0
 11
59.262617
 21
54.225888
 31
0.0
  0
LINE
  5
1FC
100
AcDbEntity
  8
HATCH
100
AcDbLine
 10
59.477717
 20
53.545088
 30
0.0
 11
59.488717
 21
53.606988
 31
0.0
  0
LINE
  5
1FD
100
AcDbEntity
  8
HATCH
100
AcDbLine
 10
61.290817
 20
52.728788
 30
0.0
 11
61.326917
 21
52.780388
 31
0.0
  0
LINE
  5
1FE
100
AcDbEntity
  8
HATCH
100
AcDbLine
 10
61.959517
 20
53.107288
 30
0.0
 11
61.970517
 21
53.169388
 31
0.0
  0
LINE
  5
1FF
100
AcDbEntity
  8
DIM_TEXT
100
AcDbLine
 10
62.772217
 20
54.844788
 30
0.0
 11
62.772217
 21
59.445488
 31
0.0
  0
LINE
  5
200
100
AcDbEntity
  8
HATCH
100
AcDbLine
 10
63.451017
 20
47.451688
 30
0.0
 11
63.461817
 21
47.513788
 31
0.0
  0
LINE
  5
201
100
AcDbEntity
  8
HATCH
100
AcDbLine
 10
63.341717
 20
49.047988
 30
0.0
 11
63.401017
 21
49.069588
 31
0.0
  0
LINE
  5
202
100
AcDbEntity
  8
HATCH
100
AcDbLine
 10
64.203617
 20
46.679888
 30
0.0
 11
64.262717
 21
46.701488
 31
0.0
  0
LINE
  5
203
100
AcDbEntity
  8
HATCH
100
AcDbLine
 10
64.158517
 20
48.461188
 30
0.0
 11
64.194617
 21
48.512788
 31
0.0
  0
LINE
  5
204
100
AcDbEntity
  8
HATCH
100
AcDbLine
 10
64.003617
 20
50.187988
 30
0.0
 11
64.014617
 21
50.250088
 31
0.0
  0
CIRCLE
  5
205
100
AcDbEntity
  8
DRAWING
100
AcDbCircle
 10
63.729917
 20
53.916088
 30
0.0
 40
0.315
  0
LINE
  5
206
100
AcDbEntity
  8
HATCH
100
AcDbLine
 10
63.106917
 20
51.231388
 30
0.0
 11
63.166117
 21
51.252788
 31
0.0
  0
LINE
  5
207
100
AcDbEntity
  8
HATCH
100
AcDbLine
 10
63.355017
 20
51.283388
 30
0.0
 11
63.391117
 21
51.334988
 31
0.0
  0
LINE
  5
208
100
AcDbEntity
  8
HATCH
100
AcDbLine
 10
62.245117
 20
53.599488
 30
0.0
 11
62.304217
 21
53.620888
 31
0.0
  0
LINE
  5
209
100
AcDbEntity
  8
HATCH
100
AcDbLine
 10
62.736217
 20
54.793088
 30
0.0
 11
62.772217
 21
54.844788
 31
0.0
  0
LINE
  5
20A
100
AcDbEntity
  8
HATCH
100
AcDbLine
 10
63.372817
 20
54.461388
 30
0.0
 11
63.432017
 21
54.482788
 31
0.0
  0
LINE
  5
20B
100
AcDbEntity
  8
HATCH
100
AcDbLine
 10
64.800317
 20
53.347688
 30
0.0
 11
64.836617
 21
53.399288
 31
0.0
  0
CIRCLE
  5
20C
100
AcDbEntity
  8
DRAWING
100
AcDbCircle
 10
64.488601
 20
50.193096
 30
0.0
 40
0.315
  0
LINE
  5
20D
100
AcDbEntity
  8
HATCH
100
AcDbLine
 10
64.441217
 20
52.669688
 30
0.0
 11
64.452217
 21
52.731688
 31
0.0
  0
LINE
  5
20E
100
AcDbEntity
  8
HATCH
100
AcDbLine
 10
65.475017
 20
52.093288
 30
0.0
 11
65.534217
 21
52.114888
 31
0.0
  0
CIRCLE
  5
20F
100
AcDbEntity
  8
DRAWING
100
AcDbCircle
 10
64.970217
 20
53.916088
 30
0.0
 40
0.315
  0
LINE
  5
210
100
AcDbEntity
  8
HATCH
100
AcDbLine
 10
64.613217
 20
54.461388
 30
0.0
 11
64.672317
 21
54.482788
 31
0.0
  0
LINE
  5
211
100
AcDbEntity
  8
HATCH
100
AcDbLine
 10
64.878917
 20
55.151288
 30
0.0
 11
64.889817
 21
55.213388
 31
0.0
  0
LINE
  5
212
100
AcDbEntity
  8
HATCH
100
AcDbLine
 10
66.571717
 20
47.541788
 30
0.0
 11
66.631017
 21
47.563388
 31
0.0
  0
LINE
  5
213
100
AcDbEntity
  8
HATCH
100
AcDbLine
 10
66.222717
 20
47.015888
 30
0.0
 11
66.258917
 21
47.067588
 31
0.0
  0
LINE
  5
214
100
AcDbEntity
  8
HATCH
100
AcDbLine
 10
65.932317
 20
47.014288
 30
0.0
 11
65.943117
 21
47.076188
 31
0.0
  0
LINE
  5
215
100
AcDbEntity
  8
HATCH
100
AcDbLine
 10
66.369917
 20
49.495888
 30
0.0
 11
66.380717
 21
49.557988
 31
0.0
  0
LINE
  5
216
100
AcDbEntity
  8
HATCH
100
AcDbLine
 10
66.864617
 20
51.902288
 30
0.0
 11
66.900717
 21
51.953888
 31
0.0
  0
LINE
  5
217
100
AcDbEntity
  8
HATCH
100
AcDbLine
 10
66.981117
 20
55.323188
 30
0.0
 11
67.040417
 21
55.344688
 31
0.0
  0
LINE
  5
218
100
AcDbEntity
  8
DIM_TEXT
100
AcDbLine
 10
62.397217
 20
59.070488
 30
0.0
 11
63.147217
 21
59.820488
 31
0.0
  0
TEXT
  5
219
100
AcDbEntity
  8
DIM_TEXT
100
AcDbText
 10
55.736129
 20
67.610781
 30
0.0
 40
1.134
  1
DOWEL TO MATCH SLAB REINF.
 51
15.0
  7
INFO
100
AcDbText
  0
LINE
  5
21A
100
AcDbEntity
  8
HATCH
100
AcDbLine
 10
72.362617
 20
52.796688
 30
0.0
 11
76.585317
 21
52.505588
 31
0.0
  0
LINE
  5
21B
100
AcDbEntity
  8
HATCH
100
AcDbLine
 10
76.585317
 20
52.505588
 30
0.0
 11
69.619617
 21
49.647888
 31
0.0
  0
LINE
  5
21C
100
AcDbEntity
  8
HATCH
100
AcDbLine
 10
71.227117
 20
57.149288
 30
0.0
 11
72.362617
 21
52.796688
 31
0.0
  0
LINE
  5
21D
100
AcDbEntity
  8
HATCH
100
AcDbLine
 10
69.619617
 20
49.647888
 30
0.0
 11
73.327317
 21
49.098588
 31
0.0
  0
ARC
  5
21E
100
AcDbEntity
  8
DRAWING
100
AcDbCircle
 10
74.527617
 20
52.385088
 30
0.0
 40
3.024
100
AcDbArc
 50
180.0
 51
215.0959
  0
LINE
  5
21F
100
AcDbEntity
  8
HATCH
100
AcDbLine
 10
72.438517
 20
51.075588
 30
0.0
 11
72.474617
 21
51.127188
 31
0.0
  0
LINE
  5
220
100
AcDbEntity
  8
DRAWING
100
AcDbLine
 10
71.503617
 20
52.385088
 30
0.0
 11
69.487617
 21
52.385088
 31
0.0
  0
LINE
  5
221
100
AcDbEntity
  8
HATCH
100
AcDbLine
 10
70.374217
 20
52.520988
 30
0.0
 11
70.410517
 21
52.572588
 31
0.0
  0
LINE
  5
222
100
AcDbEntity
  8
HATCH
100
AcDbLine
 10
69.842317
 20
54.276188
 30
0.0
 11
69.853317
 21
54.338088
 31
0.0
  0
LINE
  5
223
100
AcDbEntity
  8
HATCH
100
AcDbLine
 10
70.211117
 20
53.816988
 30
0.0
 11
70.270217
 21
53.838588
 31
0.0
  0
LINE
  5
224
100
AcDbEntity
  8
HATCH
100
AcDbLine
 10
71.886517
 20
51.356788
 30
0.0
 11
71.897517
 21
51.418888
 31
0.0
  0
LINE
  5
225
100
AcDbEntity
  8
HATCH
100
AcDbLine
 10
71.819617
 20
54.585288
 30
0.0
 11
71.855717
 21
54.636988
 31
0.0
  0
LINE
  5
226
100
AcDbEntity
  8
HATCH
100
AcDbLine
 10
73.531017
 20
47.451688
 30
0.0
 11
73.541817
 21
47.513788
 31
0.0
  0
LINE
  5
227
100
AcDbEntity
  8
HATCH
100
AcDbLine
 10
73.441017
 20
52.310788
 30
0.0
 11
73.500217
 21
52.332388
 31
0.0
  0
LINE
  5
228
100
AcDbEntity
  8
DRAWING
100
AcDbLine
 10
43.155867
 20
46.336988
 30
0.0
 11
43.155867
 21
49.580856
 31
0.0
  0
LINE
  5
229
100
AcDbEntity
  8
DRAWING
100
AcDbLine
 10
35.155867
 20
49.513608
 30
0.0
 11
35.155867
 21
46.336988
 31
0.0
  0
LINE
  5
22A
100
AcDbEntity
  8
DIM_TEXT
100
AcDbLine
 10
55.450745
 20
29.298628
 30
0.0
 11
50.980399
 21
33.285928
 31
0.0
  0
TEXT
  5
22B
100
AcDbEntity
  8
DRAWING
100
AcDbText
 10
25.230558
 20
5.086431
 30
0.0
 40
2.5
  1
INTERIOR WALL
  7
TITLE
 72
     1
 11
40.290081
 21
5.086431
 31
0.0
100
AcDbText
  0
LINE
  5
22C
100
AcDbEntity
  8
DIM_TEXT
100
AcDbLine
 10
47.68522
 20
36.189421
 30
0.0
 11
40.215362
 21
42.771365
 31
0.0
  0
TEXT
  5
230
100
AcDbEntity
  8
DIM_TEXT
100
AcDbText
 10
59.796517
 20
27.174912
 30
0.0
 40
1.134
  1
(MIN. #4 @ 30" O.C.
 51
15.0
  7
INFO
100
AcDbText
  0
TEXT
  5
231
100
AcDbEntity
  8
DIM_TEXT
100
AcDbText
 10
59.796517
 20
25.479361
 30
0.0
 40
1.134
  1
REQUIRED PER DESIGN)
 51
15.0
  7
INFO
100
AcDbText
  0
LINE
  5
233
100
AcDbEntity
  8
DIM_TEXT
100
AcDbLine
 10
34.477917
 20
30.070124
 30
0.0
 11
33.282717
 21
30.088024
 31
0.0
  0
LINE
  5
234
100
AcDbEntity
  8
DIM_TEXT
100
AcDbLine
 10
34.477917
 20
30.070124
 30
0.0
 11
33.511017
 21
29.367324
 31
0.0
  0
LINE
  5
235
100
AcDbEntity
  8
DIM_TEXT
100
AcDbLine
 10
33.511017
 20
29.367324
 30
0.0
 11
33.282717
 21
30.088024
 31
0.0
  0
LINE
  5
236
100
AcDbEntity
  8
DIM_TEXT
100
AcDbLine
 10
23.435094
 20
25.739824
 30
0.0
 11
33.396917
 21
29.727724
 31
0.0
  0
LINE
  5
237
100
AcDbEntity
  8
DIM_TEXT
100
AcDbLine
 10
22.184994
 20
25.739824
 30
0.0
 11
23.435094
 21
25.739824
 31
0.0
  0
LINE
  5
238
100
AcDbEntity
  8
DIM_TEXT
100
AcDbLine
 10
34.477917
 20
30.070124
 30
0.0
 11
33.282717
 21
30.088024
 31
0.0
  0
LINE
  5
239
100
AcDbEntity
  8
DIM_TEXT
100
AcDbLine
 10
33.511017
 20
29.367324
 30
0.0
 11
33.282717
 21
30.088024
 31
0.0
  0
LINE
  5
23A
100
AcDbEntity
  8
DIM_TEXT
100
AcDbLine
 10
34.477917
 20
30.070124
 30
0.0
 11
33.511017
 21
29.367324
 31
0.0
  0
LINE
  5
23B
100
AcDbEntity
  8
DIM_TEXT
100
AcDbLine
 10
23.435094
 20
25.739824
 30
0.0
 11
33.396917
 21
29.727724
 31
0.0
  0
LINE
  5
23C
100
AcDbEntity
  8
DIM_TEXT
100
AcDbLine
 10
22.184994
 20
25.739824
 30
0.0
 11
23.435094
 21
25.739824
 31
0.0
  0
LINE
  5
23D
100
AcDbEntity
  8
DIM_TEXT
100
AcDbLine
 10
39.924299
 20
26.080725
 30
0.0
 11
41.119499
 21
26.098625
 31
0.0
  0
LINE
  5
23E
100
AcDbEntity
  8
DIM_TEXT
100
AcDbLine
 10
40.891199
 20
25.377925
 30
0.0
 11
41.119499
 21
26.098625
 31
0.0
  0
LINE
  5
23F
100
AcDbEntity
  8
DIM_TEXT
100
AcDbLine
 10
39.924299
 20
26.080725
 30
0.0
 11
40.891199
 21
25.377925
 31
0.0
  0
LINE
  5
240
100
AcDbEntity
  8
DIM_TEXT
100
AcDbLine
 10
50.967122
 20
21.750425
 30
0.0
 11
41.005299
 21
25.738325
 31
0.0
  0
LINE
  5
241
100
AcDbEntity
  8
DIM_TEXT
100
AcDbLine
 10
52.217222
 20
21.750425
 30
0.0
 11
50.967122
 21
21.750425
 31
0.0
  0
TEXT
  5
242
100
AcDbEntity
  8
DIM_TEXT
100
AcDbText
 10
52.783802
 20
21.446464
 30
0.0
 40
1.134
  1
VERT. REINF.
 51
15.0
  7
INFO
100
AcDbText
  0
TEXT
  5
243
100
AcDbEntity
  8
DIM_TEXT
100
AcDbText
 10
52.783802
 20
19.750913
 30
0.0
 40
1.134
  1
(MIN. #4 @ 30" O.C.
 51
15.0
  7
INFO
100
AcDbText
  0
TEXT
  5
244
100
AcDbEntity
  8
DIM_TEXT
100
AcDbText
 10
52.783802
 20
18.055362
 30
0.0
 40
1.134
  1
REQUIRED PER DESIGN)
 51
15.0
  7
INFO
100
AcDbText
  0
ENDSEC
  0
SECTION
  2
OBJECTS
  0
DICTIONARY
  5
C
100
AcDbDictionary
  3
ACAD_GROUP
350
D
  3
ACAD_MLINESTYLE
350
1A
  3
ACDBVARIABLEDICTIONARY
350
29
  0
DICTIONARY
  5
D
102
{ACAD_REACTORS
330
C
102
}
100
AcDbDictionary
  0
DICTIONARY
  5
1A
102
{ACAD_REACTORS
330
C
102
}
100
AcDbDictionary
  3
STANDARD
350
1B
  0
DICTIONARY
  5
29
102
{ACAD_REACTORS
330
C
102
}
100
AcDbDictionary
  3
DIMADEC
350
2A
  0
MLINESTYLE
  5
1B
102
{ACAD_REACTORS
330
1A
102
}
100
AcDbMlineStyle
  2
STANDARD
 70
     0
  3

 62
   256
 51
90.0
 52
90.0
 71
     2
 49
0.5
 62
   256
  6
BYLAYER
 49
-0.5
 62
   256
  6
BYLAYER
  0
DICTIONARYVAR
  5
2A
102
{ACAD_REACTORS
330
29
102
}
100
DictionaryVariables
280
     0
  1
0
  0
ENDSEC
  0
EOF
