  0
SECTION
  2
HEADER
  9
$ACADVER
  1
AC1014
  9
$ACADMAINTVER
 70
     8
  9
$DWGCODEPAGE
  3
ANSI_1252
  9
$INSBASE
 10
0.0
 20
0.0
 30
0.0
  9
$EXTMIN
 10
10.036517
 20
4.961431
 30
0.0
  9
$EXTMAX
 10
71.485589
 20
77.50043
 30
0.0
  9
$LIMMIN
 10
0.0
 20
0.0
  9
$LIMMAX
 10
85.0
 20
110.0
  9
$ORTHOMODE
 70
     1
  9
$REGENMODE
 70
     1
  9
$FILLMODE
 70
     1
  9
$QTEXTMODE
 70
     0
  9
$MIRRTEXT
 70
     1
  9
$DRAGMODE
 70
     2
  9
$LTSCALE
 40
3.0
  9
$OSMODE
 70
    37
  9
$ATTMODE
 70
     1
  9
$TEXTSIZE
 40
0.2
  9
$TRACEWID
 40
0.05
  9
$TEXTSTYLE
  7
STANDARD
  9
$CLAYER
  8
0
  9
$CELTYPE
  6
BYLAYER
  9
$CECOLOR
 62
   256
  9
$CELTSCALE
 40
1.0
  9
$DELOBJ
 70
     1
  9
$DISPSILH
 70
     0
  9
$DIMSCALE
 40
1.0
  9
$DIMASZ
 40
0.18
  9
$DIMEXO
 40
0.0625
  9
$DIMDLI
 40
0.38
  9
$DIMRND
 40
0.0
  9
$DIMDLE
 40
0.0
  9
$DIMEXE
 40
0.18
  9
$DIMTP
 40
0.0
  9
$DIMTM
 40
0.0
  9
$DIMTXT
 40
0.18
  9
$DIMCEN
 40
0.09
  9
$DIMTSZ
 40
0.0
  9
$DIMTOL
 70
     0
  9
$DIMLIM
 70
     0
  9
$DIMTIH
 70
     1
  9
$DIMTOH
 70
     1
  9
$DIMSE1
 70
     0
  9
$DIMSE2
 70
     0
  9
$DIMTAD
 70
     0
  9
$DIMZIN
 70
     0
  9
$DIMBLK
  1

  9
$DIMASO
 70
     1
  9
$DIMSHO
 70
     1
  9
$DIMPOST
  1

  9
$DIMAPOST
  1

  9
$DIMALT
 70
     0
  9
$DIMALTD
 70
     2
  9
$DIMALTF
 40
25.4
  9
$DIMLFAC
 40
1.0
  9
$DIMTOFL
 70
     0
  9
$DIMTVP
 40
0.0
  9
$DIMTIX
 70
     0
  9
$DIMSOXD
 70
     0
  9
$DIMSAH
 70
     0
  9
$DIMBLK1
  1

  9
$DIMBLK2
  1

  9
$DIMSTYLE
  2
STANDARD
  9
$DIMCLRD
 70
     0
  9
$DIMCLRE
 70
     0
  9
$DIMCLRT
 70
     0
  9
$DIMTFAC
 40
1.0
  9
$DIMGAP
 40
0.09
  9
$DIMJUST
 70
     0
  9
$DIMSD1
 70
     0
  9
$DIMSD2
 70
     0
  9
$DIMTOLJ
 70
     1
  9
$DIMTZIN
 70
     0
  9
$DIMALTZ
 70
     0
  9
$DIMALTTZ
 70
     0
  9
$DIMFIT
 70
     5
  9
$DIMUPT
 70
     0
  9
$DIMUNIT
 70
     4
  9
$DIMDEC
 70
     4
  9
$DIMTDEC
 70
     4
  9
$DIMALTU
 70
     4
  9
$DIMALTTD
 70
     2
  9
$DIMTXSTY
  7
STANDARD
  9
$DIMAUNIT
 70
     2
  9
$LUNITS
 70
     4
  9
$LUPREC
 70
     4
  9
$SKETCHINC
 40
0.1
  9
$FILLETRAD
 40
0.0
  9
$AUNITS
 70
     2
  9
$AUPREC
 70
     0
  9
$MENU
  1
acad
  9
$ELEVATION
 40
0.0
  9
$PELEVATION
 40
0.0
  9
$THICKNESS
 40
0.0
  9
$LIMCHECK
 70
     0
  9
$BLIPMODE
 70
     1
  9
$CHAMFERA
 40
0.0
  9
$CHAMFERB
 40
0.0
  9
$CHAMFERC
 40
0.0
  9
$CHAMFERD
 40
0.0
  9
$SKPOLY
 70
     0
  9
$TDCREATE
 40
2451166.691471180
  9
$TDUPDATE
 40
2452235.509514004
  9
$TDINDWG
 40
0.0331562500
  9
$TDUSRTIMER
 40
0.0331562500
  9
$USRTIMER
 70
     1
  9
$ANGBASE
 50
0.0
  9
$ANGDIR
 70
     0
  9
$PDMODE
 70
     0
  9
$PDSIZE
 40
0.0
  9
$PLINEWID
 40
0.0
  9
$COORDS
 70
     1
  9
$SPLFRAME
 70
     0
  9
$SPLINETYPE
 70
     6
  9
$SPLINESEGS
 70
     8
  9
$ATTDIA
 70
     0
  9
$ATTREQ
 70
     1
  9
$HANDLING
 70
     1
  9
$HANDSEED
  5
743
  9
$SURFTAB1
 70
     6
  9
$SURFTAB2
 70
     6
  9
$SURFTYPE
 70
     6
  9
$SURFU
 70
     6
  9
$SURFV
 70
     6
  9
$UCSNAME
  2

  9
$UCSORG
 10
0.0
 20
0.0
 30
0.0
  9
$UCSXDIR
 10
1.0
 20
0.0
 30
0.0
  9
$UCSYDIR
 10
0.0
 20
1.0
 30
0.0
  9
$PUCSNAME
  2

  9
$PUCSORG
 10
0.0
 20
0.0
 30
0.0
  9
$PUCSXDIR
 10
1.0
 20
0.0
 30
0.0
  9
$PUCSYDIR
 10
0.0
 20
1.0
 30
0.0
  9
$USERI1
 70
     0
  9
$USERI2
 70
     0
  9
$USERI3
 70
     0
  9
$USERI4
 70
     0
  9
$USERI5
 70
     0
  9
$USERR1
 40
0.0
  9
$USERR2
 40
0.0
  9
$USERR3
 40
0.0
  9
$USERR4
 40
0.0
  9
$USERR5
 40
0.0
  9
$WORLDVIEW
 70
     1
  9
$SHADEDGE
 70
     3
  9
$SHADEDIF
 70
    70
  9
$TILEMODE
 70
     1
  9
$MAXACTVP
 70
    16
  9
$PINSBASE
 10
0.0
 20
0.0
 30
0.0
  9
$PLIMCHECK
 70
     0
  9
$PEXTMIN
 10
1.000000E+20
 20
1.000000E+20
 30
1.000000E+20
  9
$PEXTMAX
 10
-1.000000E+20
 20
-1.000000E+20
 30
-1.000000E+20
  9
$PLIMMIN
 10
0.0
 20
0.0
  9
$PLIMMAX
 10
12.0
 20
9.0
  9
$UNITMODE
 70
     0
  9
$VISRETAIN
 70
     0
  9
$PLINEGEN
 70
     0
  9
$PSLTSCALE
 70
     1
  9
$TREEDEPTH
 70
  3020
  9
$PICKSTYLE
 70
     1
  9
$CMLSTYLE
  2
STANDARD
  9
$CMLJUST
 70
     0
  9
$CMLSCALE
 40
1.0
  9
$PROXYGRAPHICS
 70
     1
  9
$MEASUREMENT
 70
     0
  0
ENDSEC
  0
SECTION
  2
CLASSES
  0
CLASS
  1
DICTIONARYVAR
  2
AcDbDictionaryVar
  3
"AutoCAD"
 90
        0
280
     0
281
     0
  0
ENDSEC
  0
SECTION
  2
TABLES
  0
TABLE
  2
VPORT
  5
8
100
AcDbSymbolTable
 70
     1
  0
VPORT
  5
73D
100
AcDbSymbolTableRecord
100
AcDbViewportTableRecord
  2
*ACTIVE
 70
     0
 10
0.0
 20
0.0
 11
1.0
 21
1.0
 12
40.117573
 22
42.9
 13
0.0
 23
0.0
 14
1.0
 24
1.0
 15
1.0
 25
1.0
 16
0.0
 26
0.0
 36
1.0
 17
0.0
 27
0.0
 37
0.0
 40
82.133334
 41
1.474388
 42
50.0
 43
0.0
 44
0.0
 50
0.0
 51
0.0
 71
     0
 72
   100
 73
     1
 74
     1
 75
     0
 76
     0
 77
     0
 78
     0
  0
ENDTAB
  0
TABLE
  2
LTYPE
  5
5
100
AcDbSymbolTable
 70
     1
  0
LTYPE
  5
11
100
AcDbSymbolTableRecord
100
AcDbLinetypeTableRecord
  2
BYBLOCK
 70
     0
  3

 72
    65
 73
     0
 40
0.0
  0
LTYPE
  5
12
100
AcDbSymbolTableRecord
100
AcDbLinetypeTableRecord
  2
BYLAYER
 70
     0
  3

 72
    65
 73
     0
 40
0.0
  0
LTYPE
  5
13
100
AcDbSymbolTableRecord
100
AcDbLinetypeTableRecord
  2
CONTINUOUS
 70
     0
  3
Solid line
 72
    65
 73
     0
 40
0.0
  0
ENDTAB
  0
TABLE
  2
LAYER
  5
2
100
AcDbSymbolTable
 70
     4
  0
LAYER
  5
E
100
AcDbSymbolTableRecord
100
AcDbLayerTableRecord
  2
0
 70
     0
 62
     7
  6
CONTINUOUS
  0
LAYER
  5
22
100
AcDbSymbolTableRecord
100
AcDbLayerTableRecord
  2
DRAWING
 70
     0
 62
     7
  6
CONTINUOUS
  0
LAYER
  5
23
100
AcDbSymbolTableRecord
100
AcDbLayerTableRecord
  2
HATCH
 70
     0
 62
     3
  6
CONTINUOUS
  0
LAYER
  5
24
100
AcDbSymbolTableRecord
100
AcDbLayerTableRecord
  2
DIM_TEXT
 70
     0
 62
     6
  6
CONTINUOUS
  0
ENDTAB
  0
TABLE
  2
STYLE
  5
3
100
AcDbSymbolTable
 70
     3
  0
STYLE
  5
F
100
AcDbSymbolTableRecord
100
AcDbTextStyleTableRecord
  2
STANDARD
 70
     0
 40
0.0
 41
1.0
 50
0.0
 71
     0
 42
0.2
  3
txt
  4

  0
STYLE
  5
1C
100
AcDbSymbolTableRecord
100
AcDbTextStyleTableRecord
  2
INFO
 70
     0
 40
0.0
 41
1.0
 50
15.0
 71
     0
 42
1.08
  3
C:\ACADWIN\FONTS\ROMANS.SHX
  4

  0
STYLE
  5
1D
100
AcDbSymbolTableRecord
100
AcDbTextStyleTableRecord
  2
TITLE
 70
     0
 40
0.0
 41
1.0
 50
0.0
 71
     0
 42
2.8
  3
C:\ACADWIN\FONTS\ROMANC.SHX
  4

  0
ENDTAB
  0
TABLE
  2
VIEW
  5
6
100
AcDbSymbolTable
 70
     0
  0
ENDTAB
  0
TABLE
  2
UCS
  5
7
100
AcDbSymbolTable
 70
     0
  0
ENDTAB
  0
TABLE
  2
APPID
  5
9
100
AcDbSymbolTable
 70
     2
  0
APPID
  5
10
100
AcDbSymbolTableRecord
100
AcDbRegAppTableRecord
  2
ACAD
 70
     0
  0
APPID
  5
21
100
AcDbSymbolTableRecord
100
AcDbRegAppTableRecord
  2
ZIMM
 70
     0
  0
ENDTAB
  0
TABLE
  2
DIMSTYLE
  5
A
100
AcDbSymbolTable
 70
     1
  0
DIMSTYLE
105
738
100
AcDbSymbolTableRecord
100
AcDbDimStyleTableRecord
  2
STANDARD
 70
     0
  3

  4

  5

  6

  7

 40
1.0
 41
0.18
 42
0.0625
 43
0.38
 44
0.18
 45
0.0
 46
0.0
 47
0.0
 48
0.0
140
0.18
141
0.09
142
0.0
143
25.4
144
1.0
145
0.0
146
1.0
147
0.09
 71
     0
 72
     0
 73
     1
 74
     1
 75
     0
 76
     0
 77
     0
 78
     0
170
     0
171
     2
172
     0
173
     0
174
     0
175
     0
176
     0
177
     0
178
     0
270
     2
271
     4
272
     4
273
     2
274
     2
340
F
275
     0
280
     0
281
     0
282
     0
283
     1
284
     0
285
     0
286
     0
287
     3
288
     0
  0
ENDTAB
  0
TABLE
  2
BLOCK_RECORD
  5
1
100
AcDbSymbolTable
 70
     0
  0
BLOCK_RECORD
  5
17
100
AcDbSymbolTableRecord
100
AcDbBlockTableRecord
  2
*MODEL_SPACE
  0
BLOCK_RECORD
  5
14
100
AcDbSymbolTableRecord
100
AcDbBlockTableRecord
  2
*PAPER_SPACE
  0
ENDTAB
  0
ENDSEC
  0
SECTION
  2
BLOCKS
  0
BLOCK
  5
27
100
AcDbEntity
  8
0
100
AcDbBlockBegin
  2
*MODEL_SPACE
 70
     0
 10
0.0
 20
0.0
 30
0.0
  3
*MODEL_SPACE
  1

  0
ENDBLK
  5
28
100
AcDbEntity
  8
0
100
AcDbBlockEnd
  0
BLOCK
  5
25
100
AcDbEntity
 67
     1
  8
0
100
AcDbBlockBegin
  2
*PAPER_SPACE
 70
     0
 10
0.0
 20
0.0
 30
0.0
  3
*PAPER_SPACE
  1

  0
ENDBLK
  5
26
100
AcDbEntity
 67
     1
  8
0
100
AcDbBlockEnd
  0
ENDSEC
  0
SECTION
  2
ENTITIES
  0
TEXT
  5
2B
100
AcDbEntity
  8
DRAWING
100
AcDbText
 10
19.551842
 20
9.961431
 30
0.0
 40
2.5
  1
CORNER MADE WITH
  7
TITLE
 72
     1
 11
39.789937
 21
9.961431
 31
0.0
100
AcDbText
  0
LINE
  5
2D
100
AcDbEntity
  8
DIM_TEXT
100
AcDbLine
 10
21.169107
 20
26.34453
 30
0.0
 11
14.353307
 21
26.34453
 31
0.0
  0
LINE
  5
2E
100
AcDbEntity
  8
DIM_TEXT
100
AcDbLine
 10
21.169107
 20
36.34453
 30
0.0
 11
14.353307
 21
36.34453
 31
0.0
  0
LINE
  5
2F
100
AcDbEntity
  8
DIM_TEXT
100
AcDbLine
 10
21.169107
 20
51.34453
 30
0.0
 11
14.353307
 21
51.34453
 31
0.0
  0
LINE
  5
30
100
AcDbEntity
  8
DIM_TEXT
100
AcDbLine
 10
21.169107
 20
66.39073
 30
0.0
 11
14.353307
 21
66.39073
 31
0.0
  0
TEXT
  5
31
100
AcDbEntity
  8
DIM_TEXT
100
AcDbText
 10
22.664916
 20
20.321791
 30
0.0
 40
1.125
  1
7 1/2"
 51
15.0
  7
INFO
100
AcDbText
  0
LINE
  5
33
100
AcDbEntity
  8
DIM_TEXT
100
AcDbLine
 10
14.353307
 20
36.34453
 30
0.0
 11
14.353307
 21
51.34453
 31
0.0
  0
LINE
  5
34
100
AcDbEntity
  8
DIM_TEXT
100
AcDbLine
 10
14.353307
 20
26.34453
 30
0.0
 11
14.353307
 21
36.34453
 31
0.0
  0
LINE
  5
35
100
AcDbEntity
  8
DIM_TEXT
100
AcDbLine
 10
13.978307
 20
26.71953
 30
0.0
 11
14.728307
 21
25.96953
 31
0.0
  0
TEXT
  5
36
100
AcDbEntity
  8
DIM_TEXT
100
AcDbText
 10
13.353307
 20
26.782845
 30
0.0
 40
1.125
  1
THICKNESS
 50
90.0
 51
15.0
  7
INFO
 72
     1
 11
13.353307
 21
31.25606
 31
0.0
100
AcDbText
  0
LINE
  5
37
100
AcDbEntity
  8
DIM_TEXT
100
AcDbLine
 10
14.728307
 20
35.96953
 30
0.0
 11
13.978307
 21
36.71953
 31
0.0
  0
LINE
  5
38
100
AcDbEntity
  8
DIM_TEXT
100
AcDbLine
 10
13.978307
 20
36.71953
 30
0.0
 11
14.728307
 21
35.96953
 31
0.0
  0
TEXT
  5
39
100
AcDbEntity
  8
DIM_TEXT
100
AcDbText
 10
13.353307
 20
42.47843
 30
0.0
 40
1.125
  1
15"
 50
90.0
 51
15.0
  7
INFO
100
AcDbText
  0
LINE
  5
3A
100
AcDbEntity
  8
DIM_TEXT
100
AcDbLine
 10
14.353307
 20
51.34453
 30
0.0
 11
14.353307
 21
66.39073
 31
0.0
  0
LINE
  5
3B
100
AcDbEntity
  8
DIM_TEXT
100
AcDbLine
 10
14.728307
 20
50.96953
 30
0.0
 11
13.978307
 21
51.71953
 31
0.0
  0
LINE
  5
3C
100
AcDbEntity
  8
DIM_TEXT
100
AcDbLine
 10
13.978307
 20
51.71953
 30
0.0
 11
14.728307
 21
50.96953
 31
0.0
  0
TEXT
  5
3D
100
AcDbEntity
  8
DIM_TEXT
100
AcDbText
 10
13.353307
 20
57.50163
 30
0.0
 40
1.125
  1
15"
 50
90.0
 51
15.0
  7
INFO
100
AcDbText
  0
LINE
  5
3E
100
AcDbEntity
  8
DIM_TEXT
100
AcDbLine
 10
14.728307
 20
66.01573
 30
0.0
 11
13.978307
 21
66.76573
 31
0.0
  0
LINE
  5
3F
100
AcDbEntity
  8
DIM_TEXT
100
AcDbLine
 10
22.544107
 20
19.73723
 30
0.0
 11
21.794107
 21
18.98723
 31
0.0
  0
LINE
  5
40
100
AcDbEntity
  8
DIM_TEXT
100
AcDbLine
 10
29.294107
 20
18.98723
 30
0.0
 11
30.044107
 21
19.73723
 31
0.0
  0
LINE
  5
41
100
AcDbEntity
  8
DIM_TEXT
100
AcDbLine
 10
30.044107
 20
19.73723
 30
0.0
 11
29.294107
 21
18.98723
 31
0.0
  0
LINE
  5
42
100
AcDbEntity
  8
DIM_TEXT
100
AcDbLine
 10
44.294107
 20
18.98723
 30
0.0
 11
45.044107
 21
19.73723
 31
0.0
  0
LINE
  5
43
100
AcDbEntity
  8
DIM_TEXT
100
AcDbLine
 10
45.044107
 20
19.73723
 30
0.0
 11
44.294107
 21
18.98723
 31
0.0
  0
LINE
  5
44
100
AcDbEntity
  8
DIM_TEXT
100
AcDbLine
 10
59.294107
 20
18.98723
 30
0.0
 11
60.044107
 21
19.73723
 31
0.0
  0
TEXT
  5
45
100
AcDbEntity
  8
DIM_TEXT
100
AcDbText
 10
43.456207
 20
76.37543
 30
0.0
 40
1.125
  1
ALL REBARS DROPPED IN,
 51
15.0
  7
INFO
100
AcDbText
  0
TEXT
  5
46
100
AcDbEntity
  8
DIM_TEXT
100
AcDbText
 10
43.456207
 20
74.44683
 30
0.0
 40
1.125
  1
NOT CENTERED.  SEE PLAN
 51
15.0
  7
INFO
100
AcDbText
  0
TEXT
  5
47
100
AcDbEntity
  8
DIM_TEXT
100
AcDbText
 10
43.456207
 20
72.51823
 30
0.0
 40
1.125
  1
FOR SIZE AND SPACING
 51
15.0
  7
INFO
100
AcDbText
  0
LINE
  5
48
100
AcDbEntity
  8
DIM_TEXT
100
AcDbLine
 10
47.472507
 20
55.82173
 30
0.0
 11
26.277207
 21
34.02623
 31
0.0
  0
LINE
  5
49
100
AcDbEntity
  8
DIM_TEXT
100
AcDbLine
 10
44.669107
 20
19.36223
 30
0.0
 11
59.669107
 21
19.36223
 31
0.0
  0
LINE
  5
4A
100
AcDbEntity
  8
DRAWING
100
AcDbLine
 10
59.669107
 20
36.34453
 30
0.0
 11
44.669107
 21
36.34453
 31
0.0
  0
LINE
  5
4B
100
AcDbEntity
  8
DRAWING
100
AcDbLine
 10
44.669107
 20
26.34453
 30
0.0
 11
59.669107
 21
26.34453
 31
0.0
  0
LINE
  5
4C
100
AcDbEntity
  8
DRAWING
100
AcDbLine
 10
29.669107
 20
28.21953
 30
0.0
 11
59.669107
 21
28.21953
 31
0.0
  0
LINE
  5
4D
100
AcDbEntity
  8
DRAWING
100
AcDbLine
 10
59.669107
 20
34.46953
 30
0.0
 11
44.669107
 21
34.46953
 31
0.0
  0
ARC
  5
4E
100
AcDbEntity
  8
DRAWING
100
AcDbCircle
 10
44.669107
 20
31.34453
 30
0.0
 40
3.0
100
AcDbArc
 50
270.0
 51
90.0
  0
LINE
  5
4F
100
AcDbEntity
  8
DRAWING
100
AcDbLine
 10
27.657107
 20
30.95623
 30
0.0
 11
66.461207
 21
30.95623
 31
0.0
  0
LINE
  5
50
100
AcDbEntity
  8
DRAWING
100
AcDbLine
 10
27.217907
 20
30.40103
 30
0.0
 11
59.196407
 21
30.40103
 31
0.0
  0
LINE
  5
51
100
AcDbEntity
  8
DRAWING
100
AcDbLine
 10
22.169107
 20
51.34453
 30
0.0
 11
22.169107
 21
26.34453
 31
0.0
  0
LINE
  5
52
100
AcDbEntity
  8
DRAWING
100
AcDbLine
 10
32.169107
 20
36.34473
 30
0.0
 11
32.169107
 21
51.34453
 31
0.0
  0
LINE
  5
53
100
AcDbEntity
  8
DRAWING
100
AcDbLine
 10
30.294107
 20
34.46953
 30
0.0
 11
30.294107
 21
51.34453
 31
0.0
  0
ARC
  5
54
100
AcDbEntity
  8
DRAWING
100
AcDbCircle
 10
27.169107
 20
51.39073
 30
0.0
 40
3.0
100
AcDbArc
 50
180.0
 51
0.0
  0
LINE
  5
55
100
AcDbEntity
  8
DRAWING
100
AcDbLine
 10
24.044107
 20
66.39073
 30
0.0
 11
24.044107
 21
36.34453
 31
0.0
  0
LINE
  5
56
100
AcDbEntity
  8
DRAWING
100
AcDbLine
 10
27.302707
 20
73.48123
 30
0.0
 11
27.302707
 21
30.77903
 31
0.0
  0
LINE
  5
57
100
AcDbEntity
  8
DRAWING
100
AcDbLine
 10
26.717907
 20
65.01173
 30
0.0
 11
26.717907
 21
30.90103
 31
0.0
  0
LINE
  5
58
100
AcDbEntity
  8
DIM_TEXT
100
AcDbLine
 10
29.669107
 20
19.36223
 30
0.0
 11
44.669107
 21
19.36223
 31
0.0
  0
LINE
  5
59
100
AcDbEntity
  8
DRAWING
100
AcDbLine
 10
22.169107
 20
26.34453
 30
0.0
 11
44.669107
 21
26.34453
 31
0.0
  0
LINE
  5
5A
100
AcDbEntity
  8
DRAWING
100
AcDbLine
 10
44.669107
 20
34.46953
 30
0.0
 11
30.294107
 21
34.46953
 31
0.0
  0
ARC
  5
5B
100
AcDbEntity
  8
DRAWING
100
AcDbCircle
 10
29.669107
 20
31.34453
 30
0.0
 40
3.0
100
AcDbArc
 50
270.0
 51
90.0
  0
LINE
  5
5C
100
AcDbEntity
  8
DRAWING
100
AcDbLine
 10
29.239907
 20
33.41553
 30
0.0
 11
32.169107
 21
36.34473
 31
0.0
  0
LINE
  5
5D
100
AcDbEntity
  8
DIM_TEXT
100
AcDbLine
 10
25.492907
 20
33.21973
 30
0.0
 11
26.008407
 21
34.28773
 31
0.0
  0
LINE
  5
5E
100
AcDbEntity
  8
DIM_TEXT
100
AcDbLine
 10
26.008407
 20
34.28773
 30
0.0
 11
26.546007
 21
33.76483
 31
0.0
  0
ARC
  5
5F
100
AcDbEntity
  8
DRAWING
100
AcDbCircle
 10
29.669107
 20
31.34453
 30
0.0
 40
3.0
100
AcDbArc
 50
90.0
 51
270.0
  0
LINE
  5
60
100
AcDbEntity
  8
DRAWING
100
AcDbLine
 10
24.044107
 20
36.34453
 30
0.0
 11
26.947407
 21
30.08263
 31
0.0
  0
LINE
  5
61
100
AcDbEntity
  8
DIM_TEXT
100
AcDbLine
 10
22.169107
 20
19.36223
 30
0.0
 11
29.669107
 21
19.36223
 31
0.0
  0
LINE
  5
62
100
AcDbEntity
  8
DIM_TEXT
100
AcDbLine
 10
22.169107
 20
25.34453
 30
0.0
 11
22.169107
 21
19.36223
 31
0.0
  0
LINE
  5
63
100
AcDbEntity
  8
HATCH
100
AcDbLine
 10
23.753607
 20
26.49763
 30
0.0
 11
23.753607
 21
26.49763
 31
0.0
  0
LINE
  5
64
100
AcDbEntity
  8
HATCH
100
AcDbLine
 10
23.284807
 20
26.49763
 30
0.0
 11
23.284807
 21
26.49763
 31
0.0
  0
LINE
  5
65
100
AcDbEntity
  8
HATCH
100
AcDbLine
 10
22.816107
 20
26.49763
 30
0.0
 11
22.816107
 21
26.49763
 31
0.0
  0
LINE
  5
66
100
AcDbEntity
  8
HATCH
100
AcDbLine
 10
22.347307
 20
26.49763
 30
0.0
 11
22.347307
 21
26.49763
 31
0.0
  0
LINE
  5
67
100
AcDbEntity
  8
HATCH
100
AcDbLine
 10
23.753607
 20
32.12263
 30
0.0
 11
23.753607
 21
32.12263
 31
0.0
  0
LINE
  5
68
100
AcDbEntity
  8
HATCH
100
AcDbLine
 10
23.284807
 20
32.12263
 30
0.0
 11
23.284807
 21
32.12263
 31
0.0
  0
LINE
  5
69
100
AcDbEntity
  8
HATCH
100
AcDbLine
 10
22.816107
 20
32.12263
 30
0.0
 11
22.816107
 21
32.12263
 31
0.0
  0
LINE
  5
6A
100
AcDbEntity
  8
HATCH
100
AcDbLine
 10
22.347307
 20
32.12263
 30
0.0
 11
22.347307
 21
32.12263
 31
0.0
  0
LINE
  5
6B
100
AcDbEntity
  8
HATCH
100
AcDbLine
 10
23.987907
 20
32.59133
 30
0.0
 11
23.987907
 21
32.59133
 31
0.0
  0
LINE
  5
6C
100
AcDbEntity
  8
HATCH
100
AcDbLine
 10
23.519207
 20
32.59133
 30
0.0
 11
23.519207
 21
32.59133
 31
0.0
  0
LINE
  5
6D
100
AcDbEntity
  8
HATCH
100
AcDbLine
 10
23.050407
 20
32.59133
 30
0.0
 11
23.050407
 21
32.59133
 31
0.0
  0
LINE
  5
6E
100
AcDbEntity
  8
HATCH
100
AcDbLine
 10
22.581707
 20
32.59133
 30
0.0
 11
22.581707
 21
32.59133
 31
0.0
  0
LINE
  5
6F
100
AcDbEntity
  8
HATCH
100
AcDbLine
 10
23.753607
 20
33.06013
 30
0.0
 11
23.753607
 21
33.06013
 31
0.0
  0
LINE
  5
70
100
AcDbEntity
  8
HATCH
100
AcDbLine
 10
23.284807
 20
33.06013
 30
0.0
 11
23.284807
 21
33.06013
 31
0.0
  0
LINE
  5
71
100
AcDbEntity
  8
HATCH
100
AcDbLine
 10
22.816107
 20
33.06013
 30
0.0
 11
22.816107
 21
33.06013
 31
0.0
  0
LINE
  5
72
100
AcDbEntity
  8
HATCH
100
AcDbLine
 10
22.347307
 20
33.06013
 30
0.0
 11
22.347307
 21
33.06013
 31
0.0
  0
LINE
  5
73
100
AcDbEntity
  8
HATCH
100
AcDbLine
 10
23.987907
 20
33.52883
 30
0.0
 11
23.987907
 21
33.52883
 31
0.0
  0
LINE
  5
74
100
AcDbEntity
  8
HATCH
100
AcDbLine
 10
23.519207
 20
33.52883
 30
0.0
 11
23.519207
 21
33.52883
 31
0.0
  0
LINE
  5
75
100
AcDbEntity
  8
HATCH
100
AcDbLine
 10
23.050407
 20
33.52883
 30
0.0
 11
23.050407
 21
33.52883
 31
0.0
  0
LINE
  5
76
100
AcDbEntity
  8
HATCH
100
AcDbLine
 10
22.581707
 20
33.52883
 30
0.0
 11
22.581707
 21
33.52883
 31
0.0
  0
LINE
  5
77
100
AcDbEntity
  8
HATCH
100
AcDbLine
 10
23.753607
 20
33.99763
 30
0.0
 11
23.753607
 21
33.99763
 31
0.0
  0
LINE
  5
78
100
AcDbEntity
  8
HATCH
100
AcDbLine
 10
23.284807
 20
33.99763
 30
0.0
 11
23.284807
 21
33.99763
 31
0.0
  0
LINE
  5
79
100
AcDbEntity
  8
HATCH
100
AcDbLine
 10
22.816107
 20
33.99763
 30
0.0
 11
22.816107
 21
33.99763
 31
0.0
  0
LINE
  5
7A
100
AcDbEntity
  8
HATCH
100
AcDbLine
 10
22.347307
 20
33.99763
 30
0.0
 11
22.347307
 21
33.99763
 31
0.0
  0
LINE
  5
7B
100
AcDbEntity
  8
HATCH
100
AcDbLine
 10
23.753607
 20
31.18513
 30
0.0
 11
23.753607
 21
31.18513
 31
0.0
  0
LINE
  5
7C
100
AcDbEntity
  8
HATCH
100
AcDbLine
 10
23.284807
 20
31.18513
 30
0.0
 11
23.284807
 21
31.18513
 31
0.0
  0
LINE
  5
7D
100
AcDbEntity
  8
HATCH
100
AcDbLine
 10
22.816107
 20
31.18513
 30
0.0
 11
22.816107
 21
31.18513
 31
0.0
  0
LINE
  5
7E
100
AcDbEntity
  8
HATCH
100
AcDbLine
 10
22.347307
 20
31.18513
 30
0.0
 11
22.347307
 21
31.18513
 31
0.0
  0
LINE
  5
7F
100
AcDbEntity
  8
HATCH
100
AcDbLine
 10
23.987907
 20
31.65383
 30
0.0
 11
23.987907
 21
31.65383
 31
0.0
  0
LINE
  5
80
100
AcDbEntity
  8
HATCH
100
AcDbLine
 10
23.519207
 20
31.65383
 30
0.0
 11
23.519207
 21
31.65383
 31
0.0
  0
LINE
  5
81
100
AcDbEntity
  8
HATCH
100
AcDbLine
 10
23.050407
 20
31.65383
 30
0.0
 11
23.050407
 21
31.65383
 31
0.0
  0
LINE
  5
82
100
AcDbEntity
  8
HATCH
100
AcDbLine
 10
22.581707
 20
31.65383
 30
0.0
 11
22.581707
 21
31.65383
 31
0.0
  0
LINE
  5
83
100
AcDbEntity
  8
HATCH
100
AcDbLine
 10
23.987907
 20
30.71633
 30
0.0
 11
23.987907
 21
30.71633
 31
0.0
  0
LINE
  5
84
100
AcDbEntity
  8
HATCH
100
AcDbLine
 10
23.519207
 20
30.71633
 30
0.0
 11
23.519207
 21
30.71633
 31
0.0
  0
LINE
  5
85
100
AcDbEntity
  8
HATCH
100
AcDbLine
 10
23.050407
 20
30.71633
 30
0.0
 11
23.050407
 21
30.71633
 31
0.0
  0
LINE
  5
86
100
AcDbEntity
  8
HATCH
100
AcDbLine
 10
22.581707
 20
30.71633
 30
0.0
 11
22.581707
 21
30.71633
 31
0.0
  0
LINE
  5
87
100
AcDbEntity
  8
HATCH
100
AcDbLine
 10
23.753607
 20
30.24763
 30
0.0
 11
23.753607
 21
30.24763
 31
0.0
  0
LINE
  5
88
100
AcDbEntity
  8
HATCH
100
AcDbLine
 10
23.284807
 20
30.24763
 30
0.0
 11
23.284807
 21
30.24763
 31
0.0
  0
LINE
  5
89
100
AcDbEntity
  8
HATCH
100
AcDbLine
 10
22.816107
 20
30.24763
 30
0.0
 11
22.816107
 21
30.24763
 31
0.0
  0
LINE
  5
8A
100
AcDbEntity
  8
HATCH
100
AcDbLine
 10
22.347307
 20
30.24763
 30
0.0
 11
22.347307
 21
30.24763
 31
0.0
  0
LINE
  5
8B
100
AcDbEntity
  8
HATCH
100
AcDbLine
 10
23.987907
 20
29.77883
 30
0.0
 11
23.987907
 21
29.77883
 31
0.0
  0
LINE
  5
8C
100
AcDbEntity
  8
HATCH
100
AcDbLine
 10
23.519207
 20
29.77883
 30
0.0
 11
23.519207
 21
29.77883
 31
0.0
  0
LINE
  5
8D
100
AcDbEntity
  8
HATCH
100
AcDbLine
 10
23.050407
 20
29.77883
 30
0.0
 11
23.050407
 21
29.77883
 31
0.0
  0
LINE
  5
8E
100
AcDbEntity
  8
HATCH
100
AcDbLine
 10
22.581707
 20
29.77883
 30
0.0
 11
22.581707
 21
29.77883
 31
0.0
  0
LINE
  5
8F
100
AcDbEntity
  8
HATCH
100
AcDbLine
 10
23.753607
 20
29.31013
 30
0.0
 11
23.753607
 21
29.31013
 31
0.0
  0
LINE
  5
90
100
AcDbEntity
  8
HATCH
100
AcDbLine
 10
23.284807
 20
29.31013
 30
0.0
 11
23.284807
 21
29.31013
 31
0.0
  0
LINE
  5
91
100
AcDbEntity
  8
HATCH
100
AcDbLine
 10
22.816107
 20
29.31013
 30
0.0
 11
22.816107
 21
29.31013
 31
0.0
  0
LINE
  5
92
100
AcDbEntity
  8
HATCH
100
AcDbLine
 10
22.347307
 20
29.31013
 30
0.0
 11
22.347307
 21
29.31013
 31
0.0
  0
LINE
  5
93
100
AcDbEntity
  8
HATCH
100
AcDbLine
 10
23.987907
 20
28.84133
 30
0.0
 11
23.987907
 21
28.84133
 31
0.0
  0
LINE
  5
94
100
AcDbEntity
  8
HATCH
100
AcDbLine
 10
23.519207
 20
28.84133
 30
0.0
 11
23.519207
 21
28.84133
 31
0.0
  0
LINE
  5
95
100
AcDbEntity
  8
HATCH
100
AcDbLine
 10
23.050407
 20
28.84133
 30
0.0
 11
23.050407
 21
28.84133
 31
0.0
  0
LINE
  5
96
100
AcDbEntity
  8
HATCH
100
AcDbLine
 10
22.581707
 20
28.84133
 30
0.0
 11
22.581707
 21
28.84133
 31
0.0
  0
LINE
  5
97
100
AcDbEntity
  8
HATCH
100
AcDbLine
 10
23.753607
 20
28.37263
 30
0.0
 11
23.753607
 21
28.37263
 31
0.0
  0
LINE
  5
98
100
AcDbEntity
  8
HATCH
100
AcDbLine
 10
23.284807
 20
28.37263
 30
0.0
 11
23.284807
 21
28.37263
 31
0.0
  0
LINE
  5
99
100
AcDbEntity
  8
HATCH
100
AcDbLine
 10
22.816107
 20
28.37263
 30
0.0
 11
22.816107
 21
28.37263
 31
0.0
  0
LINE
  5
9A
100
AcDbEntity
  8
HATCH
100
AcDbLine
 10
22.347307
 20
28.37263
 30
0.0
 11
22.347307
 21
28.37263
 31
0.0
  0
LINE
  5
9B
100
AcDbEntity
  8
HATCH
100
AcDbLine
 10
23.987907
 20
27.90383
 30
0.0
 11
23.987907
 21
27.90383
 31
0.0
  0
LINE
  5
9C
100
AcDbEntity
  8
HATCH
100
AcDbLine
 10
23.519207
 20
27.90383
 30
0.0
 11
23.519207
 21
27.90383
 31
0.0
  0
LINE
  5
9D
100
AcDbEntity
  8
HATCH
100
AcDbLine
 10
23.050407
 20
27.90383
 30
0.0
 11
23.050407
 21
27.90383
 31
0.0
  0
LINE
  5
9E
100
AcDbEntity
  8
HATCH
100
AcDbLine
 10
22.581707
 20
27.90383
 30
0.0
 11
22.581707
 21
27.90383
 31
0.0
  0
LINE
  5
9F
100
AcDbEntity
  8
HATCH
100
AcDbLine
 10
23.753607
 20
27.43513
 30
0.0
 11
23.753607
 21
27.43513
 31
0.0
  0
LINE
  5
A0
100
AcDbEntity
  8
HATCH
100
AcDbLine
 10
23.284807
 20
27.43513
 30
0.0
 11
23.284807
 21
27.43513
 31
0.0
  0
LINE
  5
A1
100
AcDbEntity
  8
HATCH
100
AcDbLine
 10
22.816107
 20
27.43513
 30
0.0
 11
22.816107
 21
27.43513
 31
0.0
  0
LINE
  5
A2
100
AcDbEntity
  8
HATCH
100
AcDbLine
 10
22.347307
 20
27.43513
 30
0.0
 11
22.347307
 21
27.43513
 31
0.0
  0
LINE
  5
A3
100
AcDbEntity
  8
HATCH
100
AcDbLine
 10
23.987907
 20
26.96633
 30
0.0
 11
23.987907
 21
26.96633
 31
0.0
  0
LINE
  5
A4
100
AcDbEntity
  8
HATCH
100
AcDbLine
 10
23.519207
 20
26.96633
 30
0.0
 11
23.519207
 21
26.96633
 31
0.0
  0
LINE
  5
A5
100
AcDbEntity
  8
HATCH
100
AcDbLine
 10
23.050407
 20
26.96633
 30
0.0
 11
23.050407
 21
26.96633
 31
0.0
  0
LINE
  5
A6
100
AcDbEntity
  8
HATCH
100
AcDbLine
 10
22.581707
 20
26.96633
 30
0.0
 11
22.581707
 21
26.96633
 31
0.0
  0
LINE
  5
A7
100
AcDbEntity
  8
DRAWING
100
AcDbLine
 10
29.669107
 20
28.21953
 30
0.0
 11
29.669107
 21
26.34453
 31
0.0
  0
LINE
  5
A8
100
AcDbEntity
  8
HATCH
100
AcDbLine
 10
25.159807
 20
26.49763
 30
0.0
 11
25.159807
 21
26.49763
 31
0.0
  0
LINE
  5
A9
100
AcDbEntity
  8
HATCH
100
AcDbLine
 10
24.691107
 20
26.49763
 30
0.0
 11
24.691107
 21
26.49763
 31
0.0
  0
LINE
  5
AA
100
AcDbEntity
  8
HATCH
100
AcDbLine
 10
24.222307
 20
26.49763
 30
0.0
 11
24.222307
 21
26.49763
 31
0.0
  0
LINE
  5
AB
100
AcDbEntity
  8
HATCH
100
AcDbLine
 10
26.566107
 20
26.49763
 30
0.0
 11
26.566107
 21
26.49763
 31
0.0
  0
LINE
  5
AC
100
AcDbEntity
  8
HATCH
100
AcDbLine
 10
26.097307
 20
26.49763
 30
0.0
 11
26.097307
 21
26.49763
 31
0.0
  0
LINE
  5
AD
100
AcDbEntity
  8
HATCH
100
AcDbLine
 10
25.628607
 20
26.49763
 30
0.0
 11
25.628607
 21
26.49763
 31
0.0
  0
LINE
  5
AE
100
AcDbEntity
  8
HATCH
100
AcDbLine
 10
27.503607
 20
26.49763
 30
0.0
 11
27.503607
 21
26.49763
 31
0.0
  0
LINE
  5
AF
100
AcDbEntity
  8
HATCH
100
AcDbLine
 10
27.034807
 20
26.49763
 30
0.0
 11
27.034807
 21
26.49763
 31
0.0
  0
LINE
  5
B0
100
AcDbEntity
  8
DIM_TEXT
100
AcDbLine
 10
29.669107
 20
25.34453
 30
0.0
 11
29.669107
 21
19.36223
 31
0.0
  0
LINE
  5
B1
100
AcDbEntity
  8
HATCH
100
AcDbLine
 10
29.901407
 20
26.55693
 30
0.0
 11
29.901407
 21
26.55693
 31
0.0
  0
LINE
  5
B2
100
AcDbEntity
  8
HATCH
100
AcDbLine
 10
30.838907
 20
26.55693
 30
0.0
 11
30.838907
 21
26.55693
 31
0.0
  0
LINE
  5
B3
100
AcDbEntity
  8
HATCH
100
AcDbLine
 10
27.972307
 20
26.49763
 30
0.0
 11
27.972307
 21
26.49763
 31
0.0
  0
LINE
  5
B4
100
AcDbEntity
  8
HATCH
100
AcDbLine
 10
29.378607
 20
26.49763
 30
0.0
 11
29.378607
 21
26.49763
 31
0.0
  0
LINE
  5
B5
100
AcDbEntity
  8
HATCH
100
AcDbLine
 10
28.909807
 20
26.49763
 30
0.0
 11
28.909807
 21
26.49763
 31
0.0
  0
LINE
  5
B6
100
AcDbEntity
  8
HATCH
100
AcDbLine
 10
28.441107
 20
26.49763
 30
0.0
 11
28.441107
 21
26.49763
 31
0.0
  0
CIRCLE
  5
B7
100
AcDbEntity
  8
DRAWING
100
AcDbCircle
 10
28.014307
 20
31.63013
 30
0.0
 40
0.375
  0
LINE
  5
B8
100
AcDbEntity
  8
DIM_TEXT
100
AcDbLine
 10
25.492907
 20
33.21973
 30
0.0
 11
26.546007
 21
33.76483
 31
0.0
  0
LINE
  5
B9
100
AcDbEntity
  8
HATCH
100
AcDbLine
 10
26.649807
 20
33.63873
 30
0.0
 11
26.723307
 21
33.66533
 31
0.0
  0
LINE
  5
BA
100
AcDbEntity
  8
HATCH
100
AcDbLine
 10
26.918607
 20
32.80593
 30
0.0
 11
26.963507
 21
32.86993
 31
0.0
  0
LINE
  5
BB
100
AcDbEntity
  8
HATCH
100
AcDbLine
 10
25.159807
 20
32.12263
 30
0.0
 11
25.159807
 21
32.12263
 31
0.0
  0
LINE
  5
BC
100
AcDbEntity
  8
HATCH
100
AcDbLine
 10
24.691107
 20
32.12263
 30
0.0
 11
24.691107
 21
32.12263
 31
0.0
  0
LINE
  5
BD
100
AcDbEntity
  8
HATCH
100
AcDbLine
 10
24.222307
 20
32.12263
 30
0.0
 11
24.222307
 21
32.12263
 31
0.0
  0
LINE
  5
BE
100
AcDbEntity
  8
HATCH
100
AcDbLine
 10
25.394207
 20
32.59133
 30
0.0
 11
25.394207
 21
32.59133
 31
0.0
  0
LINE
  5
BF
100
AcDbEntity
  8
HATCH
100
AcDbLine
 10
24.925407
 20
32.59133
 30
0.0
 11
24.925407
 21
32.59133
 31
0.0
  0
LINE
  5
C0
100
AcDbEntity
  8
HATCH
100
AcDbLine
 10
24.456707
 20
32.59133
 30
0.0
 11
24.456707
 21
32.59133
 31
0.0
  0
LINE
  5
C1
100
AcDbEntity
  8
HATCH
100
AcDbLine
 10
25.159807
 20
33.06013
 30
0.0
 11
25.159807
 21
33.06013
 31
0.0
  0
LINE
  5
C2
100
AcDbEntity
  8
HATCH
100
AcDbLine
 10
24.691107
 20
33.06013
 30
0.0
 11
24.691107
 21
33.06013
 31
0.0
  0
LINE
  5
C3
100
AcDbEntity
  8
HATCH
100
AcDbLine
 10
24.222307
 20
33.06013
 30
0.0
 11
24.222307
 21
33.06013
 31
0.0
  0
LINE
  5
C4
100
AcDbEntity
  8
HATCH
100
AcDbLine
 10
24.925407
 20
33.52883
 30
0.0
 11
24.925407
 21
33.52883
 31
0.0
  0
LINE
  5
C5
100
AcDbEntity
  8
HATCH
100
AcDbLine
 10
24.456707
 20
33.52883
 30
0.0
 11
24.456707
 21
33.52883
 31
0.0
  0
LINE
  5
C6
100
AcDbEntity
  8
HATCH
100
AcDbLine
 10
24.691107
 20
33.99763
 30
0.0
 11
24.691107
 21
33.99763
 31
0.0
  0
LINE
  5
C7
100
AcDbEntity
  8
HATCH
100
AcDbLine
 10
24.222307
 20
33.99763
 30
0.0
 11
24.222307
 21
33.99763
 31
0.0
  0
LINE
  5
C8
100
AcDbEntity
  8
HATCH
100
AcDbLine
 10
25.159807
 20
31.18513
 30
0.0
 11
25.159807
 21
31.18513
 31
0.0
  0
LINE
  5
C9
100
AcDbEntity
  8
HATCH
100
AcDbLine
 10
24.691107
 20
31.18513
 30
0.0
 11
24.691107
 21
31.18513
 31
0.0
  0
LINE
  5
CA
100
AcDbEntity
  8
HATCH
100
AcDbLine
 10
24.222307
 20
31.18513
 30
0.0
 11
24.222307
 21
31.18513
 31
0.0
  0
LINE
  5
CB
100
AcDbEntity
  8
HATCH
100
AcDbLine
 10
25.394207
 20
31.65383
 30
0.0
 11
25.394207
 21
31.65383
 31
0.0
  0
LINE
  5
CC
100
AcDbEntity
  8
HATCH
100
AcDbLine
 10
24.925407
 20
31.65383
 30
0.0
 11
24.925407
 21
31.65383
 31
0.0
  0
LINE
  5
CD
100
AcDbEntity
  8
HATCH
100
AcDbLine
 10
24.456707
 20
31.65383
 30
0.0
 11
24.456707
 21
31.65383
 31
0.0
  0
LINE
  5
CE
100
AcDbEntity
  8
HATCH
100
AcDbLine
 10
25.394207
 20
30.71633
 30
0.0
 11
25.394207
 21
30.71633
 31
0.0
  0
LINE
  5
CF
100
AcDbEntity
  8
HATCH
100
AcDbLine
 10
24.925407
 20
30.71633
 30
0.0
 11
24.925407
 21
30.71633
 31
0.0
  0
LINE
  5
D0
100
AcDbEntity
  8
HATCH
100
AcDbLine
 10
24.456707
 20
30.71633
 30
0.0
 11
24.456707
 21
30.71633
 31
0.0
  0
LINE
  5
D1
100
AcDbEntity
  8
HATCH
100
AcDbLine
 10
25.159807
 20
30.24763
 30
0.0
 11
25.159807
 21
30.24763
 31
0.0
  0
LINE
  5
D2
100
AcDbEntity
  8
HATCH
100
AcDbLine
 10
24.691107
 20
30.24763
 30
0.0
 11
24.691107
 21
30.24763
 31
0.0
  0
LINE
  5
D3
100
AcDbEntity
  8
HATCH
100
AcDbLine
 10
24.222307
 20
30.24763
 30
0.0
 11
24.222307
 21
30.24763
 31
0.0
  0
LINE
  5
D4
100
AcDbEntity
  8
HATCH
100
AcDbLine
 10
25.394207
 20
29.77883
 30
0.0
 11
25.394207
 21
29.77883
 31
0.0
  0
LINE
  5
D5
100
AcDbEntity
  8
HATCH
100
AcDbLine
 10
24.925407
 20
29.77883
 30
0.0
 11
24.925407
 21
29.77883
 31
0.0
  0
LINE
  5
D6
100
AcDbEntity
  8
HATCH
100
AcDbLine
 10
24.456707
 20
29.77883
 30
0.0
 11
24.456707
 21
29.77883
 31
0.0
  0
LINE
  5
D7
100
AcDbEntity
  8
HATCH
100
AcDbLine
 10
25.159807
 20
29.31013
 30
0.0
 11
25.159807
 21
29.31013
 31
0.0
  0
LINE
  5
D8
100
AcDbEntity
  8
HATCH
100
AcDbLine
 10
24.691107
 20
29.31013
 30
0.0
 11
24.691107
 21
29.31013
 31
0.0
  0
LINE
  5
D9
100
AcDbEntity
  8
HATCH
100
AcDbLine
 10
24.222307
 20
29.31013
 30
0.0
 11
24.222307
 21
29.31013
 31
0.0
  0
LINE
  5
DA
100
AcDbEntity
  8
HATCH
100
AcDbLine
 10
25.394207
 20
28.84133
 30
0.0
 11
25.394207
 21
28.84133
 31
0.0
  0
LINE
  5
DB
100
AcDbEntity
  8
HATCH
100
AcDbLine
 10
24.925407
 20
28.84133
 30
0.0
 11
24.925407
 21
28.84133
 31
0.0
  0
LINE
  5
DC
100
AcDbEntity
  8
HATCH
100
AcDbLine
 10
24.456707
 20
28.84133
 30
0.0
 11
24.456707
 21
28.84133
 31
0.0
  0
LINE
  5
DD
100
AcDbEntity
  8
HATCH
100
AcDbLine
 10
25.159807
 20
28.37263
 30
0.0
 11
25.159807
 21
28.37263
 31
0.0
  0
LINE
  5
DE
100
AcDbEntity
  8
HATCH
100
AcDbLine
 10
24.691107
 20
28.37263
 30
0.0
 11
24.691107
 21
28.37263
 31
0.0
  0
LINE
  5
DF
100
AcDbEntity
  8
HATCH
100
AcDbLine
 10
24.222307
 20
28.37263
 30
0.0
 11
24.222307
 21
28.37263
 31
0.0
  0
LINE
  5
E0
100
AcDbEntity
  8
HATCH
100
AcDbLine
 10
25.394207
 20
27.90383
 30
0.0
 11
25.394207
 21
27.90383
 31
0.0
  0
LINE
  5
E1
100
AcDbEntity
  8
HATCH
100
AcDbLine
 10
24.925407
 20
27.90383
 30
0.0
 11
24.925407
 21
27.90383
 31
0.0
  0
LINE
  5
E2
100
AcDbEntity
  8
HATCH
100
AcDbLine
 10
24.456707
 20
27.90383
 30
0.0
 11
24.456707
 21
27.90383
 31
0.0
  0
LINE
  5
E3
100
AcDbEntity
  8
HATCH
100
AcDbLine
 10
25.159807
 20
27.43513
 30
0.0
 11
25.159807
 21
27.43513
 31
0.0
  0
LINE
  5
E4
100
AcDbEntity
  8
HATCH
100
AcDbLine
 10
24.691107
 20
27.43513
 30
0.0
 11
24.691107
 21
27.43513
 31
0.0
  0
LINE
  5
E5
100
AcDbEntity
  8
HATCH
100
AcDbLine
 10
24.222307
 20
27.43513
 30
0.0
 11
24.222307
 21
27.43513
 31
0.0
  0
LINE
  5
E6
100
AcDbEntity
  8
HATCH
100
AcDbLine
 10
25.394207
 20
26.96633
 30
0.0
 11
25.394207
 21
26.96633
 31
0.0
  0
LINE
  5
E7
100
AcDbEntity
  8
HATCH
100
AcDbLine
 10
24.925407
 20
26.96633
 30
0.0
 11
24.925407
 21
26.96633
 31
0.0
  0
LINE
  5
E8
100
AcDbEntity
  8
HATCH
100
AcDbLine
 10
24.456707
 20
26.96633
 30
0.0
 11
24.456707
 21
26.96633
 31
0.0
  0
LINE
  5
E9
100
AcDbEntity
  8
HATCH
100
AcDbLine
 10
25.628607
 20
32.12263
 30
0.0
 11
25.628607
 21
32.12263
 31
0.0
  0
LINE
  5
EA
100
AcDbEntity
  8
HATCH
100
AcDbLine
 10
26.097307
 20
31.18513
 30
0.0
 11
26.097307
 21
31.18513
 31
0.0
  0
LINE
  5
EB
100
AcDbEntity
  8
HATCH
100
AcDbLine
 10
25.628607
 20
31.18513
 30
0.0
 11
25.628607
 21
31.18513
 31
0.0
  0
LINE
  5
EC
100
AcDbEntity
  8
HATCH
100
AcDbLine
 10
25.862907
 20
31.65383
 30
0.0
 11
25.862907
 21
31.65383
 31
0.0
  0
LINE
  5
ED
100
AcDbEntity
  8
HATCH
100
AcDbLine
 10
26.331707
 20
30.71633
 30
0.0
 11
26.331707
 21
30.71633
 31
0.0
  0
LINE
  5
EE
100
AcDbEntity
  8
HATCH
100
AcDbLine
 10
25.862907
 20
30.71633
 30
0.0
 11
25.862907
 21
30.71633
 31
0.0
  0
LINE
  5
EF
100
AcDbEntity
  8
HATCH
100
AcDbLine
 10
26.566107
 20
30.24763
 30
0.0
 11
26.566107
 21
30.24763
 31
0.0
  0
LINE
  5
F0
100
AcDbEntity
  8
HATCH
100
AcDbLine
 10
26.097307
 20
30.24763
 30
0.0
 11
26.097307
 21
30.24763
 31
0.0
  0
LINE
  5
F1
100
AcDbEntity
  8
HATCH
100
AcDbLine
 10
25.628607
 20
30.24763
 30
0.0
 11
25.628607
 21
30.24763
 31
0.0
  0
LINE
  5
F2
100
AcDbEntity
  8
HATCH
100
AcDbLine
 10
26.800407
 20
29.77883
 30
0.0
 11
26.800407
 21
29.77883
 31
0.0
  0
LINE
  5
F3
100
AcDbEntity
  8
HATCH
100
AcDbLine
 10
26.331707
 20
29.77883
 30
0.0
 11
26.331707
 21
29.77883
 31
0.0
  0
LINE
  5
F4
100
AcDbEntity
  8
HATCH
100
AcDbLine
 10
25.862907
 20
29.77883
 30
0.0
 11
25.862907
 21
29.77883
 31
0.0
  0
LINE
  5
F5
100
AcDbEntity
  8
HATCH
100
AcDbLine
 10
26.566107
 20
29.31013
 30
0.0
 11
26.566107
 21
29.31013
 31
0.0
  0
LINE
  5
F6
100
AcDbEntity
  8
HATCH
100
AcDbLine
 10
26.097307
 20
29.31013
 30
0.0
 11
26.097307
 21
29.31013
 31
0.0
  0
LINE
  5
F7
100
AcDbEntity
  8
HATCH
100
AcDbLine
 10
25.628607
 20
29.31013
 30
0.0
 11
25.628607
 21
29.31013
 31
0.0
  0
LINE
  5
F8
100
AcDbEntity
  8
HATCH
100
AcDbLine
 10
26.800407
 20
28.84133
 30
0.0
 11
26.800407
 21
28.84133
 31
0.0
  0
LINE
  5
F9
100
AcDbEntity
  8
HATCH
100
AcDbLine
 10
26.331707
 20
28.84133
 30
0.0
 11
26.331707
 21
28.84133
 31
0.0
  0
LINE
  5
FA
100
AcDbEntity
  8
HATCH
100
AcDbLine
 10
25.862907
 20
28.84133
 30
0.0
 11
25.862907
 21
28.84133
 31
0.0
  0
LINE
  5
FB
100
AcDbEntity
  8
HATCH
100
AcDbLine
 10
26.566107
 20
28.37263
 30
0.0
 11
26.566107
 21
28.37263
 31
0.0
  0
LINE
  5
FC
100
AcDbEntity
  8
HATCH
100
AcDbLine
 10
26.097307
 20
28.37263
 30
0.0
 11
26.097307
 21
28.37263
 31
0.0
  0
LINE
  5
FD
100
AcDbEntity
  8
HATCH
100
AcDbLine
 10
25.628607
 20
28.37263
 30
0.0
 11
25.628607
 21
28.37263
 31
0.0
  0
LINE
  5
FE
100
AcDbEntity
  8
HATCH
100
AcDbLine
 10
26.800407
 20
27.90383
 30
0.0
 11
26.800407
 21
27.90383
 31
0.0
  0
LINE
  5
FF
100
AcDbEntity
  8
HATCH
100
AcDbLine
 10
26.331707
 20
27.90383
 30
0.0
 11
26.331707
 21
27.90383
 31
0.0
  0
LINE
  5
100
100
AcDbEntity
  8
HATCH
100
AcDbLine
 10
25.862907
 20
27.90383
 30
0.0
 11
25.862907
 21
27.90383
 31
0.0
  0
LINE
  5
101
100
AcDbEntity
  8
HATCH
100
AcDbLine
 10
26.566107
 20
27.43513
 30
0.0
 11
26.566107
 21
27.43513
 31
0.0
  0
LINE
  5
102
100
AcDbEntity
  8
HATCH
100
AcDbLine
 10
26.097307
 20
27.43513
 30
0.0
 11
26.097307
 21
27.43513
 31
0.0
  0
LINE
  5
103
100
AcDbEntity
  8
HATCH
100
AcDbLine
 10
25.628607
 20
27.43513
 30
0.0
 11
25.628607
 21
27.43513
 31
0.0
  0
LINE
  5
104
100
AcDbEntity
  8
HATCH
100
AcDbLine
 10
26.800407
 20
26.96633
 30
0.0
 11
26.800407
 21
26.96633
 31
0.0
  0
LINE
  5
105
100
AcDbEntity
  8
HATCH
100
AcDbLine
 10
26.331707
 20
26.96633
 30
0.0
 11
26.331707
 21
26.96633
 31
0.0
  0
LINE
  5
106
100
AcDbEntity
  8
HATCH
100
AcDbLine
 10
25.862907
 20
26.96633
 30
0.0
 11
25.862907
 21
26.96633
 31
0.0
  0
LINE
  5
107
100
AcDbEntity
  8
HATCH
100
AcDbLine
 10
27.034807
 20
29.31013
 30
0.0
 11
27.034807
 21
29.31013
 31
0.0
  0
LINE
  5
108
100
AcDbEntity
  8
HATCH
100
AcDbLine
 10
27.737907
 20
28.84133
 30
0.0
 11
27.737907
 21
28.84133
 31
0.0
  0
LINE
  5
109
100
AcDbEntity
  8
HATCH
100
AcDbLine
 10
27.269207
 20
28.84133
 30
0.0
 11
27.269207
 21
28.84133
 31
0.0
  0
LINE
  5
10A
100
AcDbEntity
  8
HATCH
100
AcDbLine
 10
27.503607
 20
28.37263
 30
0.0
 11
27.503607
 21
28.37263
 31
0.0
  0
LINE
  5
10B
100
AcDbEntity
  8
HATCH
100
AcDbLine
 10
27.034807
 20
28.37263
 30
0.0
 11
27.034807
 21
28.37263
 31
0.0
  0
LINE
  5
10C
100
AcDbEntity
  8
HATCH
100
AcDbLine
 10
27.737907
 20
27.90383
 30
0.0
 11
27.737907
 21
27.90383
 31
0.0
  0
LINE
  5
10D
100
AcDbEntity
  8
HATCH
100
AcDbLine
 10
27.269207
 20
27.90383
 30
0.0
 11
27.269207
 21
27.90383
 31
0.0
  0
LINE
  5
10E
100
AcDbEntity
  8
HATCH
100
AcDbLine
 10
27.503607
 20
27.43513
 30
0.0
 11
27.503607
 21
27.43513
 31
0.0
  0
LINE
  5
10F
100
AcDbEntity
  8
HATCH
100
AcDbLine
 10
27.034807
 20
27.43513
 30
0.0
 11
27.034807
 21
27.43513
 31
0.0
  0
LINE
  5
110
100
AcDbEntity
  8
HATCH
100
AcDbLine
 10
27.737907
 20
26.96633
 30
0.0
 11
27.737907
 21
26.96633
 31
0.0
  0
LINE
  5
111
100
AcDbEntity
  8
HATCH
100
AcDbLine
 10
27.269207
 20
26.96633
 30
0.0
 11
27.269207
 21
26.96633
 31
0.0
  0
ARC
  5
112
100
AcDbEntity
  8
DRAWING
100
AcDbCircle
 10
27.217907
 20
30.90103
 30
0.0
 40
0.5
100
AcDbArc
 50
180.0
 51
270.0
  0
LINE
  5
113
100
AcDbEntity
  8
HATCH
100
AcDbLine
 10
30.263607
 20
30.24733
 30
0.0
 11
30.242307
 21
30.30623
 31
0.0
  0
LINE
  5
114
100
AcDbEntity
  8
HATCH
100
AcDbLine
 10
29.411807
 20
29.00953
 30
0.0
 11
29.360607
 21
29.04543
 31
0.0
  0
LINE
  5
115
100
AcDbEntity
  8
HATCH
100
AcDbLine
 10
30.845807
 20
31.05763
 30
0.0
 11
30.794607
 21
31.09353
 31
0.0
  0
LINE
  5
116
100
AcDbEntity
  8
HATCH
100
AcDbLine
 10
29.901407
 20
27.02563
 30
0.0
 11
29.901407
 21
27.02563
 31
0.0
  0
LINE
  5
117
100
AcDbEntity
  8
HATCH
100
AcDbLine
 10
29.901407
 20
27.49443
 30
0.0
 11
29.901407
 21
27.49443
 31
0.0
  0
LINE
  5
118
100
AcDbEntity
  8
HATCH
100
AcDbLine
 10
29.901407
 20
27.96313
 30
0.0
 11
29.901407
 21
27.96313
 31
0.0
  0
LINE
  5
119
100
AcDbEntity
  8
HATCH
100
AcDbLine
 10
30.370207
 20
26.79133
 30
0.0
 11
30.370207
 21
26.79133
 31
0.0
  0
LINE
  5
11A
100
AcDbEntity
  8
HATCH
100
AcDbLine
 10
30.370207
 20
27.26003
 30
0.0
 11
30.370207
 21
27.26003
 31
0.0
  0
LINE
  5
11B
100
AcDbEntity
  8
HATCH
100
AcDbLine
 10
30.370207
 20
27.72883
 30
0.0
 11
30.370207
 21
27.72883
 31
0.0
  0
LINE
  5
11C
100
AcDbEntity
  8
HATCH
100
AcDbLine
 10
30.370207
 20
28.19753
 30
0.0
 11
30.370207
 21
28.19753
 31
0.0
  0
LINE
  5
11D
100
AcDbEntity
  8
HATCH
100
AcDbLine
 10
30.838907
 20
27.02563
 30
0.0
 11
30.838907
 21
27.02563
 31
0.0
  0
LINE
  5
11E
100
AcDbEntity
  8
HATCH
100
AcDbLine
 10
30.838907
 20
27.49443
 30
0.0
 11
30.838907
 21
27.49443
 31
0.0
  0
LINE
  5
11F
100
AcDbEntity
  8
HATCH
100
AcDbLine
 10
30.838907
 20
27.96313
 30
0.0
 11
30.838907
 21
27.96313
 31
0.0
  0
LINE
  5
120
100
AcDbEntity
  8
HATCH
100
AcDbLine
 10
31.307707
 20
26.79133
 30
0.0
 11
31.307707
 21
26.79133
 31
0.0
  0
LINE
  5
121
100
AcDbEntity
  8
HATCH
100
AcDbLine
 10
31.307707
 20
27.26003
 30
0.0
 11
31.307707
 21
27.26003
 31
0.0
  0
LINE
  5
122
100
AcDbEntity
  8
HATCH
100
AcDbLine
 10
31.307707
 20
27.72883
 30
0.0
 11
31.307707
 21
27.72883
 31
0.0
  0
LINE
  5
123
100
AcDbEntity
  8
HATCH
100
AcDbLine
 10
31.307707
 20
28.19753
 30
0.0
 11
31.307707
 21
28.19753
 31
0.0
  0
LINE
  5
124
100
AcDbEntity
  8
HATCH
100
AcDbLine
 10
29.073707
 20
31.86383
 30
0.0
 11
29.100407
 21
31.79033
 31
0.0
  0
LINE
  5
125
100
AcDbEntity
  8
HATCH
100
AcDbLine
 10
28.241007
 20
31.59503
 30
0.0
 11
28.305007
 21
31.55003
 31
0.0
  0
LINE
  5
126
100
AcDbEntity
  8
HATCH
100
AcDbLine
 10
29.213807
 20
30.44973
 30
0.0
 11
29.290707
 21
30.43603
 31
0.0
  0
LINE
  5
127
100
AcDbEntity
  8
HATCH
100
AcDbLine
 10
29.504007
 20
33.97683
 30
0.0
 11
29.468207
 21
33.92553
 31
0.0
  0
LINE
  5
128
100
AcDbEntity
  8
HATCH
100
AcDbLine
 10
28.063907
 20
33.77883
 30
0.0
 11
28.077507
 21
33.85573
 31
0.0
  0
LINE
  5
129
100
AcDbEntity
  8
HATCH
100
AcDbLine
 10
27.972307
 20
28.37263
 30
0.0
 11
27.972307
 21
28.37263
 31
0.0
  0
LINE
  5
12A
100
AcDbEntity
  8
HATCH
100
AcDbLine
 10
28.206707
 20
27.90383
 30
0.0
 11
28.206707
 21
27.90383
 31
0.0
  0
LINE
  5
12B
100
AcDbEntity
  8
HATCH
100
AcDbLine
 10
27.972307
 20
27.43513
 30
0.0
 11
27.972307
 21
27.43513
 31
0.0
  0
LINE
  5
12C
100
AcDbEntity
  8
HATCH
100
AcDbLine
 10
28.206707
 20
26.96633
 30
0.0
 11
28.206707
 21
26.96633
 31
0.0
  0
LINE
  5
12D
100
AcDbEntity
  8
HATCH
100
AcDbLine
 10
28.909807
 20
28.37263
 30
0.0
 11
28.909807
 21
28.37263
 31
0.0
  0
LINE
  5
12E
100
AcDbEntity
  8
HATCH
100
AcDbLine
 10
28.441107
 20
28.37263
 30
0.0
 11
28.441107
 21
28.37263
 31
0.0
  0
LINE
  5
12F
100
AcDbEntity
  8
HATCH
100
AcDbLine
 10
29.612907
 20
27.90383
 30
0.0
 11
29.612907
 21
27.90383
 31
0.0
  0
LINE
  5
130
100
AcDbEntity
  8
HATCH
100
AcDbLine
 10
29.144207
 20
27.90383
 30
0.0
 11
29.144207
 21
27.90383
 31
0.0
  0
LINE
  5
131
100
AcDbEntity
  8
HATCH
100
AcDbLine
 10
28.675407
 20
27.90383
 30
0.0
 11
28.675407
 21
27.90383
 31
0.0
  0
LINE
  5
132
100
AcDbEntity
  8
HATCH
100
AcDbLine
 10
29.378607
 20
27.43513
 30
0.0
 11
29.378607
 21
27.43513
 31
0.0
  0
LINE
  5
133
100
AcDbEntity
  8
HATCH
100
AcDbLine
 10
28.909807
 20
27.43513
 30
0.0
 11
28.909807
 21
27.43513
 31
0.0
  0
LINE
  5
134
100
AcDbEntity
  8
HATCH
100
AcDbLine
 10
28.441107
 20
27.43513
 30
0.0
 11
28.441107
 21
27.43513
 31
0.0
  0
LINE
  5
135
100
AcDbEntity
  8
HATCH
100
AcDbLine
 10
29.612907
 20
26.96633
 30
0.0
 11
29.612907
 21
26.96633
 31
0.0
  0
LINE
  5
136
100
AcDbEntity
  8
HATCH
100
AcDbLine
 10
29.144207
 20
26.96633
 30
0.0
 11
29.144207
 21
26.96633
 31
0.0
  0
LINE
  5
137
100
AcDbEntity
  8
HATCH
100
AcDbLine
 10
28.675407
 20
26.96633
 30
0.0
 11
28.675407
 21
26.96633
 31
0.0
  0
LINE
  5
138
100
AcDbEntity
  8
HATCH
100
AcDbLine
 10
23.987907
 20
34.46633
 30
0.0
 11
23.987907
 21
34.46633
 31
0.0
  0
LINE
  5
139
100
AcDbEntity
  8
HATCH
100
AcDbLine
 10
23.519207
 20
34.46633
 30
0.0
 11
23.519207
 21
34.46633
 31
0.0
  0
LINE
  5
13A
100
AcDbEntity
  8
HATCH
100
AcDbLine
 10
23.050407
 20
34.46633
 30
0.0
 11
23.050407
 21
34.46633
 31
0.0
  0
LINE
  5
13B
100
AcDbEntity
  8
HATCH
100
AcDbLine
 10
22.581707
 20
34.46633
 30
0.0
 11
22.581707
 21
34.46633
 31
0.0
  0
LINE
  5
13C
100
AcDbEntity
  8
HATCH
100
AcDbLine
 10
23.753607
 20
34.93513
 30
0.0
 11
23.753607
 21
34.93513
 31
0.0
  0
LINE
  5
13D
100
AcDbEntity
  8
HATCH
100
AcDbLine
 10
23.284807
 20
34.93513
 30
0.0
 11
23.284807
 21
34.93513
 31
0.0
  0
LINE
  5
13E
100
AcDbEntity
  8
HATCH
100
AcDbLine
 10
22.816107
 20
34.93513
 30
0.0
 11
22.816107
 21
34.93513
 31
0.0
  0
LINE
  5
13F
100
AcDbEntity
  8
HATCH
100
AcDbLine
 10
22.347307
 20
34.93513
 30
0.0
 11
22.347307
 21
34.93513
 31
0.0
  0
LINE
  5
140
100
AcDbEntity
  8
HATCH
100
AcDbLine
 10
23.987907
 20
35.40383
 30
0.0
 11
23.987907
 21
35.40383
 31
0.0
  0
LINE
  5
141
100
AcDbEntity
  8
HATCH
100
AcDbLine
 10
23.519207
 20
35.40383
 30
0.0
 11
23.519207
 21
35.40383
 31
0.0
  0
LINE
  5
142
100
AcDbEntity
  8
HATCH
100
AcDbLine
 10
23.050407
 20
35.40383
 30
0.0
 11
23.050407
 21
35.40383
 31
0.0
  0
LINE
  5
143
100
AcDbEntity
  8
HATCH
100
AcDbLine
 10
22.581707
 20
35.40383
 30
0.0
 11
22.581707
 21
35.40383
 31
0.0
  0
LINE
  5
144
100
AcDbEntity
  8
HATCH
100
AcDbLine
 10
23.753607
 20
35.87263
 30
0.0
 11
23.753607
 21
35.87263
 31
0.0
  0
LINE
  5
145
100
AcDbEntity
  8
HATCH
100
AcDbLine
 10
23.284807
 20
35.87263
 30
0.0
 11
23.284807
 21
35.87263
 31
0.0
  0
LINE
  5
146
100
AcDbEntity
  8
HATCH
100
AcDbLine
 10
22.816107
 20
35.87263
 30
0.0
 11
22.816107
 21
35.87263
 31
0.0
  0
LINE
  5
147
100
AcDbEntity
  8
HATCH
100
AcDbLine
 10
22.347307
 20
35.87263
 30
0.0
 11
22.347307
 21
35.87263
 31
0.0
  0
LINE
  5
148
100
AcDbEntity
  8
DRAWING
100
AcDbLine
 10
23.987907
 20
36.34133
 30
0.0
 11
23.987907
 21
36.34133
 31
0.0
  0
LINE
  5
149
100
AcDbEntity
  8
DRAWING
100
AcDbLine
 10
23.519207
 20
36.34133
 30
0.0
 11
23.519207
 21
36.34133
 31
0.0
  0
LINE
  5
14A
100
AcDbEntity
  8
DRAWING
100
AcDbLine
 10
23.050407
 20
36.34133
 30
0.0
 11
23.050407
 21
36.34133
 31
0.0
  0
LINE
  5
14B
100
AcDbEntity
  8
DRAWING
100
AcDbLine
 10
22.581707
 20
36.34133
 30
0.0
 11
22.581707
 21
36.34133
 31
0.0
  0
LINE
  5
14C
100
AcDbEntity
  8
HATCH
100
AcDbLine
 10
23.753607
 20
36.81013
 30
0.0
 11
23.753607
 21
36.81013
 31
0.0
  0
LINE
  5
14D
100
AcDbEntity
  8
HATCH
100
AcDbLine
 10
23.284807
 20
36.81013
 30
0.0
 11
23.284807
 21
36.81013
 31
0.0
  0
LINE
  5
14E
100
AcDbEntity
  8
HATCH
100
AcDbLine
 10
22.816107
 20
36.81013
 30
0.0
 11
22.816107
 21
36.81013
 31
0.0
  0
LINE
  5
14F
100
AcDbEntity
  8
HATCH
100
AcDbLine
 10
22.347307
 20
36.81013
 30
0.0
 11
22.347307
 21
36.81013
 31
0.0
  0
LINE
  5
150
100
AcDbEntity
  8
HATCH
100
AcDbLine
 10
23.987907
 20
37.27883
 30
0.0
 11
23.987907
 21
37.27883
 31
0.0
  0
LINE
  5
151
100
AcDbEntity
  8
HATCH
100
AcDbLine
 10
23.519207
 20
37.27883
 30
0.0
 11
23.519207
 21
37.27883
 31
0.0
  0
LINE
  5
152
100
AcDbEntity
  8
HATCH
100
AcDbLine
 10
23.050407
 20
37.27883
 30
0.0
 11
23.050407
 21
37.27883
 31
0.0
  0
LINE
  5
153
100
AcDbEntity
  8
HATCH
100
AcDbLine
 10
22.581707
 20
37.27883
 30
0.0
 11
22.581707
 21
37.27883
 31
0.0
  0
LINE
  5
154
100
AcDbEntity
  8
HATCH
100
AcDbLine
 10
23.753607
 20
37.74763
 30
0.0
 11
23.753607
 21
37.74763
 31
0.0
  0
LINE
  5
155
100
AcDbEntity
  8
HATCH
100
AcDbLine
 10
23.284807
 20
37.74763
 30
0.0
 11
23.284807
 21
37.74763
 31
0.0
  0
LINE
  5
156
100
AcDbEntity
  8
HATCH
100
AcDbLine
 10
22.816107
 20
37.74763
 30
0.0
 11
22.816107
 21
37.74763
 31
0.0
  0
LINE
  5
157
100
AcDbEntity
  8
HATCH
100
AcDbLine
 10
22.347307
 20
37.74763
 30
0.0
 11
22.347307
 21
37.74763
 31
0.0
  0
LINE
  5
158
100
AcDbEntity
  8
HATCH
100
AcDbLine
 10
23.987907
 20
38.21633
 30
0.0
 11
23.987907
 21
38.21633
 31
0.0
  0
LINE
  5
159
100
AcDbEntity
  8
HATCH
100
AcDbLine
 10
23.519207
 20
38.21633
 30
0.0
 11
23.519207
 21
38.21633
 31
0.0
  0
LINE
  5
15A
100
AcDbEntity
  8
HATCH
100
AcDbLine
 10
23.050407
 20
38.21633
 30
0.0
 11
23.050407
 21
38.21633
 31
0.0
  0
LINE
  5
15B
100
AcDbEntity
  8
HATCH
100
AcDbLine
 10
22.581707
 20
38.21633
 30
0.0
 11
22.581707
 21
38.21633
 31
0.0
  0
LINE
  5
15C
100
AcDbEntity
  8
HATCH
100
AcDbLine
 10
23.753607
 20
38.68513
 30
0.0
 11
23.753607
 21
38.68513
 31
0.0
  0
LINE
  5
15D
100
AcDbEntity
  8
HATCH
100
AcDbLine
 10
23.284807
 20
38.68513
 30
0.0
 11
23.284807
 21
38.68513
 31
0.0
  0
LINE
  5
15E
100
AcDbEntity
  8
HATCH
100
AcDbLine
 10
22.816107
 20
38.68513
 30
0.0
 11
22.816107
 21
38.68513
 31
0.0
  0
LINE
  5
15F
100
AcDbEntity
  8
HATCH
100
AcDbLine
 10
22.347307
 20
38.68513
 30
0.0
 11
22.347307
 21
38.68513
 31
0.0
  0
LINE
  5
160
100
AcDbEntity
  8
HATCH
100
AcDbLine
 10
23.987907
 20
39.15383
 30
0.0
 11
23.987907
 21
39.15383
 31
0.0
  0
LINE
  5
161
100
AcDbEntity
  8
HATCH
100
AcDbLine
 10
23.519207
 20
39.15383
 30
0.0
 11
23.519207
 21
39.15383
 31
0.0
  0
LINE
  5
162
100
AcDbEntity
  8
HATCH
100
AcDbLine
 10
23.050407
 20
39.15383
 30
0.0
 11
23.050407
 21
39.15383
 31
0.0
  0
LINE
  5
163
100
AcDbEntity
  8
HATCH
100
AcDbLine
 10
22.581707
 20
39.15383
 30
0.0
 11
22.581707
 21
39.15383
 31
0.0
  0
LINE
  5
164
100
AcDbEntity
  8
HATCH
100
AcDbLine
 10
23.753607
 20
39.62263
 30
0.0
 11
23.753607
 21
39.62263
 31
0.0
  0
LINE
  5
165
100
AcDbEntity
  8
HATCH
100
AcDbLine
 10
23.284807
 20
39.62263
 30
0.0
 11
23.284807
 21
39.62263
 31
0.0
  0
LINE
  5
166
100
AcDbEntity
  8
HATCH
100
AcDbLine
 10
22.816107
 20
39.62263
 30
0.0
 11
22.816107
 21
39.62263
 31
0.0
  0
LINE
  5
167
100
AcDbEntity
  8
HATCH
100
AcDbLine
 10
22.347307
 20
39.62263
 30
0.0
 11
22.347307
 21
39.62263
 31
0.0
  0
LINE
  5
168
100
AcDbEntity
  8
HATCH
100
AcDbLine
 10
23.987907
 20
40.09133
 30
0.0
 11
23.987907
 21
40.09133
 31
0.0
  0
LINE
  5
169
100
AcDbEntity
  8
HATCH
100
AcDbLine
 10
23.519207
 20
40.09133
 30
0.0
 11
23.519207
 21
40.09133
 31
0.0
  0
LINE
  5
16A
100
AcDbEntity
  8
HATCH
100
AcDbLine
 10
23.050407
 20
40.09133
 30
0.0
 11
23.050407
 21
40.09133
 31
0.0
  0
LINE
  5
16B
100
AcDbEntity
  8
HATCH
100
AcDbLine
 10
22.581707
 20
40.09133
 30
0.0
 11
22.581707
 21
40.09133
 31
0.0
  0
LINE
  5
16C
100
AcDbEntity
  8
HATCH
100
AcDbLine
 10
23.753607
 20
40.56013
 30
0.0
 11
23.753607
 21
40.56013
 31
0.0
  0
LINE
  5
16D
100
AcDbEntity
  8
HATCH
100
AcDbLine
 10
23.284807
 20
40.56013
 30
0.0
 11
23.284807
 21
40.56013
 31
0.0
  0
LINE
  5
16E
100
AcDbEntity
  8
HATCH
100
AcDbLine
 10
22.816107
 20
40.56013
 30
0.0
 11
22.816107
 21
40.56013
 31
0.0
  0
LINE
  5
16F
100
AcDbEntity
  8
HATCH
100
AcDbLine
 10
22.347307
 20
40.56013
 30
0.0
 11
22.347307
 21
40.56013
 31
0.0
  0
LINE
  5
170
100
AcDbEntity
  8
HATCH
100
AcDbLine
 10
23.987907
 20
41.02883
 30
0.0
 11
23.987907
 21
41.02883
 31
0.0
  0
LINE
  5
171
100
AcDbEntity
  8
HATCH
100
AcDbLine
 10
23.519207
 20
41.02883
 30
0.0
 11
23.519207
 21
41.02883
 31
0.0
  0
LINE
  5
172
100
AcDbEntity
  8
HATCH
100
AcDbLine
 10
23.050407
 20
41.02883
 30
0.0
 11
23.050407
 21
41.02883
 31
0.0
  0
LINE
  5
173
100
AcDbEntity
  8
HATCH
100
AcDbLine
 10
22.581707
 20
41.02883
 30
0.0
 11
22.581707
 21
41.02883
 31
0.0
  0
LINE
  5
174
100
AcDbEntity
  8
HATCH
100
AcDbLine
 10
23.753607
 20
41.49763
 30
0.0
 11
23.753607
 21
41.49763
 31
0.0
  0
LINE
  5
175
100
AcDbEntity
  8
HATCH
100
AcDbLine
 10
23.284807
 20
41.49763
 30
0.0
 11
23.284807
 21
41.49763
 31
0.0
  0
LINE
  5
176
100
AcDbEntity
  8
HATCH
100
AcDbLine
 10
22.816107
 20
41.49763
 30
0.0
 11
22.816107
 21
41.49763
 31
0.0
  0
LINE
  5
177
100
AcDbEntity
  8
HATCH
100
AcDbLine
 10
22.347307
 20
41.49763
 30
0.0
 11
22.347307
 21
41.49763
 31
0.0
  0
LINE
  5
178
100
AcDbEntity
  8
DRAWING
100
AcDbLine
 10
24.044107
 20
36.34453
 30
0.0
 11
22.169107
 21
36.34453
 31
0.0
  0
LINE
  5
179
100
AcDbEntity
  8
HATCH
100
AcDbLine
 10
23.987907
 20
41.96633
 30
0.0
 11
23.987907
 21
41.96633
 31
0.0
  0
LINE
  5
17A
100
AcDbEntity
  8
HATCH
100
AcDbLine
 10
23.519207
 20
41.96633
 30
0.0
 11
23.519207
 21
41.96633
 31
0.0
  0
LINE
  5
17B
100
AcDbEntity
  8
HATCH
100
AcDbLine
 10
23.050407
 20
41.96633
 30
0.0
 11
23.050407
 21
41.96633
 31
0.0
  0
LINE
  5
17C
100
AcDbEntity
  8
HATCH
100
AcDbLine
 10
22.581707
 20
41.96633
 30
0.0
 11
22.581707
 21
41.96633
 31
0.0
  0
LINE
  5
17D
100
AcDbEntity
  8
HATCH
100
AcDbLine
 10
23.753607
 20
42.43513
 30
0.0
 11
23.753607
 21
42.43513
 31
0.0
  0
LINE
  5
17E
100
AcDbEntity
  8
HATCH
100
AcDbLine
 10
23.284807
 20
42.43513
 30
0.0
 11
23.284807
 21
42.43513
 31
0.0
  0
LINE
  5
17F
100
AcDbEntity
  8
HATCH
100
AcDbLine
 10
22.816107
 20
42.43513
 30
0.0
 11
22.816107
 21
42.43513
 31
0.0
  0
LINE
  5
180
100
AcDbEntity
  8
HATCH
100
AcDbLine
 10
22.347307
 20
42.43513
 30
0.0
 11
22.347307
 21
42.43513
 31
0.0
  0
LINE
  5
181
100
AcDbEntity
  8
HATCH
100
AcDbLine
 10
23.987907
 20
42.90383
 30
0.0
 11
23.987907
 21
42.90383
 31
0.0
  0
LINE
  5
182
100
AcDbEntity
  8
HATCH
100
AcDbLine
 10
23.519207
 20
42.90383
 30
0.0
 11
23.519207
 21
42.90383
 31
0.0
  0
LINE
  5
183
100
AcDbEntity
  8
HATCH
100
AcDbLine
 10
23.050407
 20
42.90383
 30
0.0
 11
23.050407
 21
42.90383
 31
0.0
  0
LINE
  5
184
100
AcDbEntity
  8
HATCH
100
AcDbLine
 10
22.581707
 20
42.90383
 30
0.0
 11
22.581707
 21
42.90383
 31
0.0
  0
LINE
  5
185
100
AcDbEntity
  8
HATCH
100
AcDbLine
 10
23.753607
 20
43.37263
 30
0.0
 11
23.753607
 21
43.37263
 31
0.0
  0
LINE
  5
186
100
AcDbEntity
  8
HATCH
100
AcDbLine
 10
23.284807
 20
43.37263
 30
0.0
 11
23.284807
 21
43.37263
 31
0.0
  0
LINE
  5
187
100
AcDbEntity
  8
HATCH
100
AcDbLine
 10
22.816107
 20
43.37263
 30
0.0
 11
22.816107
 21
43.37263
 31
0.0
  0
LINE
  5
188
100
AcDbEntity
  8
HATCH
100
AcDbLine
 10
22.347307
 20
43.37263
 30
0.0
 11
22.347307
 21
43.37263
 31
0.0
  0
LINE
  5
189
100
AcDbEntity
  8
HATCH
100
AcDbLine
 10
23.987907
 20
43.84133
 30
0.0
 11
23.987907
 21
43.84133
 31
0.0
  0
LINE
  5
18A
100
AcDbEntity
  8
HATCH
100
AcDbLine
 10
23.519207
 20
43.84133
 30
0.0
 11
23.519207
 21
43.84133
 31
0.0
  0
LINE
  5
18B
100
AcDbEntity
  8
HATCH
100
AcDbLine
 10
23.050407
 20
43.84133
 30
0.0
 11
23.050407
 21
43.84133
 31
0.0
  0
LINE
  5
18C
100
AcDbEntity
  8
HATCH
100
AcDbLine
 10
22.581707
 20
43.84133
 30
0.0
 11
22.581707
 21
43.84133
 31
0.0
  0
LINE
  5
18D
100
AcDbEntity
  8
HATCH
100
AcDbLine
 10
23.753607
 20
44.31013
 30
0.0
 11
23.753607
 21
44.31013
 31
0.0
  0
LINE
  5
18E
100
AcDbEntity
  8
HATCH
100
AcDbLine
 10
23.284807
 20
44.31013
 30
0.0
 11
23.284807
 21
44.31013
 31
0.0
  0
LINE
  5
18F
100
AcDbEntity
  8
HATCH
100
AcDbLine
 10
22.816107
 20
44.31013
 30
0.0
 11
22.816107
 21
44.31013
 31
0.0
  0
LINE
  5
190
100
AcDbEntity
  8
HATCH
100
AcDbLine
 10
22.347307
 20
44.31013
 30
0.0
 11
22.347307
 21
44.31013
 31
0.0
  0
LINE
  5
191
100
AcDbEntity
  8
HATCH
100
AcDbLine
 10
23.987907
 20
44.77883
 30
0.0
 11
23.987907
 21
44.77883
 31
0.0
  0
LINE
  5
192
100
AcDbEntity
  8
HATCH
100
AcDbLine
 10
23.519207
 20
44.77883
 30
0.0
 11
23.519207
 21
44.77883
 31
0.0
  0
LINE
  5
193
100
AcDbEntity
  8
HATCH
100
AcDbLine
 10
23.050407
 20
44.77883
 30
0.0
 11
23.050407
 21
44.77883
 31
0.0
  0
LINE
  5
194
100
AcDbEntity
  8
HATCH
100
AcDbLine
 10
22.581707
 20
44.77883
 30
0.0
 11
22.581707
 21
44.77883
 31
0.0
  0
LINE
  5
195
100
AcDbEntity
  8
HATCH
100
AcDbLine
 10
23.753607
 20
45.24763
 30
0.0
 11
23.753607
 21
45.24763
 31
0.0
  0
LINE
  5
196
100
AcDbEntity
  8
HATCH
100
AcDbLine
 10
23.284807
 20
45.24763
 30
0.0
 11
23.284807
 21
45.24763
 31
0.0
  0
LINE
  5
197
100
AcDbEntity
  8
HATCH
100
AcDbLine
 10
22.816107
 20
45.24763
 30
0.0
 11
22.816107
 21
45.24763
 31
0.0
  0
LINE
  5
198
100
AcDbEntity
  8
HATCH
100
AcDbLine
 10
22.347307
 20
45.24763
 30
0.0
 11
22.347307
 21
45.24763
 31
0.0
  0
LINE
  5
199
100
AcDbEntity
  8
HATCH
100
AcDbLine
 10
23.987907
 20
45.71633
 30
0.0
 11
23.987907
 21
45.71633
 31
0.0
  0
LINE
  5
19A
100
AcDbEntity
  8
HATCH
100
AcDbLine
 10
23.519207
 20
45.71633
 30
0.0
 11
23.519207
 21
45.71633
 31
0.0
  0
LINE
  5
19B
100
AcDbEntity
  8
HATCH
100
AcDbLine
 10
23.050407
 20
45.71633
 30
0.0
 11
23.050407
 21
45.71633
 31
0.0
  0
LINE
  5
19C
100
AcDbEntity
  8
HATCH
100
AcDbLine
 10
22.581707
 20
45.71633
 30
0.0
 11
22.581707
 21
45.71633
 31
0.0
  0
LINE
  5
19D
100
AcDbEntity
  8
HATCH
100
AcDbLine
 10
23.753607
 20
46.18513
 30
0.0
 11
23.753607
 21
46.18513
 31
0.0
  0
LINE
  5
19E
100
AcDbEntity
  8
HATCH
100
AcDbLine
 10
23.284807
 20
46.18513
 30
0.0
 11
23.284807
 21
46.18513
 31
0.0
  0
LINE
  5
19F
100
AcDbEntity
  8
HATCH
100
AcDbLine
 10
22.816107
 20
46.18513
 30
0.0
 11
22.816107
 21
46.18513
 31
0.0
  0
LINE
  5
1A0
100
AcDbEntity
  8
HATCH
100
AcDbLine
 10
22.347307
 20
46.18513
 30
0.0
 11
22.347307
 21
46.18513
 31
0.0
  0
LINE
  5
1A1
100
AcDbEntity
  8
HATCH
100
AcDbLine
 10
23.987907
 20
46.65383
 30
0.0
 11
23.987907
 21
46.65383
 31
0.0
  0
LINE
  5
1A2
100
AcDbEntity
  8
HATCH
100
AcDbLine
 10
23.519207
 20
46.65383
 30
0.0
 11
23.519207
 21
46.65383
 31
0.0
  0
LINE
  5
1A3
100
AcDbEntity
  8
HATCH
100
AcDbLine
 10
23.050407
 20
46.65383
 30
0.0
 11
23.050407
 21
46.65383
 31
0.0
  0
LINE
  5
1A4
100
AcDbEntity
  8
HATCH
100
AcDbLine
 10
22.581707
 20
46.65383
 30
0.0
 11
22.581707
 21
46.65383
 31
0.0
  0
LINE
  5
1A5
100
AcDbEntity
  8
HATCH
100
AcDbLine
 10
23.753607
 20
47.12263
 30
0.0
 11
23.753607
 21
47.12263
 31
0.0
  0
LINE
  5
1A6
100
AcDbEntity
  8
HATCH
100
AcDbLine
 10
23.284807
 20
47.12263
 30
0.0
 11
23.284807
 21
47.12263
 31
0.0
  0
LINE
  5
1A7
100
AcDbEntity
  8
HATCH
100
AcDbLine
 10
22.816107
 20
47.12263
 30
0.0
 11
22.816107
 21
47.12263
 31
0.0
  0
LINE
  5
1A8
100
AcDbEntity
  8
HATCH
100
AcDbLine
 10
22.347307
 20
47.12263
 30
0.0
 11
22.347307
 21
47.12263
 31
0.0
  0
LINE
  5
1A9
100
AcDbEntity
  8
HATCH
100
AcDbLine
 10
23.987907
 20
47.59133
 30
0.0
 11
23.987907
 21
47.59133
 31
0.0
  0
LINE
  5
1AA
100
AcDbEntity
  8
HATCH
100
AcDbLine
 10
23.519207
 20
47.59133
 30
0.0
 11
23.519207
 21
47.59133
 31
0.0
  0
LINE
  5
1AB
100
AcDbEntity
  8
HATCH
100
AcDbLine
 10
23.050407
 20
47.59133
 30
0.0
 11
23.050407
 21
47.59133
 31
0.0
  0
LINE
  5
1AC
100
AcDbEntity
  8
HATCH
100
AcDbLine
 10
22.581707
 20
47.59133
 30
0.0
 11
22.581707
 21
47.59133
 31
0.0
  0
LINE
  5
1AD
100
AcDbEntity
  8
HATCH
100
AcDbLine
 10
23.753607
 20
48.06013
 30
0.0
 11
23.753607
 21
48.06013
 31
0.0
  0
LINE
  5
1AE
100
AcDbEntity
  8
HATCH
100
AcDbLine
 10
23.284807
 20
48.06013
 30
0.0
 11
23.284807
 21
48.06013
 31
0.0
  0
LINE
  5
1AF
100
AcDbEntity
  8
HATCH
100
AcDbLine
 10
22.816107
 20
48.06013
 30
0.0
 11
22.816107
 21
48.06013
 31
0.0
  0
LINE
  5
1B0
100
AcDbEntity
  8
HATCH
100
AcDbLine
 10
22.347307
 20
48.06013
 30
0.0
 11
22.347307
 21
48.06013
 31
0.0
  0
LINE
  5
1B1
100
AcDbEntity
  8
HATCH
100
AcDbLine
 10
23.987907
 20
48.52883
 30
0.0
 11
23.987907
 21
48.52883
 31
0.0
  0
LINE
  5
1B2
100
AcDbEntity
  8
HATCH
100
AcDbLine
 10
23.519207
 20
48.52883
 30
0.0
 11
23.519207
 21
48.52883
 31
0.0
  0
LINE
  5
1B3
100
AcDbEntity
  8
HATCH
100
AcDbLine
 10
23.050407
 20
48.52883
 30
0.0
 11
23.050407
 21
48.52883
 31
0.0
  0
LINE
  5
1B4
100
AcDbEntity
  8
HATCH
100
AcDbLine
 10
22.581707
 20
48.52883
 30
0.0
 11
22.581707
 21
48.52883
 31
0.0
  0
LINE
  5
1B5
100
AcDbEntity
  8
HATCH
100
AcDbLine
 10
23.753607
 20
48.99763
 30
0.0
 11
23.753607
 21
48.99763
 31
0.0
  0
LINE
  5
1B6
100
AcDbEntity
  8
HATCH
100
AcDbLine
 10
23.284807
 20
48.99763
 30
0.0
 11
23.284807
 21
48.99763
 31
0.0
  0
LINE
  5
1B7
100
AcDbEntity
  8
HATCH
100
AcDbLine
 10
22.816107
 20
48.99763
 30
0.0
 11
22.816107
 21
48.99763
 31
0.0
  0
LINE
  5
1B8
100
AcDbEntity
  8
HATCH
100
AcDbLine
 10
22.347307
 20
48.99763
 30
0.0
 11
22.347307
 21
48.99763
 31
0.0
  0
LINE
  5
1B9
100
AcDbEntity
  8
HATCH
100
AcDbLine
 10
27.411307
 20
37.17773
 30
0.0
 11
27.352407
 21
37.15653
 31
0.0
  0
LINE
  5
1BA
100
AcDbEntity
  8
HATCH
100
AcDbLine
 10
25.061907
 20
36.32283
 30
0.0
 11
25.003107
 21
36.30153
 31
0.0
  0
LINE
  5
1BB
100
AcDbEntity
  8
HATCH
100
AcDbLine
 10
26.556307
 20
39.52713
 30
0.0
 11
26.497507
 21
39.50563
 31
0.0
  0
LINE
  5
1BC
100
AcDbEntity
  8
HATCH
100
AcDbLine
 10
24.206907
 20
38.67213
 30
0.0
 11
24.148107
 21
38.65063
 31
0.0
  0
LINE
  5
1BD
100
AcDbEntity
  8
HATCH
100
AcDbLine
 10
27.456007
 20
35.41063
 30
0.0
 11
27.420107
 21
35.35943
 31
0.0
  0
LINE
  5
1BE
100
AcDbEntity
  8
HATCH
100
AcDbLine
 10
26.842207
 20
38.89263
 30
0.0
 11
26.806307
 21
38.84133
 31
0.0
  0
LINE
  5
1BF
100
AcDbEntity
  8
HATCH
100
AcDbLine
 10
25.408107
 20
36.84453
 30
0.0
 11
25.372207
 21
36.79353
 31
0.0
  0
LINE
  5
1C0
100
AcDbEntity
  8
HATCH
100
AcDbLine
 10
24.794307
 20
40.32643
 30
0.0
 11
24.758407
 21
40.27513
 31
0.0
  0
LINE
  5
1C1
100
AcDbEntity
  8
HATCH
100
AcDbLine
 10
26.130307
 20
39.30833
 30
0.0
 11
26.119507
 21
39.24683
 31
0.0
  0
LINE
  5
1C2
100
AcDbEntity
  8
HATCH
100
AcDbLine
 10
25.696207
 20
36.84623
 30
0.0
 11
25.685407
 21
36.78473
 31
0.0
  0
LINE
  5
1C3
100
AcDbEntity
  8
HATCH
100
AcDbLine
 10
25.262107
 20
34.38433
 30
0.0
 11
25.251407
 21
34.32283
 31
0.0
  0
LINE
  5
1C4
100
AcDbEntity
  8
HATCH
100
AcDbLine
 10
24.456707
 20
34.46633
 30
0.0
 11
24.456707
 21
34.46633
 31
0.0
  0
LINE
  5
1C5
100
AcDbEntity
  8
HATCH
100
AcDbLine
 10
24.691107
 20
34.93513
 30
0.0
 11
24.691107
 21
34.93513
 31
0.0
  0
LINE
  5
1C6
100
AcDbEntity
  8
HATCH
100
AcDbLine
 10
24.222307
 20
34.93513
 30
0.0
 11
24.222307
 21
34.93513
 31
0.0
  0
LINE
  5
1C7
100
AcDbEntity
  8
HATCH
100
AcDbLine
 10
24.456707
 20
35.40383
 30
0.0
 11
24.456707
 21
35.40383
 31
0.0
  0
LINE
  5
1C8
100
AcDbEntity
  8
HATCH
100
AcDbLine
 10
28.266307
 20
34.82863
 30
0.0
 11
28.207407
 21
34.80713
 31
0.0
  0
LINE
  5
1C9
100
AcDbEntity
  8
HATCH
100
AcDbLine
 10
29.760607
 20
38.03303
 30
0.0
 11
29.701807
 21
38.01153
 31
0.0
  0
LINE
  5
1CA
100
AcDbEntity
  8
HATCH
100
AcDbLine
 10
28.905707
 20
40.38213
 30
0.0
 11
28.846807
 21
40.36083
 31
0.0
  0
LINE
  5
1CB
100
AcDbEntity
  8
HATCH
100
AcDbLine
 10
28.890007
 20
37.45853
 30
0.0
 11
28.854107
 21
37.40753
 31
0.0
  0
LINE
  5
1CC
100
AcDbEntity
  8
HATCH
100
AcDbLine
 10
28.276307
 20
40.94043
 30
0.0
 11
28.240407
 21
40.88923
 31
0.0
  0
LINE
  5
1CD
100
AcDbEntity
  8
HATCH
100
AcDbLine
 10
29.026007
 20
41.33623
 30
0.0
 11
29.015307
 21
41.27473
 31
0.0
  0
LINE
  5
1CE
100
AcDbEntity
  8
HATCH
100
AcDbLine
 10
28.591907
 20
38.87433
 30
0.0
 11
28.581207
 21
38.81273
 31
0.0
  0
LINE
  5
1CF
100
AcDbEntity
  8
HATCH
100
AcDbLine
 10
28.157907
 20
36.41213
 30
0.0
 11
28.147107
 21
36.35063
 31
0.0
  0
LINE
  5
1D0
100
AcDbEntity
  8
HATCH
100
AcDbLine
 10
30.550407
 20
35.40383
 30
0.0
 11
30.550407
 21
35.40383
 31
0.0
  0
LINE
  5
1D1
100
AcDbEntity
  8
HATCH
100
AcDbLine
 10
31.253607
 20
35.87263
 30
0.0
 11
31.253607
 21
35.87263
 31
0.0
  0
LINE
  5
1D2
100
AcDbEntity
  8
HATCH
100
AcDbLine
 10
30.784807
 20
35.87263
 30
0.0
 11
30.784807
 21
35.87263
 31
0.0
  0
LINE
  5
1D3
100
AcDbEntity
  8
HATCH
100
AcDbLine
 10
31.019207
 20
36.34133
 30
0.0
 11
31.019207
 21
36.34133
 31
0.0
  0
LINE
  5
1D4
100
AcDbEntity
  8
HATCH
100
AcDbLine
 10
30.550407
 20
36.34133
 30
0.0
 11
30.550407
 21
36.34133
 31
0.0
  0
LINE
  5
1D5
100
AcDbEntity
  8
HATCH
100
AcDbLine
 10
31.253607
 20
36.81013
 30
0.0
 11
31.253607
 21
36.81013
 31
0.0
  0
LINE
  5
1D6
100
AcDbEntity
  8
HATCH
100
AcDbLine
 10
30.784807
 20
36.81013
 30
0.0
 11
30.784807
 21
36.81013
 31
0.0
  0
LINE
  5
1D7
100
AcDbEntity
  8
HATCH
100
AcDbLine
 10
31.019207
 20
37.27883
 30
0.0
 11
31.019207
 21
37.27883
 31
0.0
  0
LINE
  5
1D8
100
AcDbEntity
  8
HATCH
100
AcDbLine
 10
30.550407
 20
37.27883
 30
0.0
 11
30.550407
 21
37.27883
 31
0.0
  0
LINE
  5
1D9
100
AcDbEntity
  8
HATCH
100
AcDbLine
 10
31.253607
 20
37.74763
 30
0.0
 11
31.253607
 21
37.74763
 31
0.0
  0
LINE
  5
1DA
100
AcDbEntity
  8
HATCH
100
AcDbLine
 10
30.784807
 20
37.74763
 30
0.0
 11
30.784807
 21
37.74763
 31
0.0
  0
LINE
  5
1DB
100
AcDbEntity
  8
HATCH
100
AcDbLine
 10
31.019207
 20
38.21633
 30
0.0
 11
31.019207
 21
38.21633
 31
0.0
  0
LINE
  5
1DC
100
AcDbEntity
  8
HATCH
100
AcDbLine
 10
30.550407
 20
38.21633
 30
0.0
 11
30.550407
 21
38.21633
 31
0.0
  0
LINE
  5
1DD
100
AcDbEntity
  8
HATCH
100
AcDbLine
 10
31.253607
 20
38.68513
 30
0.0
 11
31.253607
 21
38.68513
 31
0.0
  0
LINE
  5
1DE
100
AcDbEntity
  8
HATCH
100
AcDbLine
 10
30.784807
 20
38.68513
 30
0.0
 11
30.784807
 21
38.68513
 31
0.0
  0
LINE
  5
1DF
100
AcDbEntity
  8
HATCH
100
AcDbLine
 10
31.019207
 20
39.15383
 30
0.0
 11
31.019207
 21
39.15383
 31
0.0
  0
LINE
  5
1E0
100
AcDbEntity
  8
HATCH
100
AcDbLine
 10
30.550407
 20
39.15383
 30
0.0
 11
30.550407
 21
39.15383
 31
0.0
  0
LINE
  5
1E1
100
AcDbEntity
  8
HATCH
100
AcDbLine
 10
31.253607
 20
39.62263
 30
0.0
 11
31.253607
 21
39.62263
 31
0.0
  0
LINE
  5
1E2
100
AcDbEntity
  8
HATCH
100
AcDbLine
 10
30.784807
 20
39.62263
 30
0.0
 11
30.784807
 21
39.62263
 31
0.0
  0
LINE
  5
1E3
100
AcDbEntity
  8
HATCH
100
AcDbLine
 10
31.019207
 20
40.09133
 30
0.0
 11
31.019207
 21
40.09133
 31
0.0
  0
LINE
  5
1E4
100
AcDbEntity
  8
HATCH
100
AcDbLine
 10
30.550407
 20
40.09133
 30
0.0
 11
30.550407
 21
40.09133
 31
0.0
  0
LINE
  5
1E5
100
AcDbEntity
  8
HATCH
100
AcDbLine
 10
31.253607
 20
40.56013
 30
0.0
 11
31.253607
 21
40.56013
 31
0.0
  0
LINE
  5
1E6
100
AcDbEntity
  8
HATCH
100
AcDbLine
 10
30.784807
 20
40.56013
 30
0.0
 11
30.784807
 21
40.56013
 31
0.0
  0
LINE
  5
1E7
100
AcDbEntity
  8
HATCH
100
AcDbLine
 10
31.019207
 20
41.02883
 30
0.0
 11
31.019207
 21
41.02883
 31
0.0
  0
LINE
  5
1E8
100
AcDbEntity
  8
HATCH
100
AcDbLine
 10
30.550407
 20
41.02883
 30
0.0
 11
30.550407
 21
41.02883
 31
0.0
  0
LINE
  5
1E9
100
AcDbEntity
  8
HATCH
100
AcDbLine
 10
31.253607
 20
41.49763
 30
0.0
 11
31.253607
 21
41.49763
 31
0.0
  0
LINE
  5
1EA
100
AcDbEntity
  8
HATCH
100
AcDbLine
 10
30.784807
 20
41.49763
 30
0.0
 11
30.784807
 21
41.49763
 31
0.0
  0
LINE
  5
1EB
100
AcDbEntity
  8
HATCH
100
AcDbLine
 10
31.307707
 20
34.76003
 30
0.0
 11
31.307707
 21
34.76003
 31
0.0
  0
LINE
  5
1EC
100
AcDbEntity
  8
HATCH
100
AcDbLine
 10
31.307707
 20
35.22883
 30
0.0
 11
31.307707
 21
35.22883
 31
0.0
  0
CIRCLE
  5
1ED
100
AcDbEntity
  8
DRAWING
100
AcDbCircle
 10
27.865303
 20
51.002415
 30
0.0
 40
0.375
  0
LINE
  5
1EE
100
AcDbEntity
  8
HATCH
100
AcDbLine
 10
25.701307
 20
41.87623
 30
0.0
 11
25.642507
 21
41.85503
 31
0.0
  0
LINE
  5
1EF
100
AcDbEntity
  8
HATCH
100
AcDbLine
 10
24.846607
 20
44.22563
 30
0.0
 11
24.787707
 21
44.20413
 31
0.0
  0
LINE
  5
1F0
100
AcDbEntity
  8
HATCH
100
AcDbLine
 10
26.228407
 20
42.37433
 30
0.0
 11
26.192507
 21
42.32303
 31
0.0
  0
LINE
  5
1F1
100
AcDbEntity
  8
HATCH
100
AcDbLine
 10
24.180807
 20
43.80813
 30
0.0
 11
24.144907
 21
43.75683
 31
0.0
  0
LINE
  5
1F2
100
AcDbEntity
  8
HATCH
100
AcDbLine
 10
26.564307
 20
41.77033
 30
0.0
 11
26.553607
 21
41.70873
 31
0.0
  0
LINE
  5
1F3
100
AcDbEntity
  8
HATCH
100
AcDbLine
 10
24.536507
 20
44.66653
 30
0.0
 11
24.525807
 21
44.60503
 31
0.0
  0
LINE
  5
1F4
100
AcDbEntity
  8
HATCH
100
AcDbLine
 10
24.102407
 20
42.20433
 30
0.0
 11
24.091707
 21
42.14283
 31
0.0
  0
LINE
  5
1F5
100
AcDbEntity
  8
HATCH
100
AcDbLine
 10
27.176207
 20
44.07033
 30
0.0
 11
27.221107
 21
44.13453
 31
0.0
  0
LINE
  5
1F6
100
AcDbEntity
  8
HATCH
100
AcDbLine
 10
26.617107
 20
43.56933
 30
0.0
 11
26.628107
 21
43.63093
 31
0.0
  0
LINE
  5
1F7
100
AcDbEntity
  8
HATCH
100
AcDbLine
 10
26.556307
 20
46.20123
 30
0.0
 11
26.497507
 21
46.17973
 31
0.0
  0
LINE
  5
1F8
100
AcDbEntity
  8
HATCH
100
AcDbLine
 10
26.130307
 20
45.98243
 30
0.0
 11
26.119507
 21
45.92093
 31
0.0
  0
LINE
  5
1F9
100
AcDbEntity
  8
HATCH
100
AcDbLine
 10
26.842207
 20
45.56643
 30
0.0
 11
26.806307
 21
45.51543
 31
0.0
  0
LINE
  5
1FA
100
AcDbEntity
  8
HATCH
100
AcDbLine
 10
28.050707
 20
42.73143
 30
0.0
 11
27.991807
 21
42.71003
 31
0.0
  0
LINE
  5
1FB
100
AcDbEntity
  8
HATCH
100
AcDbLine
 10
29.710307
 20
42.98833
 30
0.0
 11
29.674507
 21
42.93703
 31
0.0
  0
LINE
  5
1FC
100
AcDbEntity
  8
HATCH
100
AcDbLine
 10
29.460107
 20
43.79833
 30
0.0
 11
29.449407
 21
43.73683
 31
0.0
  0
LINE
  5
1FD
100
AcDbEntity
  8
HATCH
100
AcDbLine
 10
31.019207
 20
41.96633
 30
0.0
 11
31.019207
 21
41.96633
 31
0.0
  0
LINE
  5
1FE
100
AcDbEntity
  8
HATCH
100
AcDbLine
 10
30.550407
 20
41.96633
 30
0.0
 11
30.550407
 21
41.96633
 31
0.0
  0
LINE
  5
1FF
100
AcDbEntity
  8
HATCH
100
AcDbLine
 10
31.253607
 20
42.43513
 30
0.0
 11
31.253607
 21
42.43513
 31
0.0
  0
LINE
  5
200
100
AcDbEntity
  8
HATCH
100
AcDbLine
 10
30.784807
 20
42.43513
 30
0.0
 11
30.784807
 21
42.43513
 31
0.0
  0
LINE
  5
201
100
AcDbEntity
  8
HATCH
100
AcDbLine
 10
31.019207
 20
42.90383
 30
0.0
 11
31.019207
 21
42.90383
 31
0.0
  0
LINE
  5
202
100
AcDbEntity
  8
HATCH
100
AcDbLine
 10
30.550407
 20
42.90383
 30
0.0
 11
30.550407
 21
42.90383
 31
0.0
  0
LINE
  5
203
100
AcDbEntity
  8
HATCH
100
AcDbLine
 10
31.253607
 20
43.37263
 30
0.0
 11
31.253607
 21
43.37263
 31
0.0
  0
LINE
  5
204
100
AcDbEntity
  8
HATCH
100
AcDbLine
 10
30.784807
 20
43.37263
 30
0.0
 11
30.784807
 21
43.37263
 31
0.0
  0
LINE
  5
205
100
AcDbEntity
  8
HATCH
100
AcDbLine
 10
31.019207
 20
43.84133
 30
0.0
 11
31.019207
 21
43.84133
 31
0.0
  0
LINE
  5
206
100
AcDbEntity
  8
HATCH
100
AcDbLine
 10
30.550407
 20
43.84133
 30
0.0
 11
30.550407
 21
43.84133
 31
0.0
  0
LINE
  5
207
100
AcDbEntity
  8
HATCH
100
AcDbLine
 10
31.253607
 20
44.31013
 30
0.0
 11
31.253607
 21
44.31013
 31
0.0
  0
LINE
  5
208
100
AcDbEntity
  8
HATCH
100
AcDbLine
 10
30.784807
 20
44.31013
 30
0.0
 11
30.784807
 21
44.31013
 31
0.0
  0
LINE
  5
209
100
AcDbEntity
  8
HATCH
100
AcDbLine
 10
31.019207
 20
44.77883
 30
0.0
 11
31.019207
 21
44.77883
 31
0.0
  0
LINE
  5
20A
100
AcDbEntity
  8
HATCH
100
AcDbLine
 10
30.550407
 20
44.77883
 30
0.0
 11
30.550407
 21
44.77883
 31
0.0
  0
LINE
  5
20B
100
AcDbEntity
  8
HATCH
100
AcDbLine
 10
31.253607
 20
45.24763
 30
0.0
 11
31.253607
 21
45.24763
 31
0.0
  0
LINE
  5
20C
100
AcDbEntity
  8
HATCH
100
AcDbLine
 10
30.784807
 20
45.24763
 30
0.0
 11
30.784807
 21
45.24763
 31
0.0
  0
LINE
  5
20D
100
AcDbEntity
  8
HATCH
100
AcDbLine
 10
31.019207
 20
45.71633
 30
0.0
 11
31.019207
 21
45.71633
 31
0.0
  0
LINE
  5
20E
100
AcDbEntity
  8
HATCH
100
AcDbLine
 10
30.550407
 20
45.71633
 30
0.0
 11
30.550407
 21
45.71633
 31
0.0
  0
LINE
  5
20F
100
AcDbEntity
  8
HATCH
100
AcDbLine
 10
31.253607
 20
46.18513
 30
0.0
 11
31.253607
 21
46.18513
 31
0.0
  0
LINE
  5
210
100
AcDbEntity
  8
HATCH
100
AcDbLine
 10
30.784807
 20
46.18513
 30
0.0
 11
30.784807
 21
46.18513
 31
0.0
  0
LINE
  5
211
100
AcDbEntity
  8
HATCH
100
AcDbLine
 10
29.316307
 20
44.58593
 30
0.0
 11
29.389807
 21
44.61253
 31
0.0
  0
LINE
  5
212
100
AcDbEntity
  8
HATCH
100
AcDbLine
 10
31.019207
 20
46.65383
 30
0.0
 11
31.019207
 21
46.65383
 31
0.0
  0
LINE
  5
213
100
AcDbEntity
  8
HATCH
100
AcDbLine
 10
30.550407
 20
46.65383
 30
0.0
 11
30.550407
 21
46.65383
 31
0.0
  0
LINE
  5
214
100
AcDbEntity
  8
HATCH
100
AcDbLine
 10
31.253607
 20
47.12263
 30
0.0
 11
31.253607
 21
47.12263
 31
0.0
  0
LINE
  5
215
100
AcDbEntity
  8
HATCH
100
AcDbLine
 10
30.784807
 20
47.12263
 30
0.0
 11
30.784807
 21
47.12263
 31
0.0
  0
LINE
  5
216
100
AcDbEntity
  8
HATCH
100
AcDbLine
 10
31.019207
 20
47.59133
 30
0.0
 11
31.019207
 21
47.59133
 31
0.0
  0
LINE
  5
217
100
AcDbEntity
  8
HATCH
100
AcDbLine
 10
30.550407
 20
47.59133
 30
0.0
 11
30.550407
 21
47.59133
 31
0.0
  0
LINE
  5
218
100
AcDbEntity
  8
HATCH
100
AcDbLine
 10
31.253607
 20
48.06013
 30
0.0
 11
31.253607
 21
48.06013
 31
0.0
  0
LINE
  5
219
100
AcDbEntity
  8
HATCH
100
AcDbLine
 10
30.784807
 20
48.06013
 30
0.0
 11
30.784807
 21
48.06013
 31
0.0
  0
LINE
  5
21A
100
AcDbEntity
  8
HATCH
100
AcDbLine
 10
31.019207
 20
48.52883
 30
0.0
 11
31.019207
 21
48.52883
 31
0.0
  0
LINE
  5
21B
100
AcDbEntity
  8
HATCH
100
AcDbLine
 10
30.550407
 20
48.52883
 30
0.0
 11
30.550407
 21
48.52883
 31
0.0
  0
LINE
  5
21C
100
AcDbEntity
  8
HATCH
100
AcDbLine
 10
31.253607
 20
48.99763
 30
0.0
 11
31.253607
 21
48.99763
 31
0.0
  0
LINE
  5
21D
100
AcDbEntity
  8
HATCH
100
AcDbLine
 10
30.784807
 20
48.99763
 30
0.0
 11
30.784807
 21
48.99763
 31
0.0
  0
ARC
  5
21E
100
AcDbEntity
  8
DRAWING
100
AcDbCircle
 10
44.669107
 20
31.34453
 30
0.0
 40
3.0
100
AcDbArc
 50
90.0
 51
270.0
  0
LINE
  5
21F
100
AcDbEntity
  8
HATCH
100
AcDbLine
 10
31.776407
 20
26.55693
 30
0.0
 11
31.776407
 21
26.55693
 31
0.0
  0
LINE
  5
220
100
AcDbEntity
  8
HATCH
100
AcDbLine
 10
32.713907
 20
26.55693
 30
0.0
 11
32.713907
 21
26.55693
 31
0.0
  0
LINE
  5
221
100
AcDbEntity
  8
HATCH
100
AcDbLine
 10
33.651407
 20
26.55693
 30
0.0
 11
33.651407
 21
26.55693
 31
0.0
  0
LINE
  5
222
100
AcDbEntity
  8
HATCH
100
AcDbLine
 10
34.588907
 20
26.55693
 30
0.0
 11
34.588907
 21
26.55693
 31
0.0
  0
TEXT
  5
223
100
AcDbEntity
  8
DIM_TEXT
100
AcDbText
 10
35.803007
 20
20.36223
 30
0.0
 40
1.125
  1
15"
 51
15.0
  7
INFO
100
AcDbText
  0
LINE
  5
224
100
AcDbEntity
  8
HATCH
100
AcDbLine
 10
35.526407
 20
26.55693
 30
0.0
 11
35.526407
 21
26.55693
 31
0.0
  0
LINE
  5
225
100
AcDbEntity
  8
HATCH
100
AcDbLine
 10
36.463907
 20
26.55693
 30
0.0
 11
36.463907
 21
26.55693
 31
0.0
  0
LINE
  5
226
100
AcDbEntity
  8
HATCH
100
AcDbLine
 10
37.401407
 20
26.55693
 30
0.0
 11
37.401407
 21
26.55693
 31
0.0
  0
LINE
  5
227
100
AcDbEntity
  8
HATCH
100
AcDbLine
 10
38.338907
 20
26.55693
 30
0.0
 11
38.338907
 21
26.55693
 31
0.0
  0
LINE
  5
228
100
AcDbEntity
  8
HATCH
100
AcDbLine
 10
33.468007
 20
28.75293
 30
0.0
 11
33.446607
 21
28.81183
 31
0.0
  0
LINE
  5
229
100
AcDbEntity
  8
HATCH
100
AcDbLine
 10
32.612907
 20
31.10233
 30
0.0
 11
32.591607
 21
31.16113
 31
0.0
  0
LINE
  5
22A
100
AcDbEntity
  8
HATCH
100
AcDbLine
 10
34.962207
 20
31.95733
 30
0.0
 11
34.940807
 21
32.01613
 31
0.0
  0
LINE
  5
22B
100
AcDbEntity
  8
HATCH
100
AcDbLine
 10
32.893607
 20
29.62353
 30
0.0
 11
32.842507
 21
29.65943
 31
0.0
  0
LINE
  5
22C
100
AcDbEntity
  8
HATCH
100
AcDbLine
 10
34.327507
 20
31.67143
 30
0.0
 11
34.276307
 21
31.70733
 31
0.0
  0
LINE
  5
22D
100
AcDbEntity
  8
HATCH
100
AcDbLine
 10
34.309307
 20
29.92163
 30
0.0
 11
34.247807
 21
29.93243
 31
0.0
  0
LINE
  5
22E
100
AcDbEntity
  8
HATCH
100
AcDbLine
 10
31.847207
 20
30.35573
 30
0.0
 11
31.785707
 21
30.36653
 31
0.0
  0
LINE
  5
22F
100
AcDbEntity
  8
HATCH
100
AcDbLine
 10
34.743407
 20
32.38333
 30
0.0
 11
34.681807
 21
32.39403
 31
0.0
  0
LINE
  5
230
100
AcDbEntity
  8
HATCH
100
AcDbLine
 10
31.776407
 20
27.02563
 30
0.0
 11
31.776407
 21
27.02563
 31
0.0
  0
LINE
  5
231
100
AcDbEntity
  8
HATCH
100
AcDbLine
 10
31.776407
 20
27.49443
 30
0.0
 11
31.776407
 21
27.49443
 31
0.0
  0
LINE
  5
232
100
AcDbEntity
  8
HATCH
100
AcDbLine
 10
31.776407
 20
27.96313
 30
0.0
 11
31.776407
 21
27.96313
 31
0.0
  0
LINE
  5
233
100
AcDbEntity
  8
HATCH
100
AcDbLine
 10
32.245207
 20
26.79133
 30
0.0
 11
32.245207
 21
26.79133
 31
0.0
  0
LINE
  5
234
100
AcDbEntity
  8
HATCH
100
AcDbLine
 10
32.245207
 20
27.26003
 30
0.0
 11
32.245207
 21
27.26003
 31
0.0
  0
LINE
  5
235
100
AcDbEntity
  8
HATCH
100
AcDbLine
 10
32.245207
 20
27.72883
 30
0.0
 11
32.245207
 21
27.72883
 31
0.0
  0
LINE
  5
236
100
AcDbEntity
  8
HATCH
100
AcDbLine
 10
32.245207
 20
28.19753
 30
0.0
 11
32.245207
 21
28.19753
 31
0.0
  0
LINE
  5
237
100
AcDbEntity
  8
HATCH
100
AcDbLine
 10
32.713907
 20
27.02563
 30
0.0
 11
32.713907
 21
27.02563
 31
0.0
  0
LINE
  5
238
100
AcDbEntity
  8
HATCH
100
AcDbLine
 10
32.713907
 20
27.49443
 30
0.0
 11
32.713907
 21
27.49443
 31
0.0
  0
LINE
  5
239
100
AcDbEntity
  8
HATCH
100
AcDbLine
 10
32.713907
 20
27.96313
 30
0.0
 11
32.713907
 21
27.96313
 31
0.0
  0
LINE
  5
23A
100
AcDbEntity
  8
HATCH
100
AcDbLine
 10
33.182707
 20
26.79133
 30
0.0
 11
33.182707
 21
26.79133
 31
0.0
  0
LINE
  5
23B
100
AcDbEntity
  8
HATCH
100
AcDbLine
 10
33.182707
 20
27.26003
 30
0.0
 11
33.182707
 21
27.26003
 31
0.0
  0
LINE
  5
23C
100
AcDbEntity
  8
HATCH
100
AcDbLine
 10
33.182707
 20
27.72883
 30
0.0
 11
33.182707
 21
27.72883
 31
0.0
  0
LINE
  5
23D
100
AcDbEntity
  8
HATCH
100
AcDbLine
 10
33.182707
 20
28.19753
 30
0.0
 11
33.182707
 21
28.19753
 31
0.0
  0
LINE
  5
23E
100
AcDbEntity
  8
HATCH
100
AcDbLine
 10
33.651407
 20
27.02563
 30
0.0
 11
33.651407
 21
27.02563
 31
0.0
  0
LINE
  5
23F
100
AcDbEntity
  8
HATCH
100
AcDbLine
 10
33.651407
 20
27.49443
 30
0.0
 11
33.651407
 21
27.49443
 31
0.0
  0
LINE
  5
240
100
AcDbEntity
  8
HATCH
100
AcDbLine
 10
33.651407
 20
27.96313
 30
0.0
 11
33.651407
 21
27.96313
 31
0.0
  0
LINE
  5
241
100
AcDbEntity
  8
HATCH
100
AcDbLine
 10
34.120207
 20
26.79133
 30
0.0
 11
34.120207
 21
26.79133
 31
0.0
  0
LINE
  5
242
100
AcDbEntity
  8
HATCH
100
AcDbLine
 10
34.120207
 20
27.26003
 30
0.0
 11
34.120207
 21
27.26003
 31
0.0
  0
LINE
  5
243
100
AcDbEntity
  8
HATCH
100
AcDbLine
 10
34.120207
 20
27.72883
 30
0.0
 11
34.120207
 21
27.72883
 31
0.0
  0
LINE
  5
244
100
AcDbEntity
  8
HATCH
100
AcDbLine
 10
34.120207
 20
28.19753
 30
0.0
 11
34.120207
 21
28.19753
 31
0.0
  0
LINE
  5
245
100
AcDbEntity
  8
HATCH
100
AcDbLine
 10
34.588907
 20
27.02563
 30
0.0
 11
34.588907
 21
27.02563
 31
0.0
  0
LINE
  5
246
100
AcDbEntity
  8
HATCH
100
AcDbLine
 10
34.588907
 20
27.49443
 30
0.0
 11
34.588907
 21
27.49443
 31
0.0
  0
LINE
  5
247
100
AcDbEntity
  8
HATCH
100
AcDbLine
 10
34.588907
 20
27.96313
 30
0.0
 11
34.588907
 21
27.96313
 31
0.0
  0
LINE
  5
248
100
AcDbEntity
  8
HATCH
100
AcDbLine
 10
35.057707
 20
26.79133
 30
0.0
 11
35.057707
 21
26.79133
 31
0.0
  0
LINE
  5
249
100
AcDbEntity
  8
HATCH
100
AcDbLine
 10
35.057707
 20
27.26003
 30
0.0
 11
35.057707
 21
27.26003
 31
0.0
  0
LINE
  5
24A
100
AcDbEntity
  8
HATCH
100
AcDbLine
 10
35.057707
 20
27.72883
 30
0.0
 11
35.057707
 21
27.72883
 31
0.0
  0
LINE
  5
24B
100
AcDbEntity
  8
HATCH
100
AcDbLine
 10
35.057707
 20
28.19753
 30
0.0
 11
35.057707
 21
28.19753
 31
0.0
  0
LINE
  5
24C
100
AcDbEntity
  8
HATCH
100
AcDbLine
 10
35.817207
 20
29.60793
 30
0.0
 11
35.795907
 21
29.66673
 31
0.0
  0
LINE
  5
24D
100
AcDbEntity
  8
HATCH
100
AcDbLine
 10
38.166507
 20
30.46293
 30
0.0
 11
38.145107
 21
30.52173
 31
0.0
  0
LINE
  5
24E
100
AcDbEntity
  8
HATCH
100
AcDbLine
 10
37.311407
 20
32.81233
 30
0.0
 11
37.290007
 21
32.87113
 31
0.0
  0
LINE
  5
24F
100
AcDbEntity
  8
HATCH
100
AcDbLine
 10
38.423307
 20
28.80323
 30
0.0
 11
38.372107
 21
28.83913
 31
0.0
  0
LINE
  5
250
100
AcDbEntity
  8
HATCH
100
AcDbLine
 10
36.375407
 20
30.23733
 30
0.0
 11
36.324207
 21
30.27323
 31
0.0
  0
LINE
  5
251
100
AcDbEntity
  8
HATCH
100
AcDbLine
 10
37.809307
 20
32.28523
 30
0.0
 11
37.758107
 21
32.32103
 31
0.0
  0
LINE
  5
252
100
AcDbEntity
  8
HATCH
100
AcDbLine
 10
35.761407
 20
33.71923
 30
0.0
 11
35.710307
 21
33.75513
 31
0.0
  0
LINE
  5
253
100
AcDbEntity
  8
HATCH
100
AcDbLine
 10
36.771307
 20
29.48753
 30
0.0
 11
36.709807
 21
29.49833
 31
0.0
  0
LINE
  5
254
100
AcDbEntity
  8
HATCH
100
AcDbLine
 10
37.205407
 20
31.94923
 30
0.0
 11
37.143907
 21
31.96003
 31
0.0
  0
LINE
  5
255
100
AcDbEntity
  8
HATCH
100
AcDbLine
 10
35.526407
 20
27.02563
 30
0.0
 11
35.526407
 21
27.02563
 31
0.0
  0
LINE
  5
256
100
AcDbEntity
  8
HATCH
100
AcDbLine
 10
35.526407
 20
27.49443
 30
0.0
 11
35.526407
 21
27.49443
 31
0.0
  0
LINE
  5
257
100
AcDbEntity
  8
HATCH
100
AcDbLine
 10
35.526407
 20
27.96313
 30
0.0
 11
35.526407
 21
27.96313
 31
0.0
  0
LINE
  5
258
100
AcDbEntity
  8
HATCH
100
AcDbLine
 10
35.995207
 20
26.79133
 30
0.0
 11
35.995207
 21
26.79133
 31
0.0
  0
LINE
  5
259
100
AcDbEntity
  8
HATCH
100
AcDbLine
 10
35.995207
 20
27.26003
 30
0.0
 11
35.995207
 21
27.26003
 31
0.0
  0
LINE
  5
25A
100
AcDbEntity
  8
HATCH
100
AcDbLine
 10
35.995207
 20
27.72883
 30
0.0
 11
35.995207
 21
27.72883
 31
0.0
  0
LINE
  5
25B
100
AcDbEntity
  8
HATCH
100
AcDbLine
 10
35.995207
 20
28.19753
 30
0.0
 11
35.995207
 21
28.19753
 31
0.0
  0
LINE
  5
25C
100
AcDbEntity
  8
HATCH
100
AcDbLine
 10
36.463907
 20
27.02563
 30
0.0
 11
36.463907
 21
27.02563
 31
0.0
  0
LINE
  5
25D
100
AcDbEntity
  8
HATCH
100
AcDbLine
 10
36.463907
 20
27.49443
 30
0.0
 11
36.463907
 21
27.49443
 31
0.0
  0
LINE
  5
25E
100
AcDbEntity
  8
HATCH
100
AcDbLine
 10
36.463907
 20
27.96313
 30
0.0
 11
36.463907
 21
27.96313
 31
0.0
  0
LINE
  5
25F
100
AcDbEntity
  8
HATCH
100
AcDbLine
 10
36.932707
 20
26.79133
 30
0.0
 11
36.932707
 21
26.79133
 31
0.0
  0
LINE
  5
260
100
AcDbEntity
  8
HATCH
100
AcDbLine
 10
36.932707
 20
27.26003
 30
0.0
 11
36.932707
 21
27.26003
 31
0.0
  0
LINE
  5
261
100
AcDbEntity
  8
HATCH
100
AcDbLine
 10
36.932707
 20
27.72883
 30
0.0
 11
36.932707
 21
27.72883
 31
0.0
  0
LINE
  5
262
100
AcDbEntity
  8
HATCH
100
AcDbLine
 10
36.932707
 20
28.19753
 30
0.0
 11
36.932707
 21
28.19753
 31
0.0
  0
LINE
  5
263
100
AcDbEntity
  8
HATCH
100
AcDbLine
 10
37.401407
 20
27.02563
 30
0.0
 11
37.401407
 21
27.02563
 31
0.0
  0
LINE
  5
264
100
AcDbEntity
  8
HATCH
100
AcDbLine
 10
37.401407
 20
27.49443
 30
0.0
 11
37.401407
 21
27.49443
 31
0.0
  0
LINE
  5
265
100
AcDbEntity
  8
HATCH
100
AcDbLine
 10
37.401407
 20
27.96313
 30
0.0
 11
37.401407
 21
27.96313
 31
0.0
  0
LINE
  5
266
100
AcDbEntity
  8
HATCH
100
AcDbLine
 10
37.870207
 20
26.79133
 30
0.0
 11
37.870207
 21
26.79133
 31
0.0
  0
LINE
  5
267
100
AcDbEntity
  8
HATCH
100
AcDbLine
 10
37.870207
 20
27.26003
 30
0.0
 11
37.870207
 21
27.26003
 31
0.0
  0
LINE
  5
268
100
AcDbEntity
  8
HATCH
100
AcDbLine
 10
37.870207
 20
27.72883
 30
0.0
 11
37.870207
 21
27.72883
 31
0.0
  0
LINE
  5
269
100
AcDbEntity
  8
HATCH
100
AcDbLine
 10
37.870207
 20
28.19753
 30
0.0
 11
37.870207
 21
28.19753
 31
0.0
  0
LINE
  5
26A
100
AcDbEntity
  8
HATCH
100
AcDbLine
 10
38.338907
 20
27.02563
 30
0.0
 11
38.338907
 21
27.02563
 31
0.0
  0
LINE
  5
26B
100
AcDbEntity
  8
HATCH
100
AcDbLine
 10
38.338907
 20
27.49443
 30
0.0
 11
38.338907
 21
27.49443
 31
0.0
  0
LINE
  5
26C
100
AcDbEntity
  8
HATCH
100
AcDbLine
 10
38.338907
 20
27.96313
 30
0.0
 11
38.338907
 21
27.96313
 31
0.0
  0
LINE
  5
26D
100
AcDbEntity
  8
HATCH
100
AcDbLine
 10
38.807707
 20
26.79133
 30
0.0
 11
38.807707
 21
26.79133
 31
0.0
  0
LINE
  5
26E
100
AcDbEntity
  8
HATCH
100
AcDbLine
 10
38.807707
 20
27.26003
 30
0.0
 11
38.807707
 21
27.26003
 31
0.0
  0
LINE
  5
26F
100
AcDbEntity
  8
HATCH
100
AcDbLine
 10
38.807707
 20
27.72883
 30
0.0
 11
38.807707
 21
27.72883
 31
0.0
  0
LINE
  5
270
100
AcDbEntity
  8
HATCH
100
AcDbLine
 10
38.807707
 20
28.19753
 30
0.0
 11
38.807707
 21
28.19753
 31
0.0
  0
LINE
  5
271
100
AcDbEntity
  8
DRAWING
100
AcDbLine
 10
44.669107
 20
28.21953
 30
0.0
 11
44.669107
 21
26.34453
 31
0.0
  0
LINE
  5
272
100
AcDbEntity
  8
DRAWING
100
AcDbLine
 10
44.669107
 20
26.34453
 30
0.0
 11
44.669107
 21
28.21953
 31
0.0
  0
LINE
  5
273
100
AcDbEntity
  8
DRAWING
100
AcDbLine
 10
44.669107
 20
28.21953
 30
0.0
 11
44.669107
 21
26.34453
 31
0.0
  0
LINE
  5
274
100
AcDbEntity
  8
DRAWING
100
AcDbLine
 10
44.669107
 20
26.34453
 30
0.0
 11
44.669107
 21
28.21953
 31
0.0
  0
LINE
  5
275
100
AcDbEntity
  8
HATCH
100
AcDbLine
 10
39.276407
 20
26.55693
 30
0.0
 11
39.276407
 21
26.55693
 31
0.0
  0
LINE
  5
276
100
AcDbEntity
  8
HATCH
100
AcDbLine
 10
40.213907
 20
26.55693
 30
0.0
 11
40.213907
 21
26.55693
 31
0.0
  0
LINE
  5
277
100
AcDbEntity
  8
HATCH
100
AcDbLine
 10
41.151407
 20
26.55693
 30
0.0
 11
41.151407
 21
26.55693
 31
0.0
  0
LINE
  5
278
100
AcDbEntity
  8
HATCH
100
AcDbLine
 10
42.088907
 20
26.55693
 30
0.0
 11
42.088907
 21
26.55693
 31
0.0
  0
LINE
  5
279
100
AcDbEntity
  8
DIM_TEXT
100
AcDbLine
 10
44.669107
 20
25.34453
 30
0.0
 11
44.669107
 21
19.36223
 31
0.0
  0
LINE
  5
27A
100
AcDbEntity
  8
HATCH
100
AcDbLine
 10
44.804907
 20
26.55693
 30
0.0
 11
44.804907
 21
26.55693
 31
0.0
  0
LINE
  5
27B
100
AcDbEntity
  8
HATCH
100
AcDbLine
 10
45.742407
 20
26.55693
 30
0.0
 11
45.742407
 21
26.55693
 31
0.0
  0
LINE
  5
27C
100
AcDbEntity
  8
HATCH
100
AcDbLine
 10
43.026407
 20
26.55693
 30
0.0
 11
43.026407
 21
26.55693
 31
0.0
  0
LINE
  5
27D
100
AcDbEntity
  8
HATCH
100
AcDbLine
 10
43.963907
 20
26.55693
 30
0.0
 11
43.963907
 21
26.55693
 31
0.0
  0
LINE
  5
27E
100
AcDbEntity
  8
HATCH
100
AcDbLine
 10
39.660607
 20
33.66703
 30
0.0
 11
39.639207
 21
33.72583
 31
0.0
  0
LINE
  5
27F
100
AcDbEntity
  8
HATCH
100
AcDbLine
 10
39.233407
 20
29.05353
 30
0.0
 11
39.171807
 21
29.06423
 31
0.0
  0
LINE
  5
280
100
AcDbEntity
  8
HATCH
100
AcDbLine
 10
40.101507
 20
33.97713
 30
0.0
 11
40.040007
 21
33.98783
 31
0.0
  0
LINE
  5
281
100
AcDbEntity
  8
HATCH
100
AcDbLine
 10
39.276407
 20
27.02563
 30
0.0
 11
39.276407
 21
27.02563
 31
0.0
  0
LINE
  5
282
100
AcDbEntity
  8
HATCH
100
AcDbLine
 10
39.276407
 20
27.49443
 30
0.0
 11
39.276407
 21
27.49443
 31
0.0
  0
LINE
  5
283
100
AcDbEntity
  8
HATCH
100
AcDbLine
 10
39.276407
 20
27.96313
 30
0.0
 11
39.276407
 21
27.96313
 31
0.0
  0
LINE
  5
284
100
AcDbEntity
  8
HATCH
100
AcDbLine
 10
39.745207
 20
26.79133
 30
0.0
 11
39.745207
 21
26.79133
 31
0.0
  0
LINE
  5
285
100
AcDbEntity
  8
HATCH
100
AcDbLine
 10
39.745207
 20
27.26003
 30
0.0
 11
39.745207
 21
27.26003
 31
0.0
  0
LINE
  5
286
100
AcDbEntity
  8
HATCH
100
AcDbLine
 10
39.745207
 20
27.72883
 30
0.0
 11
39.745207
 21
27.72883
 31
0.0
  0
LINE
  5
287
100
AcDbEntity
  8
HATCH
100
AcDbLine
 10
39.745207
 20
28.19753
 30
0.0
 11
39.745207
 21
28.19753
 31
0.0
  0
LINE
  5
288
100
AcDbEntity
  8
HATCH
100
AcDbLine
 10
40.213907
 20
27.02563
 30
0.0
 11
40.213907
 21
27.02563
 31
0.0
  0
LINE
  5
289
100
AcDbEntity
  8
HATCH
100
AcDbLine
 10
40.213907
 20
27.49443
 30
0.0
 11
40.213907
 21
27.49443
 31
0.0
  0
LINE
  5
28A
100
AcDbEntity
  8
HATCH
100
AcDbLine
 10
40.213907
 20
27.96313
 30
0.0
 11
40.213907
 21
27.96313
 31
0.0
  0
LINE
  5
28B
100
AcDbEntity
  8
HATCH
100
AcDbLine
 10
40.682707
 20
26.79133
 30
0.0
 11
40.682707
 21
26.79133
 31
0.0
  0
LINE
  5
28C
100
AcDbEntity
  8
HATCH
100
AcDbLine
 10
40.682707
 20
27.26003
 30
0.0
 11
40.682707
 21
27.26003
 31
0.0
  0
LINE
  5
28D
100
AcDbEntity
  8
HATCH
100
AcDbLine
 10
40.682707
 20
27.72883
 30
0.0
 11
40.682707
 21
27.72883
 31
0.0
  0
LINE
  5
28E
100
AcDbEntity
  8
HATCH
100
AcDbLine
 10
40.682707
 20
28.19753
 30
0.0
 11
40.682707
 21
28.19753
 31
0.0
  0
LINE
  5
28F
100
AcDbEntity
  8
HATCH
100
AcDbLine
 10
41.151407
 20
27.02563
 30
0.0
 11
41.151407
 21
27.02563
 31
0.0
  0
LINE
  5
290
100
AcDbEntity
  8
HATCH
100
AcDbLine
 10
41.151407
 20
27.49443
 30
0.0
 11
41.151407
 21
27.49443
 31
0.0
  0
LINE
  5
291
100
AcDbEntity
  8
HATCH
100
AcDbLine
 10
41.151407
 20
27.96313
 30
0.0
 11
41.151407
 21
27.96313
 31
0.0
  0
LINE
  5
292
100
AcDbEntity
  8
HATCH
100
AcDbLine
 10
41.620207
 20
26.79133
 30
0.0
 11
41.620207
 21
26.79133
 31
0.0
  0
LINE
  5
293
100
AcDbEntity
  8
HATCH
100
AcDbLine
 10
41.620207
 20
27.26003
 30
0.0
 11
41.620207
 21
27.26003
 31
0.0
  0
LINE
  5
294
100
AcDbEntity
  8
HATCH
100
AcDbLine
 10
41.620207
 20
27.72883
 30
0.0
 11
41.620207
 21
27.72883
 31
0.0
  0
LINE
  5
295
100
AcDbEntity
  8
HATCH
100
AcDbLine
 10
41.620207
 20
28.19753
 30
0.0
 11
41.620207
 21
28.19753
 31
0.0
  0
LINE
  5
296
100
AcDbEntity
  8
HATCH
100
AcDbLine
 10
40.021007
 20
29.19733
 30
0.0
 11
40.047707
 21
29.12383
 31
0.0
  0
LINE
  5
297
100
AcDbEntity
  8
HATCH
100
AcDbLine
 10
39.505507
 20
31.33743
 30
0.0
 11
39.569507
 21
31.29253
 31
0.0
  0
LINE
  5
298
100
AcDbEntity
  8
HATCH
100
AcDbLine
 10
39.004407
 20
31.89653
 30
0.0
 11
39.065907
 21
31.88553
 31
0.0
  0
LINE
  5
299
100
AcDbEntity
  8
HATCH
100
AcDbLine
 10
41.636207
 20
31.95733
 30
0.0
 11
41.614907
 21
32.01613
 31
0.0
  0
LINE
  5
29A
100
AcDbEntity
  8
HATCH
100
AcDbLine
 10
41.417407
 20
32.38333
 30
0.0
 11
41.355907
 21
32.39403
 31
0.0
  0
LINE
  5
29B
100
AcDbEntity
  8
HATCH
100
AcDbLine
 10
41.001607
 20
31.67143
 30
0.0
 11
40.950407
 21
31.70733
 31
0.0
  0
LINE
  5
29C
100
AcDbEntity
  8
HATCH
100
AcDbLine
 10
42.088907
 20
27.02563
 30
0.0
 11
42.088907
 21
27.02563
 31
0.0
  0
LINE
  5
29D
100
AcDbEntity
  8
HATCH
100
AcDbLine
 10
42.088907
 20
27.49443
 30
0.0
 11
42.088907
 21
27.49443
 31
0.0
  0
LINE
  5
29E
100
AcDbEntity
  8
HATCH
100
AcDbLine
 10
42.088907
 20
27.96313
 30
0.0
 11
42.088907
 21
27.96313
 31
0.0
  0
LINE
  5
29F
100
AcDbEntity
  8
HATCH
100
AcDbLine
 10
42.557707
 20
26.79133
 30
0.0
 11
42.557707
 21
26.79133
 31
0.0
  0
LINE
  5
2A0
100
AcDbEntity
  8
HATCH
100
AcDbLine
 10
42.557707
 20
27.26003
 30
0.0
 11
42.557707
 21
27.26003
 31
0.0
  0
LINE
  5
2A1
100
AcDbEntity
  8
HATCH
100
AcDbLine
 10
42.557707
 20
27.72883
 30
0.0
 11
42.557707
 21
27.72883
 31
0.0
  0
LINE
  5
2A2
100
AcDbEntity
  8
HATCH
100
AcDbLine
 10
42.557707
 20
28.19753
 30
0.0
 11
42.557707
 21
28.19753
 31
0.0
  0
LINE
  5
2A3
100
AcDbEntity
  8
HATCH
100
AcDbLine
 10
44.781307
 20
29.54493
 30
0.0
 11
44.845307
 21
29.50003
 31
0.0
  0
LINE
  5
2A4
100
AcDbEntity
  8
HATCH
100
AcDbLine
 10
44.804907
 20
27.02563
 30
0.0
 11
44.804907
 21
27.02563
 31
0.0
  0
LINE
  5
2A5
100
AcDbEntity
  8
HATCH
100
AcDbLine
 10
44.804907
 20
27.49443
 30
0.0
 11
44.804907
 21
27.49443
 31
0.0
  0
LINE
  5
2A6
100
AcDbEntity
  8
HATCH
100
AcDbLine
 10
44.804907
 20
27.96313
 30
0.0
 11
44.804907
 21
27.96313
 31
0.0
  0
LINE
  5
2A7
100
AcDbEntity
  8
HATCH
100
AcDbLine
 10
45.273607
 20
26.79133
 30
0.0
 11
45.273607
 21
26.79133
 31
0.0
  0
LINE
  5
2A8
100
AcDbEntity
  8
HATCH
100
AcDbLine
 10
45.273607
 20
27.26003
 30
0.0
 11
45.273607
 21
27.26003
 31
0.0
  0
LINE
  5
2A9
100
AcDbEntity
  8
HATCH
100
AcDbLine
 10
45.273607
 20
27.72883
 30
0.0
 11
45.273607
 21
27.72883
 31
0.0
  0
LINE
  5
2AA
100
AcDbEntity
  8
HATCH
100
AcDbLine
 10
45.273607
 20
28.19753
 30
0.0
 11
45.273607
 21
28.19753
 31
0.0
  0
LINE
  5
2AB
100
AcDbEntity
  8
HATCH
100
AcDbLine
 10
45.742407
 20
27.02563
 30
0.0
 11
45.742407
 21
27.02563
 31
0.0
  0
LINE
  5
2AC
100
AcDbEntity
  8
HATCH
100
AcDbLine
 10
45.742407
 20
27.49443
 30
0.0
 11
45.742407
 21
27.49443
 31
0.0
  0
LINE
  5
2AD
100
AcDbEntity
  8
HATCH
100
AcDbLine
 10
45.742407
 20
27.96313
 30
0.0
 11
45.742407
 21
27.96313
 31
0.0
  0
LINE
  5
2AE
100
AcDbEntity
  8
HATCH
100
AcDbLine
 10
46.211107
 20
26.79133
 30
0.0
 11
46.211107
 21
26.79133
 31
0.0
  0
LINE
  5
2AF
100
AcDbEntity
  8
HATCH
100
AcDbLine
 10
46.211107
 20
27.26003
 30
0.0
 11
46.211107
 21
27.26003
 31
0.0
  0
LINE
  5
2B0
100
AcDbEntity
  8
HATCH
100
AcDbLine
 10
46.211107
 20
27.72883
 30
0.0
 11
46.211107
 21
27.72883
 31
0.0
  0
LINE
  5
2B1
100
AcDbEntity
  8
HATCH
100
AcDbLine
 10
46.211107
 20
28.19753
 30
0.0
 11
46.211107
 21
28.19753
 31
0.0
  0
LINE
  5
2B2
100
AcDbEntity
  8
HATCH
100
AcDbLine
 10
45.957007
 20
31.59503
 30
0.0
 11
46.021007
 21
31.55003
 31
0.0
  0
LINE
  5
2B3
100
AcDbEntity
  8
HATCH
100
AcDbLine
 10
43.026407
 20
27.02563
 30
0.0
 11
43.026407
 21
27.02563
 31
0.0
  0
LINE
  5
2B4
100
AcDbEntity
  8
HATCH
100
AcDbLine
 10
43.026407
 20
27.49443
 30
0.0
 11
43.026407
 21
27.49443
 31
0.0
  0
LINE
  5
2B5
100
AcDbEntity
  8
HATCH
100
AcDbLine
 10
43.026407
 20
27.96313
 30
0.0
 11
43.026407
 21
27.96313
 31
0.0
  0
LINE
  5
2B6
100
AcDbEntity
  8
HATCH
100
AcDbLine
 10
43.495207
 20
26.79133
 30
0.0
 11
43.495207
 21
26.79133
 31
0.0
  0
LINE
  5
2B7
100
AcDbEntity
  8
HATCH
100
AcDbLine
 10
43.495207
 20
27.26003
 30
0.0
 11
43.495207
 21
27.26003
 31
0.0
  0
LINE
  5
2B8
100
AcDbEntity
  8
HATCH
100
AcDbLine
 10
43.495207
 20
27.72883
 30
0.0
 11
43.495207
 21
27.72883
 31
0.0
  0
LINE
  5
2B9
100
AcDbEntity
  8
HATCH
100
AcDbLine
 10
43.495207
 20
28.19753
 30
0.0
 11
43.495207
 21
28.19753
 31
0.0
  0
LINE
  5
2BA
100
AcDbEntity
  8
HATCH
100
AcDbLine
 10
43.963907
 20
27.02563
 30
0.0
 11
43.963907
 21
27.02563
 31
0.0
  0
LINE
  5
2BB
100
AcDbEntity
  8
HATCH
100
AcDbLine
 10
43.963907
 20
27.49443
 30
0.0
 11
43.963907
 21
27.49443
 31
0.0
  0
LINE
  5
2BC
100
AcDbEntity
  8
HATCH
100
AcDbLine
 10
43.963907
 20
27.96313
 30
0.0
 11
43.963907
 21
27.96313
 31
0.0
  0
LINE
  5
2BD
100
AcDbEntity
  8
HATCH
100
AcDbLine
 10
44.432707
 20
26.79133
 30
0.0
 11
44.432707
 21
26.79133
 31
0.0
  0
LINE
  5
2BE
100
AcDbEntity
  8
HATCH
100
AcDbLine
 10
44.432707
 20
27.26003
 30
0.0
 11
44.432707
 21
27.26003
 31
0.0
  0
LINE
  5
2BF
100
AcDbEntity
  8
HATCH
100
AcDbLine
 10
44.432707
 20
27.72883
 30
0.0
 11
44.432707
 21
27.72883
 31
0.0
  0
LINE
  5
2C0
100
AcDbEntity
  8
HATCH
100
AcDbLine
 10
44.432707
 20
28.19753
 30
0.0
 11
44.432707
 21
28.19753
 31
0.0
  0
LINE
  5
2C1
100
AcDbEntity
  8
DRAWING
100
AcDbLine
 10
44.669107
 20
36.34443
 30
0.0
 11
32.169107
 21
36.34473
 31
0.0
  0
LINE
  5
2C2
100
AcDbEntity
  8
HATCH
100
AcDbLine
 10
35.057707
 20
34.76003
 30
0.0
 11
35.057707
 21
34.76003
 31
0.0
  0
LINE
  5
2C3
100
AcDbEntity
  8
HATCH
100
AcDbLine
 10
35.057707
 20
35.22883
 30
0.0
 11
35.057707
 21
35.22883
 31
0.0
  0
LINE
  5
2C4
100
AcDbEntity
  8
HATCH
100
AcDbLine
 10
35.057707
 20
35.69753
 30
0.0
 11
35.057707
 21
35.69753
 31
0.0
  0
LINE
  5
2C5
100
AcDbEntity
  8
HATCH
100
AcDbLine
 10
35.057707
 20
36.16633
 30
0.0
 11
35.057707
 21
36.16633
 31
0.0
  0
LINE
  5
2C6
100
AcDbEntity
  8
HATCH
100
AcDbLine
 10
31.956707
 20
36.34133
 30
0.0
 11
31.956707
 21
36.34133
 31
0.0
  0
LINE
  5
2C7
100
AcDbEntity
  8
HATCH
100
AcDbLine
 10
31.487907
 20
36.34133
 30
0.0
 11
31.487907
 21
36.34133
 31
0.0
  0
LINE
  5
2C8
100
AcDbEntity
  8
HATCH
100
AcDbLine
 10
31.722307
 20
36.81013
 30
0.0
 11
31.722307
 21
36.81013
 31
0.0
  0
LINE
  5
2C9
100
AcDbEntity
  8
HATCH
100
AcDbLine
 10
31.956707
 20
37.27883
 30
0.0
 11
31.956707
 21
37.27883
 31
0.0
  0
LINE
  5
2CA
100
AcDbEntity
  8
HATCH
100
AcDbLine
 10
31.487907
 20
37.27883
 30
0.0
 11
31.487907
 21
37.27883
 31
0.0
  0
LINE
  5
2CB
100
AcDbEntity
  8
HATCH
100
AcDbLine
 10
31.722307
 20
37.74763
 30
0.0
 11
31.722307
 21
37.74763
 31
0.0
  0
LINE
  5
2CC
100
AcDbEntity
  8
HATCH
100
AcDbLine
 10
31.956707
 20
38.21633
 30
0.0
 11
31.956707
 21
38.21633
 31
0.0
  0
LINE
  5
2CD
100
AcDbEntity
  8
HATCH
100
AcDbLine
 10
31.487907
 20
38.21633
 30
0.0
 11
31.487907
 21
38.21633
 31
0.0
  0
LINE
  5
2CE
100
AcDbEntity
  8
HATCH
100
AcDbLine
 10
31.722307
 20
38.68513
 30
0.0
 11
31.722307
 21
38.68513
 31
0.0
  0
LINE
  5
2CF
100
AcDbEntity
  8
HATCH
100
AcDbLine
 10
31.956707
 20
39.15383
 30
0.0
 11
31.956707
 21
39.15383
 31
0.0
  0
LINE
  5
2D0
100
AcDbEntity
  8
HATCH
100
AcDbLine
 10
31.487907
 20
39.15383
 30
0.0
 11
31.487907
 21
39.15383
 31
0.0
  0
LINE
  5
2D1
100
AcDbEntity
  8
HATCH
100
AcDbLine
 10
31.722307
 20
39.62263
 30
0.0
 11
31.722307
 21
39.62263
 31
0.0
  0
LINE
  5
2D2
100
AcDbEntity
  8
HATCH
100
AcDbLine
 10
31.956707
 20
40.09133
 30
0.0
 11
31.956707
 21
40.09133
 31
0.0
  0
LINE
  5
2D3
100
AcDbEntity
  8
HATCH
100
AcDbLine
 10
31.487907
 20
40.09133
 30
0.0
 11
31.487907
 21
40.09133
 31
0.0
  0
LINE
  5
2D4
100
AcDbEntity
  8
HATCH
100
AcDbLine
 10
31.722307
 20
40.56013
 30
0.0
 11
31.722307
 21
40.56013
 31
0.0
  0
LINE
  5
2D5
100
AcDbEntity
  8
HATCH
100
AcDbLine
 10
31.956707
 20
41.02883
 30
0.0
 11
31.956707
 21
41.02883
 31
0.0
  0
LINE
  5
2D6
100
AcDbEntity
  8
HATCH
100
AcDbLine
 10
31.487907
 20
41.02883
 30
0.0
 11
31.487907
 21
41.02883
 31
0.0
  0
LINE
  5
2D7
100
AcDbEntity
  8
HATCH
100
AcDbLine
 10
31.722307
 20
41.49763
 30
0.0
 11
31.722307
 21
41.49763
 31
0.0
  0
LINE
  5
2D8
100
AcDbEntity
  8
HATCH
100
AcDbLine
 10
34.120207
 20
34.76003
 30
0.0
 11
34.120207
 21
34.76003
 31
0.0
  0
LINE
  5
2D9
100
AcDbEntity
  8
HATCH
100
AcDbLine
 10
34.120207
 20
35.22883
 30
0.0
 11
34.120207
 21
35.22883
 31
0.0
  0
LINE
  5
2DA
100
AcDbEntity
  8
HATCH
100
AcDbLine
 10
34.120207
 20
35.69753
 30
0.0
 11
34.120207
 21
35.69753
 31
0.0
  0
LINE
  5
2DB
100
AcDbEntity
  8
HATCH
100
AcDbLine
 10
34.120207
 20
36.16633
 30
0.0
 11
34.120207
 21
36.16633
 31
0.0
  0
LINE
  5
2DC
100
AcDbEntity
  8
HATCH
100
AcDbLine
 10
34.588907
 20
34.99443
 30
0.0
 11
34.588907
 21
34.99443
 31
0.0
  0
LINE
  5
2DD
100
AcDbEntity
  8
HATCH
100
AcDbLine
 10
34.588907
 20
35.46313
 30
0.0
 11
34.588907
 21
35.46313
 31
0.0
  0
LINE
  5
2DE
100
AcDbEntity
  8
HATCH
100
AcDbLine
 10
34.588907
 20
35.93193
 30
0.0
 11
34.588907
 21
35.93193
 31
0.0
  0
LINE
  5
2DF
100
AcDbEntity
  8
HATCH
100
AcDbLine
 10
33.182707
 20
34.76003
 30
0.0
 11
33.182707
 21
34.76003
 31
0.0
  0
LINE
  5
2E0
100
AcDbEntity
  8
HATCH
100
AcDbLine
 10
33.182707
 20
35.22883
 30
0.0
 11
33.182707
 21
35.22883
 31
0.0
  0
LINE
  5
2E1
100
AcDbEntity
  8
HATCH
100
AcDbLine
 10
33.182707
 20
35.69753
 30
0.0
 11
33.182707
 21
35.69753
 31
0.0
  0
LINE
  5
2E2
100
AcDbEntity
  8
HATCH
100
AcDbLine
 10
33.182707
 20
36.16633
 30
0.0
 11
33.182707
 21
36.16633
 31
0.0
  0
LINE
  5
2E3
100
AcDbEntity
  8
HATCH
100
AcDbLine
 10
33.651407
 20
34.99443
 30
0.0
 11
33.651407
 21
34.99443
 31
0.0
  0
LINE
  5
2E4
100
AcDbEntity
  8
HATCH
100
AcDbLine
 10
33.651407
 20
35.46313
 30
0.0
 11
33.651407
 21
35.46313
 31
0.0
  0
LINE
  5
2E5
100
AcDbEntity
  8
HATCH
100
AcDbLine
 10
33.651407
 20
35.93193
 30
0.0
 11
33.651407
 21
35.93193
 31
0.0
  0
LINE
  5
2E6
100
AcDbEntity
  8
HATCH
100
AcDbLine
 10
32.245207
 20
34.76003
 30
0.0
 11
32.245207
 21
34.76003
 31
0.0
  0
LINE
  5
2E7
100
AcDbEntity
  8
HATCH
100
AcDbLine
 10
32.245207
 20
35.22883
 30
0.0
 11
32.245207
 21
35.22883
 31
0.0
  0
LINE
  5
2E8
100
AcDbEntity
  8
HATCH
100
AcDbLine
 10
32.245207
 20
35.69753
 30
0.0
 11
32.245207
 21
35.69753
 31
0.0
  0
LINE
  5
2E9
100
AcDbEntity
  8
HATCH
100
AcDbLine
 10
32.245207
 20
36.16633
 30
0.0
 11
32.245207
 21
36.16633
 31
0.0
  0
LINE
  5
2EA
100
AcDbEntity
  8
HATCH
100
AcDbLine
 10
32.713907
 20
34.99443
 30
0.0
 11
32.713907
 21
34.99443
 31
0.0
  0
LINE
  5
2EB
100
AcDbEntity
  8
HATCH
100
AcDbLine
 10
32.713907
 20
35.46313
 30
0.0
 11
32.713907
 21
35.46313
 31
0.0
  0
LINE
  5
2EC
100
AcDbEntity
  8
HATCH
100
AcDbLine
 10
32.713907
 20
35.93193
 30
0.0
 11
32.713907
 21
35.93193
 31
0.0
  0
LINE
  5
2ED
100
AcDbEntity
  8
HATCH
100
AcDbLine
 10
31.776407
 20
34.99443
 30
0.0
 11
31.776407
 21
34.99443
 31
0.0
  0
LINE
  5
2EE
100
AcDbEntity
  8
HATCH
100
AcDbLine
 10
31.776407
 20
35.46313
 30
0.0
 11
31.776407
 21
35.46313
 31
0.0
  0
LINE
  5
2EF
100
AcDbEntity
  8
HATCH
100
AcDbLine
 10
31.776407
 20
35.93193
 30
0.0
 11
31.776407
 21
35.93193
 31
0.0
  0
LINE
  5
2F0
100
AcDbEntity
  8
HATCH
100
AcDbLine
 10
37.639507
 20
34.41113
 30
0.0
 11
37.578007
 21
34.42193
 31
0.0
  0
LINE
  5
2F1
100
AcDbEntity
  8
HATCH
100
AcDbLine
 10
35.526407
 20
34.52563
 30
0.0
 11
35.526407
 21
34.52563
 31
0.0
  0
LINE
  5
2F2
100
AcDbEntity
  8
HATCH
100
AcDbLine
 10
35.526407
 20
34.99443
 30
0.0
 11
35.526407
 21
34.99443
 31
0.0
  0
LINE
  5
2F3
100
AcDbEntity
  8
HATCH
100
AcDbLine
 10
35.526407
 20
35.46313
 30
0.0
 11
35.526407
 21
35.46313
 31
0.0
  0
LINE
  5
2F4
100
AcDbEntity
  8
HATCH
100
AcDbLine
 10
35.526407
 20
35.93193
 30
0.0
 11
35.526407
 21
35.93193
 31
0.0
  0
LINE
  5
2F5
100
AcDbEntity
  8
HATCH
100
AcDbLine
 10
35.995207
 20
34.76003
 30
0.0
 11
35.995207
 21
34.76003
 31
0.0
  0
LINE
  5
2F6
100
AcDbEntity
  8
HATCH
100
AcDbLine
 10
35.995207
 20
35.22883
 30
0.0
 11
35.995207
 21
35.22883
 31
0.0
  0
LINE
  5
2F7
100
AcDbEntity
  8
HATCH
100
AcDbLine
 10
35.995207
 20
35.69753
 30
0.0
 11
35.995207
 21
35.69753
 31
0.0
  0
LINE
  5
2F8
100
AcDbEntity
  8
HATCH
100
AcDbLine
 10
35.995207
 20
36.16633
 30
0.0
 11
35.995207
 21
36.16633
 31
0.0
  0
LINE
  5
2F9
100
AcDbEntity
  8
HATCH
100
AcDbLine
 10
36.463907
 20
34.52563
 30
0.0
 11
36.463907
 21
34.52563
 31
0.0
  0
LINE
  5
2FA
100
AcDbEntity
  8
HATCH
100
AcDbLine
 10
36.463907
 20
34.99443
 30
0.0
 11
36.463907
 21
34.99443
 31
0.0
  0
LINE
  5
2FB
100
AcDbEntity
  8
HATCH
100
AcDbLine
 10
36.463907
 20
35.46313
 30
0.0
 11
36.463907
 21
35.46313
 31
0.0
  0
LINE
  5
2FC
100
AcDbEntity
  8
HATCH
100
AcDbLine
 10
36.463907
 20
35.93193
 30
0.0
 11
36.463907
 21
35.93193
 31
0.0
  0
LINE
  5
2FD
100
AcDbEntity
  8
HATCH
100
AcDbLine
 10
36.932707
 20
34.76003
 30
0.0
 11
36.932707
 21
34.76003
 31
0.0
  0
LINE
  5
2FE
100
AcDbEntity
  8
HATCH
100
AcDbLine
 10
36.932707
 20
35.22883
 30
0.0
 11
36.932707
 21
35.22883
 31
0.0
  0
LINE
  5
2FF
100
AcDbEntity
  8
HATCH
100
AcDbLine
 10
36.932707
 20
35.69753
 30
0.0
 11
36.932707
 21
35.69753
 31
0.0
  0
LINE
  5
300
100
AcDbEntity
  8
HATCH
100
AcDbLine
 10
36.932707
 20
36.16633
 30
0.0
 11
36.932707
 21
36.16633
 31
0.0
  0
LINE
  5
301
100
AcDbEntity
  8
HATCH
100
AcDbLine
 10
37.401407
 20
34.52563
 30
0.0
 11
37.401407
 21
34.52563
 31
0.0
  0
LINE
  5
302
100
AcDbEntity
  8
HATCH
100
AcDbLine
 10
37.401407
 20
34.99443
 30
0.0
 11
37.401407
 21
34.99443
 31
0.0
  0
LINE
  5
303
100
AcDbEntity
  8
HATCH
100
AcDbLine
 10
37.401407
 20
35.46313
 30
0.0
 11
37.401407
 21
35.46313
 31
0.0
  0
LINE
  5
304
100
AcDbEntity
  8
HATCH
100
AcDbLine
 10
37.401407
 20
35.93193
 30
0.0
 11
37.401407
 21
35.93193
 31
0.0
  0
LINE
  5
305
100
AcDbEntity
  8
HATCH
100
AcDbLine
 10
37.870207
 20
34.76003
 30
0.0
 11
37.870207
 21
34.76003
 31
0.0
  0
LINE
  5
306
100
AcDbEntity
  8
HATCH
100
AcDbLine
 10
37.870207
 20
35.22883
 30
0.0
 11
37.870207
 21
35.22883
 31
0.0
  0
LINE
  5
307
100
AcDbEntity
  8
HATCH
100
AcDbLine
 10
37.870207
 20
35.69753
 30
0.0
 11
37.870207
 21
35.69753
 31
0.0
  0
LINE
  5
308
100
AcDbEntity
  8
HATCH
100
AcDbLine
 10
37.870207
 20
36.16633
 30
0.0
 11
37.870207
 21
36.16633
 31
0.0
  0
LINE
  5
309
100
AcDbEntity
  8
HATCH
100
AcDbLine
 10
38.338907
 20
34.52563
 30
0.0
 11
38.338907
 21
34.52563
 31
0.0
  0
LINE
  5
30A
100
AcDbEntity
  8
HATCH
100
AcDbLine
 10
38.338907
 20
34.99443
 30
0.0
 11
38.338907
 21
34.99443
 31
0.0
  0
LINE
  5
30B
100
AcDbEntity
  8
HATCH
100
AcDbLine
 10
38.338907
 20
35.46313
 30
0.0
 11
38.338907
 21
35.46313
 31
0.0
  0
LINE
  5
30C
100
AcDbEntity
  8
HATCH
100
AcDbLine
 10
38.338907
 20
35.93193
 30
0.0
 11
38.338907
 21
35.93193
 31
0.0
  0
LINE
  5
30D
100
AcDbEntity
  8
HATCH
100
AcDbLine
 10
38.807707
 20
34.76003
 30
0.0
 11
38.807707
 21
34.76003
 31
0.0
  0
LINE
  5
30E
100
AcDbEntity
  8
HATCH
100
AcDbLine
 10
38.807707
 20
35.22883
 30
0.0
 11
38.807707
 21
35.22883
 31
0.0
  0
LINE
  5
30F
100
AcDbEntity
  8
HATCH
100
AcDbLine
 10
38.807707
 20
35.69753
 30
0.0
 11
38.807707
 21
35.69753
 31
0.0
  0
LINE
  5
310
100
AcDbEntity
  8
HATCH
100
AcDbLine
 10
38.807707
 20
36.16633
 30
0.0
 11
38.807707
 21
36.16633
 31
0.0
  0
LINE
  5
311
100
AcDbEntity
  8
HATCH
100
AcDbLine
 10
31.956707
 20
41.96633
 30
0.0
 11
31.956707
 21
41.96633
 31
0.0
  0
LINE
  5
312
100
AcDbEntity
  8
HATCH
100
AcDbLine
 10
31.487907
 20
41.96633
 30
0.0
 11
31.487907
 21
41.96633
 31
0.0
  0
LINE
  5
313
100
AcDbEntity
  8
HATCH
100
AcDbLine
 10
31.722307
 20
42.43513
 30
0.0
 11
31.722307
 21
42.43513
 31
0.0
  0
LINE
  5
314
100
AcDbEntity
  8
HATCH
100
AcDbLine
 10
31.956707
 20
42.90383
 30
0.0
 11
31.956707
 21
42.90383
 31
0.0
  0
LINE
  5
315
100
AcDbEntity
  8
HATCH
100
AcDbLine
 10
31.487907
 20
42.90383
 30
0.0
 11
31.487907
 21
42.90383
 31
0.0
  0
LINE
  5
316
100
AcDbEntity
  8
HATCH
100
AcDbLine
 10
31.722307
 20
43.37263
 30
0.0
 11
31.722307
 21
43.37263
 31
0.0
  0
LINE
  5
317
100
AcDbEntity
  8
HATCH
100
AcDbLine
 10
31.956707
 20
43.84133
 30
0.0
 11
31.956707
 21
43.84133
 31
0.0
  0
LINE
  5
318
100
AcDbEntity
  8
HATCH
100
AcDbLine
 10
31.487907
 20
43.84133
 30
0.0
 11
31.487907
 21
43.84133
 31
0.0
  0
LINE
  5
319
100
AcDbEntity
  8
HATCH
100
AcDbLine
 10
31.722307
 20
44.31013
 30
0.0
 11
31.722307
 21
44.31013
 31
0.0
  0
LINE
  5
31A
100
AcDbEntity
  8
HATCH
100
AcDbLine
 10
31.956707
 20
44.77883
 30
0.0
 11
31.956707
 21
44.77883
 31
0.0
  0
LINE
  5
31B
100
AcDbEntity
  8
HATCH
100
AcDbLine
 10
31.487907
 20
44.77883
 30
0.0
 11
31.487907
 21
44.77883
 31
0.0
  0
LINE
  5
31C
100
AcDbEntity
  8
HATCH
100
AcDbLine
 10
31.722307
 20
45.24763
 30
0.0
 11
31.722307
 21
45.24763
 31
0.0
  0
LINE
  5
31D
100
AcDbEntity
  8
HATCH
100
AcDbLine
 10
31.956707
 20
45.71633
 30
0.0
 11
31.956707
 21
45.71633
 31
0.0
  0
LINE
  5
31E
100
AcDbEntity
  8
HATCH
100
AcDbLine
 10
31.487907
 20
45.71633
 30
0.0
 11
31.487907
 21
45.71633
 31
0.0
  0
LINE
  5
31F
100
AcDbEntity
  8
HATCH
100
AcDbLine
 10
31.722307
 20
46.18513
 30
0.0
 11
31.722307
 21
46.18513
 31
0.0
  0
LINE
  5
320
100
AcDbEntity
  8
HATCH
100
AcDbLine
 10
31.956707
 20
46.65383
 30
0.0
 11
31.956707
 21
46.65383
 31
0.0
  0
LINE
  5
321
100
AcDbEntity
  8
HATCH
100
AcDbLine
 10
31.487907
 20
46.65383
 30
0.0
 11
31.487907
 21
46.65383
 31
0.0
  0
LINE
  5
322
100
AcDbEntity
  8
HATCH
100
AcDbLine
 10
31.722307
 20
47.12263
 30
0.0
 11
31.722307
 21
47.12263
 31
0.0
  0
LINE
  5
323
100
AcDbEntity
  8
HATCH
100
AcDbLine
 10
31.956707
 20
47.59133
 30
0.0
 11
31.956707
 21
47.59133
 31
0.0
  0
LINE
  5
324
100
AcDbEntity
  8
HATCH
100
AcDbLine
 10
31.487907
 20
47.59133
 30
0.0
 11
31.487907
 21
47.59133
 31
0.0
  0
LINE
  5
325
100
AcDbEntity
  8
HATCH
100
AcDbLine
 10
31.722307
 20
48.06013
 30
0.0
 11
31.722307
 21
48.06013
 31
0.0
  0
LINE
  5
326
100
AcDbEntity
  8
HATCH
100
AcDbLine
 10
31.956707
 20
48.52883
 30
0.0
 11
31.956707
 21
48.52883
 31
0.0
  0
LINE
  5
327
100
AcDbEntity
  8
HATCH
100
AcDbLine
 10
31.487907
 20
48.52883
 30
0.0
 11
31.487907
 21
48.52883
 31
0.0
  0
LINE
  5
328
100
AcDbEntity
  8
HATCH
100
AcDbLine
 10
31.722307
 20
48.99763
 30
0.0
 11
31.722307
 21
48.99763
 31
0.0
  0
LINE
  5
329
100
AcDbEntity
  8
HATCH
100
AcDbLine
 10
39.243107
 20
34.33283
 30
0.0
 11
39.191907
 21
34.36873
 31
0.0
  0
LINE
  5
32A
100
AcDbEntity
  8
HATCH
100
AcDbLine
 10
39.276407
 20
34.52563
 30
0.0
 11
39.276407
 21
34.52563
 31
0.0
  0
LINE
  5
32B
100
AcDbEntity
  8
HATCH
100
AcDbLine
 10
39.276407
 20
34.99443
 30
0.0
 11
39.276407
 21
34.99443
 31
0.0
  0
LINE
  5
32C
100
AcDbEntity
  8
HATCH
100
AcDbLine
 10
39.276407
 20
35.46313
 30
0.0
 11
39.276407
 21
35.46313
 31
0.0
  0
LINE
  5
32D
100
AcDbEntity
  8
HATCH
100
AcDbLine
 10
39.276407
 20
35.93193
 30
0.0
 11
39.276407
 21
35.93193
 31
0.0
  0
LINE
  5
32E
100
AcDbEntity
  8
HATCH
100
AcDbLine
 10
39.745207
 20
34.76003
 30
0.0
 11
39.745207
 21
34.76003
 31
0.0
  0
LINE
  5
32F
100
AcDbEntity
  8
HATCH
100
AcDbLine
 10
39.745207
 20
35.22883
 30
0.0
 11
39.745207
 21
35.22883
 31
0.0
  0
LINE
  5
330
100
AcDbEntity
  8
HATCH
100
AcDbLine
 10
39.745207
 20
35.69753
 30
0.0
 11
39.745207
 21
35.69753
 31
0.0
  0
LINE
  5
331
100
AcDbEntity
  8
HATCH
100
AcDbLine
 10
39.745207
 20
36.16633
 30
0.0
 11
39.745207
 21
36.16633
 31
0.0
  0
LINE
  5
332
100
AcDbEntity
  8
HATCH
100
AcDbLine
 10
40.213907
 20
34.52563
 30
0.0
 11
40.213907
 21
34.52563
 31
0.0
  0
LINE
  5
333
100
AcDbEntity
  8
HATCH
100
AcDbLine
 10
40.213907
 20
34.99443
 30
0.0
 11
40.213907
 21
34.99443
 31
0.0
  0
LINE
  5
334
100
AcDbEntity
  8
HATCH
100
AcDbLine
 10
40.213907
 20
35.46313
 30
0.0
 11
40.213907
 21
35.46313
 31
0.0
  0
LINE
  5
335
100
AcDbEntity
  8
HATCH
100
AcDbLine
 10
40.213907
 20
35.93193
 30
0.0
 11
40.213907
 21
35.93193
 31
0.0
  0
LINE
  5
336
100
AcDbEntity
  8
HATCH
100
AcDbLine
 10
40.682707
 20
34.76003
 30
0.0
 11
40.682707
 21
34.76003
 31
0.0
  0
LINE
  5
337
100
AcDbEntity
  8
HATCH
100
AcDbLine
 10
40.682707
 20
35.22883
 30
0.0
 11
40.682707
 21
35.22883
 31
0.0
  0
LINE
  5
338
100
AcDbEntity
  8
HATCH
100
AcDbLine
 10
40.682707
 20
35.69753
 30
0.0
 11
40.682707
 21
35.69753
 31
0.0
  0
LINE
  5
339
100
AcDbEntity
  8
HATCH
100
AcDbLine
 10
40.682707
 20
36.16633
 30
0.0
 11
40.682707
 21
36.16633
 31
0.0
  0
LINE
  5
33A
100
AcDbEntity
  8
HATCH
100
AcDbLine
 10
41.151407
 20
34.52563
 30
0.0
 11
41.151407
 21
34.52563
 31
0.0
  0
LINE
  5
33B
100
AcDbEntity
  8
HATCH
100
AcDbLine
 10
41.151407
 20
34.99443
 30
0.0
 11
41.151407
 21
34.99443
 31
0.0
  0
LINE
  5
33C
100
AcDbEntity
  8
HATCH
100
AcDbLine
 10
41.151407
 20
35.46313
 30
0.0
 11
41.151407
 21
35.46313
 31
0.0
  0
LINE
  5
33D
100
AcDbEntity
  8
HATCH
100
AcDbLine
 10
41.151407
 20
35.93193
 30
0.0
 11
41.151407
 21
35.93193
 31
0.0
  0
LINE
  5
33E
100
AcDbEntity
  8
HATCH
100
AcDbLine
 10
41.620207
 20
34.76003
 30
0.0
 11
41.620207
 21
34.76003
 31
0.0
  0
LINE
  5
33F
100
AcDbEntity
  8
HATCH
100
AcDbLine
 10
41.620207
 20
35.22883
 30
0.0
 11
41.620207
 21
35.22883
 31
0.0
  0
LINE
  5
340
100
AcDbEntity
  8
HATCH
100
AcDbLine
 10
41.620207
 20
35.69753
 30
0.0
 11
41.620207
 21
35.69753
 31
0.0
  0
LINE
  5
341
100
AcDbEntity
  8
HATCH
100
AcDbLine
 10
41.620207
 20
36.16633
 30
0.0
 11
41.620207
 21
36.16633
 31
0.0
  0
LINE
  5
342
100
AcDbEntity
  8
HATCH
100
AcDbLine
 10
42.088907
 20
34.52563
 30
0.0
 11
42.088907
 21
34.52563
 31
0.0
  0
LINE
  5
343
100
AcDbEntity
  8
HATCH
100
AcDbLine
 10
42.088907
 20
34.99443
 30
0.0
 11
42.088907
 21
34.99443
 31
0.0
  0
LINE
  5
344
100
AcDbEntity
  8
HATCH
100
AcDbLine
 10
42.088907
 20
35.46313
 30
0.0
 11
42.088907
 21
35.46313
 31
0.0
  0
LINE
  5
345
100
AcDbEntity
  8
HATCH
100
AcDbLine
 10
42.088907
 20
35.93193
 30
0.0
 11
42.088907
 21
35.93193
 31
0.0
  0
LINE
  5
346
100
AcDbEntity
  8
HATCH
100
AcDbLine
 10
42.557707
 20
34.76003
 30
0.0
 11
42.557707
 21
34.76003
 31
0.0
  0
LINE
  5
347
100
AcDbEntity
  8
HATCH
100
AcDbLine
 10
42.557707
 20
35.22883
 30
0.0
 11
42.557707
 21
35.22883
 31
0.0
  0
LINE
  5
348
100
AcDbEntity
  8
HATCH
100
AcDbLine
 10
42.557707
 20
35.69753
 30
0.0
 11
42.557707
 21
35.69753
 31
0.0
  0
LINE
  5
349
100
AcDbEntity
  8
HATCH
100
AcDbLine
 10
42.557707
 20
36.16633
 30
0.0
 11
42.557707
 21
36.16633
 31
0.0
  0
LINE
  5
34A
100
AcDbEntity
  8
DRAWING
100
AcDbLine
 10
44.669107
 20
36.34453
 30
0.0
 11
44.669107
 21
34.46953
 31
0.0
  0
LINE
  5
34B
100
AcDbEntity
  8
DRAWING
100
AcDbLine
 10
44.669107
 20
34.46953
 30
0.0
 11
44.669107
 21
36.34453
 31
0.0
  0
LINE
  5
34C
100
AcDbEntity
  8
DRAWING
100
AcDbLine
 10
44.669107
 20
36.34453
 30
0.0
 11
44.669107
 21
34.46953
 31
0.0
  0
LINE
  5
34D
100
AcDbEntity
  8
HATCH
100
AcDbLine
 10
44.804907
 20
34.52563
 30
0.0
 11
44.804907
 21
34.52563
 31
0.0
  0
LINE
  5
34E
100
AcDbEntity
  8
HATCH
100
AcDbLine
 10
44.804907
 20
34.99443
 30
0.0
 11
44.804907
 21
34.99443
 31
0.0
  0
LINE
  5
34F
100
AcDbEntity
  8
HATCH
100
AcDbLine
 10
44.804907
 20
35.46313
 30
0.0
 11
44.804907
 21
35.46313
 31
0.0
  0
LINE
  5
350
100
AcDbEntity
  8
HATCH
100
AcDbLine
 10
44.804907
 20
35.93193
 30
0.0
 11
44.804907
 21
35.93193
 31
0.0
  0
LINE
  5
351
100
AcDbEntity
  8
HATCH
100
AcDbLine
 10
45.273607
 20
34.76003
 30
0.0
 11
45.273607
 21
34.76003
 31
0.0
  0
LINE
  5
352
100
AcDbEntity
  8
HATCH
100
AcDbLine
 10
45.273607
 20
35.22883
 30
0.0
 11
45.273607
 21
35.22883
 31
0.0
  0
LINE
  5
353
100
AcDbEntity
  8
HATCH
100
AcDbLine
 10
45.273607
 20
35.69753
 30
0.0
 11
45.273607
 21
35.69753
 31
0.0
  0
LINE
  5
354
100
AcDbEntity
  8
HATCH
100
AcDbLine
 10
45.273607
 20
36.16633
 30
0.0
 11
45.273607
 21
36.16633
 31
0.0
  0
LINE
  5
355
100
AcDbEntity
  8
HATCH
100
AcDbLine
 10
45.742407
 20
34.52563
 30
0.0
 11
45.742407
 21
34.52563
 31
0.0
  0
LINE
  5
356
100
AcDbEntity
  8
HATCH
100
AcDbLine
 10
45.742407
 20
34.99443
 30
0.0
 11
45.742407
 21
34.99443
 31
0.0
  0
LINE
  5
357
100
AcDbEntity
  8
HATCH
100
AcDbLine
 10
45.742407
 20
35.46313
 30
0.0
 11
45.742407
 21
35.46313
 31
0.0
  0
LINE
  5
358
100
AcDbEntity
  8
HATCH
100
AcDbLine
 10
45.742407
 20
35.93193
 30
0.0
 11
45.742407
 21
35.93193
 31
0.0
  0
LINE
  5
359
100
AcDbEntity
  8
HATCH
100
AcDbLine
 10
46.211107
 20
34.76003
 30
0.0
 11
46.211107
 21
34.76003
 31
0.0
  0
LINE
  5
35A
100
AcDbEntity
  8
HATCH
100
AcDbLine
 10
46.211107
 20
35.22883
 30
0.0
 11
46.211107
 21
35.22883
 31
0.0
  0
LINE
  5
35B
100
AcDbEntity
  8
HATCH
100
AcDbLine
 10
46.211107
 20
35.69753
 30
0.0
 11
46.211107
 21
35.69753
 31
0.0
  0
LINE
  5
35C
100
AcDbEntity
  8
HATCH
100
AcDbLine
 10
46.211107
 20
36.16633
 30
0.0
 11
46.211107
 21
36.16633
 31
0.0
  0
LINE
  5
35D
100
AcDbEntity
  8
DRAWING
100
AcDbLine
 10
44.669107
 20
34.46953
 30
0.0
 11
44.669107
 21
36.34453
 31
0.0
  0
LINE
  5
35E
100
AcDbEntity
  8
HATCH
100
AcDbLine
 10
43.026407
 20
34.52563
 30
0.0
 11
43.026407
 21
34.52563
 31
0.0
  0
LINE
  5
35F
100
AcDbEntity
  8
HATCH
100
AcDbLine
 10
43.026407
 20
34.99443
 30
0.0
 11
43.026407
 21
34.99443
 31
0.0
  0
LINE
  5
360
100
AcDbEntity
  8
HATCH
100
AcDbLine
 10
43.026407
 20
35.46313
 30
0.0
 11
43.026407
 21
35.46313
 31
0.0
  0
LINE
  5
361
100
AcDbEntity
  8
HATCH
100
AcDbLine
 10
43.026407
 20
35.93193
 30
0.0
 11
43.026407
 21
35.93193
 31
0.0
  0
LINE
  5
362
100
AcDbEntity
  8
HATCH
100
AcDbLine
 10
43.495207
 20
34.76003
 30
0.0
 11
43.495207
 21
34.76003
 31
0.0
  0
LINE
  5
363
100
AcDbEntity
  8
HATCH
100
AcDbLine
 10
43.495207
 20
35.22883
 30
0.0
 11
43.495207
 21
35.22883
 31
0.0
  0
LINE
  5
364
100
AcDbEntity
  8
HATCH
100
AcDbLine
 10
43.495207
 20
35.69753
 30
0.0
 11
43.495207
 21
35.69753
 31
0.0
  0
LINE
  5
365
100
AcDbEntity
  8
HATCH
100
AcDbLine
 10
43.495207
 20
36.16633
 30
0.0
 11
43.495207
 21
36.16633
 31
0.0
  0
LINE
  5
366
100
AcDbEntity
  8
HATCH
100
AcDbLine
 10
43.963907
 20
34.52563
 30
0.0
 11
43.963907
 21
34.52563
 31
0.0
  0
LINE
  5
367
100
AcDbEntity
  8
HATCH
100
AcDbLine
 10
43.963907
 20
34.99443
 30
0.0
 11
43.963907
 21
34.99443
 31
0.0
  0
LINE
  5
368
100
AcDbEntity
  8
HATCH
100
AcDbLine
 10
43.963907
 20
35.46313
 30
0.0
 11
43.963907
 21
35.46313
 31
0.0
  0
LINE
  5
369
100
AcDbEntity
  8
HATCH
100
AcDbLine
 10
43.963907
 20
35.93193
 30
0.0
 11
43.963907
 21
35.93193
 31
0.0
  0
LINE
  5
36A
100
AcDbEntity
  8
HATCH
100
AcDbLine
 10
44.432707
 20
34.76003
 30
0.0
 11
44.432707
 21
34.76003
 31
0.0
  0
LINE
  5
36B
100
AcDbEntity
  8
HATCH
100
AcDbLine
 10
44.432707
 20
35.22883
 30
0.0
 11
44.432707
 21
35.22883
 31
0.0
  0
LINE
  5
36C
100
AcDbEntity
  8
HATCH
100
AcDbLine
 10
44.432707
 20
35.69753
 30
0.0
 11
44.432707
 21
35.69753
 31
0.0
  0
LINE
  5
36D
100
AcDbEntity
  8
HATCH
100
AcDbLine
 10
44.432707
 20
36.16633
 30
0.0
 11
44.432707
 21
36.16633
 31
0.0
  0
LINE
  5
36E
100
AcDbEntity
  8
DIM_TEXT
100
AcDbLine
 10
40.857407
 20
77.08423
 30
0.0
 11
28.428107
 21
67.25833
 31
0.0
  0
LINE
  5
36F
100
AcDbEntity
  8
DRAWING
100
AcDbLine
 10
30.294107
 20
51.39073
 30
0.0
 11
32.169107
 21
51.39073
 31
0.0
  0
LINE
  5
370
100
AcDbEntity
  8
DRAWING
100
AcDbLine
 10
32.169107
 20
51.39073
 30
0.0
 11
30.294107
 21
51.39073
 31
0.0
  0
LINE
  5
371
100
AcDbEntity
  8
DRAWING
100
AcDbLine
 10
30.294107
 20
66.39073
 30
0.0
 11
32.169107
 21
66.39073
 31
0.0
  0
LINE
  5
372
100
AcDbEntity
  8
DRAWING
100
AcDbLine
 10
32.169107
 20
66.39073
 30
0.0
 11
30.294107
 21
66.39073
 31
0.0
  0
LINE
  5
373
100
AcDbEntity
  8
DRAWING
100
AcDbLine
 10
30.294107
 20
51.39073
 30
0.0
 11
32.169107
 21
51.39073
 31
0.0
  0
LINE
  5
374
100
AcDbEntity
  8
DRAWING
100
AcDbLine
 10
32.169107
 20
51.39073
 30
0.0
 11
30.294107
 21
51.39073
 31
0.0
  0
LINE
  5
375
100
AcDbEntity
  8
DRAWING
100
AcDbLine
 10
30.294107
 20
66.39073
 30
0.0
 11
32.169107
 21
66.39073
 31
0.0
  0
LINE
  5
376
100
AcDbEntity
  8
DRAWING
100
AcDbLine
 10
32.169107
 20
66.39073
 30
0.0
 11
30.294107
 21
66.39073
 31
0.0
  0
LINE
  5
377
100
AcDbEntity
  8
HATCH
100
AcDbLine
 10
28.891507
 20
74.42153
 30
0.0
 11
33.321207
 21
74.42153
 31
0.0
  0
LINE
  5
378
100
AcDbEntity
  8
DRAWING
100
AcDbLine
 10
22.169107
 20
66.39073
 30
0.0
 11
22.169107
 21
51.39073
 31
0.0
  0
LINE
  5
379
100
AcDbEntity
  8
DRAWING
100
AcDbLine
 10
30.294107
 20
51.39073
 30
0.0
 11
30.294107
 21
66.39073
 31
0.0
  0
ARC
  5
37A
100
AcDbEntity
  8
DRAWING
100
AcDbCircle
 10
27.169107
 20
66.39073
 30
0.0
 40
3.0
100
AcDbArc
 50
180.0
 51
0.0
  0
LINE
  5
37B
100
AcDbEntity
  8
DRAWING
100
AcDbLine
 10
22.169107
 20
51.39073
 30
0.0
 11
24.044107
 21
51.39073
 31
0.0
  0
LINE
  5
37C
100
AcDbEntity
  8
DRAWING
100
AcDbLine
 10
24.044107
 20
51.39073
 30
0.0
 11
22.169107
 21
51.39073
 31
0.0
  0
LINE
  5
37D
100
AcDbEntity
  8
DRAWING
100
AcDbLine
 10
22.169107
 20
51.39073
 30
0.0
 11
24.044107
 21
51.39073
 31
0.0
  0
LINE
  5
37E
100
AcDbEntity
  8
HATCH
100
AcDbLine
 10
23.987907
 20
51.52653
 30
0.0
 11
23.987907
 21
51.52653
 31
0.0
  0
LINE
  5
37F
100
AcDbEntity
  8
HATCH
100
AcDbLine
 10
23.519207
 20
51.52653
 30
0.0
 11
23.519207
 21
51.52653
 31
0.0
  0
LINE
  5
380
100
AcDbEntity
  8
HATCH
100
AcDbLine
 10
23.050407
 20
51.52653
 30
0.0
 11
23.050407
 21
51.52653
 31
0.0
  0
LINE
  5
381
100
AcDbEntity
  8
HATCH
100
AcDbLine
 10
22.581707
 20
51.52653
 30
0.0
 11
22.581707
 21
51.52653
 31
0.0
  0
LINE
  5
382
100
AcDbEntity
  8
HATCH
100
AcDbLine
 10
23.753607
 20
51.99523
 30
0.0
 11
23.753607
 21
51.99523
 31
0.0
  0
LINE
  5
383
100
AcDbEntity
  8
HATCH
100
AcDbLine
 10
23.284807
 20
51.99523
 30
0.0
 11
23.284807
 21
51.99523
 31
0.0
  0
LINE
  5
384
100
AcDbEntity
  8
HATCH
100
AcDbLine
 10
22.816107
 20
51.99523
 30
0.0
 11
22.816107
 21
51.99523
 31
0.0
  0
LINE
  5
385
100
AcDbEntity
  8
HATCH
100
AcDbLine
 10
22.347307
 20
51.99523
 30
0.0
 11
22.347307
 21
51.99523
 31
0.0
  0
LINE
  5
386
100
AcDbEntity
  8
HATCH
100
AcDbLine
 10
23.987907
 20
52.46403
 30
0.0
 11
23.987907
 21
52.46403
 31
0.0
  0
LINE
  5
387
100
AcDbEntity
  8
HATCH
100
AcDbLine
 10
23.519207
 20
52.46403
 30
0.0
 11
23.519207
 21
52.46403
 31
0.0
  0
LINE
  5
388
100
AcDbEntity
  8
HATCH
100
AcDbLine
 10
23.050407
 20
52.46403
 30
0.0
 11
23.050407
 21
52.46403
 31
0.0
  0
LINE
  5
389
100
AcDbEntity
  8
HATCH
100
AcDbLine
 10
22.581707
 20
52.46403
 30
0.0
 11
22.581707
 21
52.46403
 31
0.0
  0
LINE
  5
38A
100
AcDbEntity
  8
HATCH
100
AcDbLine
 10
23.753607
 20
52.93273
 30
0.0
 11
23.753607
 21
52.93273
 31
0.0
  0
LINE
  5
38B
100
AcDbEntity
  8
HATCH
100
AcDbLine
 10
23.284807
 20
52.93273
 30
0.0
 11
23.284807
 21
52.93273
 31
0.0
  0
LINE
  5
38C
100
AcDbEntity
  8
HATCH
100
AcDbLine
 10
22.816107
 20
52.93273
 30
0.0
 11
22.816107
 21
52.93273
 31
0.0
  0
LINE
  5
38D
100
AcDbEntity
  8
HATCH
100
AcDbLine
 10
22.347307
 20
52.93273
 30
0.0
 11
22.347307
 21
52.93273
 31
0.0
  0
LINE
  5
38E
100
AcDbEntity
  8
HATCH
100
AcDbLine
 10
23.987907
 20
53.40153
 30
0.0
 11
23.987907
 21
53.40153
 31
0.0
  0
LINE
  5
38F
100
AcDbEntity
  8
HATCH
100
AcDbLine
 10
23.519207
 20
53.40153
 30
0.0
 11
23.519207
 21
53.40153
 31
0.0
  0
LINE
  5
390
100
AcDbEntity
  8
HATCH
100
AcDbLine
 10
23.050407
 20
53.40153
 30
0.0
 11
23.050407
 21
53.40153
 31
0.0
  0
LINE
  5
391
100
AcDbEntity
  8
HATCH
100
AcDbLine
 10
22.581707
 20
53.40153
 30
0.0
 11
22.581707
 21
53.40153
 31
0.0
  0
LINE
  5
392
100
AcDbEntity
  8
HATCH
100
AcDbLine
 10
23.753607
 20
53.87023
 30
0.0
 11
23.753607
 21
53.87023
 31
0.0
  0
LINE
  5
393
100
AcDbEntity
  8
HATCH
100
AcDbLine
 10
23.284807
 20
53.87023
 30
0.0
 11
23.284807
 21
53.87023
 31
0.0
  0
LINE
  5
394
100
AcDbEntity
  8
HATCH
100
AcDbLine
 10
22.816107
 20
53.87023
 30
0.0
 11
22.816107
 21
53.87023
 31
0.0
  0
LINE
  5
395
100
AcDbEntity
  8
HATCH
100
AcDbLine
 10
22.347307
 20
53.87023
 30
0.0
 11
22.347307
 21
53.87023
 31
0.0
  0
LINE
  5
396
100
AcDbEntity
  8
HATCH
100
AcDbLine
 10
23.987907
 20
54.33903
 30
0.0
 11
23.987907
 21
54.33903
 31
0.0
  0
LINE
  5
397
100
AcDbEntity
  8
HATCH
100
AcDbLine
 10
23.519207
 20
54.33903
 30
0.0
 11
23.519207
 21
54.33903
 31
0.0
  0
LINE
  5
398
100
AcDbEntity
  8
HATCH
100
AcDbLine
 10
23.050407
 20
54.33903
 30
0.0
 11
23.050407
 21
54.33903
 31
0.0
  0
LINE
  5
399
100
AcDbEntity
  8
HATCH
100
AcDbLine
 10
22.581707
 20
54.33903
 30
0.0
 11
22.581707
 21
54.33903
 31
0.0
  0
LINE
  5
39A
100
AcDbEntity
  8
HATCH
100
AcDbLine
 10
23.753607
 20
54.80773
 30
0.0
 11
23.753607
 21
54.80773
 31
0.0
  0
LINE
  5
39B
100
AcDbEntity
  8
HATCH
100
AcDbLine
 10
23.284807
 20
54.80773
 30
0.0
 11
23.284807
 21
54.80773
 31
0.0
  0
LINE
  5
39C
100
AcDbEntity
  8
HATCH
100
AcDbLine
 10
22.816107
 20
54.80773
 30
0.0
 11
22.816107
 21
54.80773
 31
0.0
  0
LINE
  5
39D
100
AcDbEntity
  8
HATCH
100
AcDbLine
 10
22.347307
 20
54.80773
 30
0.0
 11
22.347307
 21
54.80773
 31
0.0
  0
LINE
  5
39E
100
AcDbEntity
  8
HATCH
100
AcDbLine
 10
23.987907
 20
55.27653
 30
0.0
 11
23.987907
 21
55.27653
 31
0.0
  0
LINE
  5
39F
100
AcDbEntity
  8
HATCH
100
AcDbLine
 10
23.519207
 20
55.27653
 30
0.0
 11
23.519207
 21
55.27653
 31
0.0
  0
LINE
  5
3A0
100
AcDbEntity
  8
HATCH
100
AcDbLine
 10
23.050407
 20
55.27653
 30
0.0
 11
23.050407
 21
55.27653
 31
0.0
  0
LINE
  5
3A1
100
AcDbEntity
  8
HATCH
100
AcDbLine
 10
22.581707
 20
55.27653
 30
0.0
 11
22.581707
 21
55.27653
 31
0.0
  0
LINE
  5
3A2
100
AcDbEntity
  8
HATCH
100
AcDbLine
 10
23.753607
 20
55.74523
 30
0.0
 11
23.753607
 21
55.74523
 31
0.0
  0
LINE
  5
3A3
100
AcDbEntity
  8
HATCH
100
AcDbLine
 10
23.284807
 20
55.74523
 30
0.0
 11
23.284807
 21
55.74523
 31
0.0
  0
LINE
  5
3A4
100
AcDbEntity
  8
HATCH
100
AcDbLine
 10
22.816107
 20
55.74523
 30
0.0
 11
22.816107
 21
55.74523
 31
0.0
  0
LINE
  5
3A5
100
AcDbEntity
  8
HATCH
100
AcDbLine
 10
22.347307
 20
55.74523
 30
0.0
 11
22.347307
 21
55.74523
 31
0.0
  0
LINE
  5
3A6
100
AcDbEntity
  8
HATCH
100
AcDbLine
 10
23.987907
 20
56.21403
 30
0.0
 11
23.987907
 21
56.21403
 31
0.0
  0
LINE
  5
3A7
100
AcDbEntity
  8
HATCH
100
AcDbLine
 10
23.519207
 20
56.21403
 30
0.0
 11
23.519207
 21
56.21403
 31
0.0
  0
LINE
  5
3A8
100
AcDbEntity
  8
HATCH
100
AcDbLine
 10
23.050407
 20
56.21403
 30
0.0
 11
23.050407
 21
56.21403
 31
0.0
  0
LINE
  5
3A9
100
AcDbEntity
  8
HATCH
100
AcDbLine
 10
22.581707
 20
56.21403
 30
0.0
 11
22.581707
 21
56.21403
 31
0.0
  0
LINE
  5
3AA
100
AcDbEntity
  8
DRAWING
100
AcDbLine
 10
24.044107
 20
51.39073
 30
0.0
 11
22.169107
 21
51.39073
 31
0.0
  0
LINE
  5
3AB
100
AcDbEntity
  8
HATCH
100
AcDbLine
 10
23.987907
 20
49.46633
 30
0.0
 11
23.987907
 21
49.46633
 31
0.0
  0
LINE
  5
3AC
100
AcDbEntity
  8
HATCH
100
AcDbLine
 10
23.519207
 20
49.46633
 30
0.0
 11
23.519207
 21
49.46633
 31
0.0
  0
LINE
  5
3AD
100
AcDbEntity
  8
HATCH
100
AcDbLine
 10
23.050407
 20
49.46633
 30
0.0
 11
23.050407
 21
49.46633
 31
0.0
  0
LINE
  5
3AE
100
AcDbEntity
  8
HATCH
100
AcDbLine
 10
22.581707
 20
49.46633
 30
0.0
 11
22.581707
 21
49.46633
 31
0.0
  0
LINE
  5
3AF
100
AcDbEntity
  8
HATCH
100
AcDbLine
 10
23.753607
 20
49.93513
 30
0.0
 11
23.753607
 21
49.93513
 31
0.0
  0
LINE
  5
3B0
100
AcDbEntity
  8
HATCH
100
AcDbLine
 10
23.284807
 20
49.93513
 30
0.0
 11
23.284807
 21
49.93513
 31
0.0
  0
LINE
  5
3B1
100
AcDbEntity
  8
HATCH
100
AcDbLine
 10
22.816107
 20
49.93513
 30
0.0
 11
22.816107
 21
49.93513
 31
0.0
  0
LINE
  5
3B2
100
AcDbEntity
  8
HATCH
100
AcDbLine
 10
22.347307
 20
49.93513
 30
0.0
 11
22.347307
 21
49.93513
 31
0.0
  0
LINE
  5
3B3
100
AcDbEntity
  8
HATCH
100
AcDbLine
 10
23.987907
 20
50.40383
 30
0.0
 11
23.987907
 21
50.40383
 31
0.0
  0
LINE
  5
3B4
100
AcDbEntity
  8
HATCH
100
AcDbLine
 10
23.519207
 20
50.40383
 30
0.0
 11
23.519207
 21
50.40383
 31
0.0
  0
LINE
  5
3B5
100
AcDbEntity
  8
HATCH
100
AcDbLine
 10
23.050407
 20
50.40383
 30
0.0
 11
23.050407
 21
50.40383
 31
0.0
  0
LINE
  5
3B6
100
AcDbEntity
  8
HATCH
100
AcDbLine
 10
22.581707
 20
50.40383
 30
0.0
 11
22.581707
 21
50.40383
 31
0.0
  0
LINE
  5
3B7
100
AcDbEntity
  8
HATCH
100
AcDbLine
 10
23.753607
 20
50.87263
 30
0.0
 11
23.753607
 21
50.87263
 31
0.0
  0
LINE
  5
3B8
100
AcDbEntity
  8
HATCH
100
AcDbLine
 10
23.284807
 20
50.87263
 30
0.0
 11
23.284807
 21
50.87263
 31
0.0
  0
LINE
  5
3B9
100
AcDbEntity
  8
HATCH
100
AcDbLine
 10
22.816107
 20
50.87263
 30
0.0
 11
22.816107
 21
50.87263
 31
0.0
  0
LINE
  5
3BA
100
AcDbEntity
  8
HATCH
100
AcDbLine
 10
22.347307
 20
50.87263
 30
0.0
 11
22.347307
 21
50.87263
 31
0.0
  0
LINE
  5
3BB
100
AcDbEntity
  8
HATCH
100
AcDbLine
 10
23.753607
 20
56.68273
 30
0.0
 11
23.753607
 21
56.68273
 31
0.0
  0
LINE
  5
3BC
100
AcDbEntity
  8
HATCH
100
AcDbLine
 10
23.284807
 20
56.68273
 30
0.0
 11
23.284807
 21
56.68273
 31
0.0
  0
LINE
  5
3BD
100
AcDbEntity
  8
HATCH
100
AcDbLine
 10
22.816107
 20
56.68273
 30
0.0
 11
22.816107
 21
56.68273
 31
0.0
  0
LINE
  5
3BE
100
AcDbEntity
  8
HATCH
100
AcDbLine
 10
22.347307
 20
56.68273
 30
0.0
 11
22.347307
 21
56.68273
 31
0.0
  0
LINE
  5
3BF
100
AcDbEntity
  8
HATCH
100
AcDbLine
 10
23.987907
 20
57.15153
 30
0.0
 11
23.987907
 21
57.15153
 31
0.0
  0
LINE
  5
3C0
100
AcDbEntity
  8
HATCH
100
AcDbLine
 10
23.519207
 20
57.15153
 30
0.0
 11
23.519207
 21
57.15153
 31
0.0
  0
LINE
  5
3C1
100
AcDbEntity
  8
HATCH
100
AcDbLine
 10
23.050407
 20
57.15153
 30
0.0
 11
23.050407
 21
57.15153
 31
0.0
  0
LINE
  5
3C2
100
AcDbEntity
  8
HATCH
100
AcDbLine
 10
22.581707
 20
57.15153
 30
0.0
 11
22.581707
 21
57.15153
 31
0.0
  0
LINE
  5
3C3
100
AcDbEntity
  8
HATCH
100
AcDbLine
 10
23.753607
 20
57.62023
 30
0.0
 11
23.753607
 21
57.62023
 31
0.0
  0
LINE
  5
3C4
100
AcDbEntity
  8
HATCH
100
AcDbLine
 10
23.284807
 20
57.62023
 30
0.0
 11
23.284807
 21
57.62023
 31
0.0
  0
LINE
  5
3C5
100
AcDbEntity
  8
HATCH
100
AcDbLine
 10
22.816107
 20
57.62023
 30
0.0
 11
22.816107
 21
57.62023
 31
0.0
  0
LINE
  5
3C6
100
AcDbEntity
  8
HATCH
100
AcDbLine
 10
22.347307
 20
57.62023
 30
0.0
 11
22.347307
 21
57.62023
 31
0.0
  0
LINE
  5
3C7
100
AcDbEntity
  8
HATCH
100
AcDbLine
 10
23.987907
 20
58.08903
 30
0.0
 11
23.987907
 21
58.08903
 31
0.0
  0
LINE
  5
3C8
100
AcDbEntity
  8
HATCH
100
AcDbLine
 10
23.519207
 20
58.08903
 30
0.0
 11
23.519207
 21
58.08903
 31
0.0
  0
LINE
  5
3C9
100
AcDbEntity
  8
HATCH
100
AcDbLine
 10
23.050407
 20
58.08903
 30
0.0
 11
23.050407
 21
58.08903
 31
0.0
  0
LINE
  5
3CA
100
AcDbEntity
  8
HATCH
100
AcDbLine
 10
22.581707
 20
58.08903
 30
0.0
 11
22.581707
 21
58.08903
 31
0.0
  0
LINE
  5
3CB
100
AcDbEntity
  8
HATCH
100
AcDbLine
 10
23.753607
 20
58.55773
 30
0.0
 11
23.753607
 21
58.55773
 31
0.0
  0
LINE
  5
3CC
100
AcDbEntity
  8
HATCH
100
AcDbLine
 10
23.284807
 20
58.55773
 30
0.0
 11
23.284807
 21
58.55773
 31
0.0
  0
LINE
  5
3CD
100
AcDbEntity
  8
HATCH
100
AcDbLine
 10
22.816107
 20
58.55773
 30
0.0
 11
22.816107
 21
58.55773
 31
0.0
  0
LINE
  5
3CE
100
AcDbEntity
  8
HATCH
100
AcDbLine
 10
22.347307
 20
58.55773
 30
0.0
 11
22.347307
 21
58.55773
 31
0.0
  0
LINE
  5
3CF
100
AcDbEntity
  8
HATCH
100
AcDbLine
 10
23.987907
 20
59.02653
 30
0.0
 11
23.987907
 21
59.02653
 31
0.0
  0
LINE
  5
3D0
100
AcDbEntity
  8
HATCH
100
AcDbLine
 10
23.519207
 20
59.02653
 30
0.0
 11
23.519207
 21
59.02653
 31
0.0
  0
LINE
  5
3D1
100
AcDbEntity
  8
HATCH
100
AcDbLine
 10
23.050407
 20
59.02653
 30
0.0
 11
23.050407
 21
59.02653
 31
0.0
  0
LINE
  5
3D2
100
AcDbEntity
  8
HATCH
100
AcDbLine
 10
22.581707
 20
59.02653
 30
0.0
 11
22.581707
 21
59.02653
 31
0.0
  0
LINE
  5
3D3
100
AcDbEntity
  8
HATCH
100
AcDbLine
 10
23.753607
 20
59.49523
 30
0.0
 11
23.753607
 21
59.49523
 31
0.0
  0
LINE
  5
3D4
100
AcDbEntity
  8
HATCH
100
AcDbLine
 10
23.284807
 20
59.49523
 30
0.0
 11
23.284807
 21
59.49523
 31
0.0
  0
LINE
  5
3D5
100
AcDbEntity
  8
HATCH
100
AcDbLine
 10
22.816107
 20
59.49523
 30
0.0
 11
22.816107
 21
59.49523
 31
0.0
  0
LINE
  5
3D6
100
AcDbEntity
  8
HATCH
100
AcDbLine
 10
22.347307
 20
59.49523
 30
0.0
 11
22.347307
 21
59.49523
 31
0.0
  0
LINE
  5
3D7
100
AcDbEntity
  8
HATCH
100
AcDbLine
 10
23.987907
 20
59.96403
 30
0.0
 11
23.987907
 21
59.96403
 31
0.0
  0
LINE
  5
3D8
100
AcDbEntity
  8
HATCH
100
AcDbLine
 10
23.519207
 20
59.96403
 30
0.0
 11
23.519207
 21
59.96403
 31
0.0
  0
LINE
  5
3D9
100
AcDbEntity
  8
HATCH
100
AcDbLine
 10
23.050407
 20
59.96403
 30
0.0
 11
23.050407
 21
59.96403
 31
0.0
  0
LINE
  5
3DA
100
AcDbEntity
  8
HATCH
100
AcDbLine
 10
22.581707
 20
59.96403
 30
0.0
 11
22.581707
 21
59.96403
 31
0.0
  0
LINE
  5
3DB
100
AcDbEntity
  8
HATCH
100
AcDbLine
 10
23.753607
 20
60.43273
 30
0.0
 11
23.753607
 21
60.43273
 31
0.0
  0
LINE
  5
3DC
100
AcDbEntity
  8
HATCH
100
AcDbLine
 10
23.284807
 20
60.43273
 30
0.0
 11
23.284807
 21
60.43273
 31
0.0
  0
LINE
  5
3DD
100
AcDbEntity
  8
HATCH
100
AcDbLine
 10
22.816107
 20
60.43273
 30
0.0
 11
22.816107
 21
60.43273
 31
0.0
  0
LINE
  5
3DE
100
AcDbEntity
  8
HATCH
100
AcDbLine
 10
22.347307
 20
60.43273
 30
0.0
 11
22.347307
 21
60.43273
 31
0.0
  0
LINE
  5
3DF
100
AcDbEntity
  8
HATCH
100
AcDbLine
 10
23.987907
 20
60.90153
 30
0.0
 11
23.987907
 21
60.90153
 31
0.0
  0
LINE
  5
3E0
100
AcDbEntity
  8
HATCH
100
AcDbLine
 10
23.519207
 20
60.90153
 30
0.0
 11
23.519207
 21
60.90153
 31
0.0
  0
LINE
  5
3E1
100
AcDbEntity
  8
HATCH
100
AcDbLine
 10
23.050407
 20
60.90153
 30
0.0
 11
23.050407
 21
60.90153
 31
0.0
  0
LINE
  5
3E2
100
AcDbEntity
  8
HATCH
100
AcDbLine
 10
22.581707
 20
60.90153
 30
0.0
 11
22.581707
 21
60.90153
 31
0.0
  0
LINE
  5
3E3
100
AcDbEntity
  8
HATCH
100
AcDbLine
 10
23.753607
 20
61.37023
 30
0.0
 11
23.753607
 21
61.37023
 31
0.0
  0
LINE
  5
3E4
100
AcDbEntity
  8
HATCH
100
AcDbLine
 10
23.284807
 20
61.37023
 30
0.0
 11
23.284807
 21
61.37023
 31
0.0
  0
LINE
  5
3E5
100
AcDbEntity
  8
HATCH
100
AcDbLine
 10
22.816107
 20
61.37023
 30
0.0
 11
22.816107
 21
61.37023
 31
0.0
  0
LINE
  5
3E6
100
AcDbEntity
  8
HATCH
100
AcDbLine
 10
22.347307
 20
61.37023
 30
0.0
 11
22.347307
 21
61.37023
 31
0.0
  0
LINE
  5
3E7
100
AcDbEntity
  8
HATCH
100
AcDbLine
 10
23.987907
 20
61.83903
 30
0.0
 11
23.987907
 21
61.83903
 31
0.0
  0
LINE
  5
3E8
100
AcDbEntity
  8
HATCH
100
AcDbLine
 10
23.519207
 20
61.83903
 30
0.0
 11
23.519207
 21
61.83903
 31
0.0
  0
LINE
  5
3E9
100
AcDbEntity
  8
HATCH
100
AcDbLine
 10
23.050407
 20
61.83903
 30
0.0
 11
23.050407
 21
61.83903
 31
0.0
  0
LINE
  5
3EA
100
AcDbEntity
  8
HATCH
100
AcDbLine
 10
22.581707
 20
61.83903
 30
0.0
 11
22.581707
 21
61.83903
 31
0.0
  0
LINE
  5
3EB
100
AcDbEntity
  8
HATCH
100
AcDbLine
 10
23.753607
 20
62.30773
 30
0.0
 11
23.753607
 21
62.30773
 31
0.0
  0
LINE
  5
3EC
100
AcDbEntity
  8
HATCH
100
AcDbLine
 10
23.284807
 20
62.30773
 30
0.0
 11
23.284807
 21
62.30773
 31
0.0
  0
LINE
  5
3ED
100
AcDbEntity
  8
HATCH
100
AcDbLine
 10
22.816107
 20
62.30773
 30
0.0
 11
22.816107
 21
62.30773
 31
0.0
  0
LINE
  5
3EE
100
AcDbEntity
  8
HATCH
100
AcDbLine
 10
22.347307
 20
62.30773
 30
0.0
 11
22.347307
 21
62.30773
 31
0.0
  0
LINE
  5
3EF
100
AcDbEntity
  8
HATCH
100
AcDbLine
 10
23.987907
 20
62.77653
 30
0.0
 11
23.987907
 21
62.77653
 31
0.0
  0
LINE
  5
3F0
100
AcDbEntity
  8
HATCH
100
AcDbLine
 10
23.519207
 20
62.77653
 30
0.0
 11
23.519207
 21
62.77653
 31
0.0
  0
LINE
  5
3F1
100
AcDbEntity
  8
HATCH
100
AcDbLine
 10
23.050407
 20
62.77653
 30
0.0
 11
23.050407
 21
62.77653
 31
0.0
  0
LINE
  5
3F2
100
AcDbEntity
  8
HATCH
100
AcDbLine
 10
22.581707
 20
62.77653
 30
0.0
 11
22.581707
 21
62.77653
 31
0.0
  0
LINE
  5
3F3
100
AcDbEntity
  8
HATCH
100
AcDbLine
 10
23.753607
 20
63.24523
 30
0.0
 11
23.753607
 21
63.24523
 31
0.0
  0
LINE
  5
3F4
100
AcDbEntity
  8
HATCH
100
AcDbLine
 10
23.284807
 20
63.24523
 30
0.0
 11
23.284807
 21
63.24523
 31
0.0
  0
LINE
  5
3F5
100
AcDbEntity
  8
HATCH
100
AcDbLine
 10
22.816107
 20
63.24523
 30
0.0
 11
22.816107
 21
63.24523
 31
0.0
  0
LINE
  5
3F6
100
AcDbEntity
  8
HATCH
100
AcDbLine
 10
22.347307
 20
63.24523
 30
0.0
 11
22.347307
 21
63.24523
 31
0.0
  0
LINE
  5
3F7
100
AcDbEntity
  8
HATCH
100
AcDbLine
 10
23.987907
 20
63.71403
 30
0.0
 11
23.987907
 21
63.71403
 31
0.0
  0
LINE
  5
3F8
100
AcDbEntity
  8
HATCH
100
AcDbLine
 10
23.519207
 20
63.71403
 30
0.0
 11
23.519207
 21
63.71403
 31
0.0
  0
LINE
  5
3F9
100
AcDbEntity
  8
HATCH
100
AcDbLine
 10
23.050407
 20
63.71403
 30
0.0
 11
23.050407
 21
63.71403
 31
0.0
  0
LINE
  5
3FA
100
AcDbEntity
  8
HATCH
100
AcDbLine
 10
22.581707
 20
63.71403
 30
0.0
 11
22.581707
 21
63.71403
 31
0.0
  0
ARC
  5
3FB
100
AcDbEntity
  8
DRAWING
100
AcDbCircle
 10
27.169107
 20
51.39073
 30
0.0
 40
3.0
100
AcDbArc
 50
0.0
 51
180.0
  0
LINE
  5
3FC
100
AcDbEntity
  8
HATCH
100
AcDbLine
 10
25.061907
 20
56.19543
 30
0.0
 11
25.003107
 21
56.17423
 31
0.0
  0
LINE
  5
3FD
100
AcDbEntity
  8
HATCH
100
AcDbLine
 10
27.456007
 20
55.28333
 30
0.0
 11
27.420107
 21
55.23213
 31
0.0
  0
LINE
  5
3FE
100
AcDbEntity
  8
HATCH
100
AcDbLine
 10
25.262107
 20
54.25703
 30
0.0
 11
25.251407
 21
54.19543
 31
0.0
  0
LINE
  5
3FF
100
AcDbEntity
  8
HATCH
100
AcDbLine
 10
26.649807
 20
53.51143
 30
0.0
 11
26.723307
 21
53.53803
 31
0.0
  0
LINE
  5
400
100
AcDbEntity
  8
HATCH
100
AcDbLine
 10
26.918607
 20
52.67863
 30
0.0
 11
26.963507
 21
52.74263
 31
0.0
  0
LINE
  5
401
100
AcDbEntity
  8
HATCH
100
AcDbLine
 10
28.968607
 20
51.50313
 30
0.0
 11
29.013607
 21
51.56703
 31
0.0
  0
LINE
  5
402
100
AcDbEntity
  8
HATCH
100
AcDbLine
 10
28.266307
 20
54.70133
 30
0.0
 11
28.207407
 21
54.67983
 31
0.0
  0
LINE
  5
403
100
AcDbEntity
  8
HATCH
100
AcDbLine
 10
29.504007
 20
53.84953
 30
0.0
 11
29.468207
 21
53.79823
 31
0.0
  0
LINE
  5
404
100
AcDbEntity
  8
HATCH
100
AcDbLine
 10
30.185707
 20
53.38883
 30
0.0
 11
30.174907
 21
53.32733
 31
0.0
  0
LINE
  5
405
100
AcDbEntity
  8
HATCH
100
AcDbLine
 10
28.157907
 20
56.28483
 30
0.0
 11
28.147107
 21
56.22333
 31
0.0
  0
LINE
  5
406
100
AcDbEntity
  8
HATCH
100
AcDbLine
 10
31.019207
 20
51.52653
 30
0.0
 11
31.019207
 21
51.52653
 31
0.0
  0
LINE
  5
407
100
AcDbEntity
  8
HATCH
100
AcDbLine
 10
30.550407
 20
51.52653
 30
0.0
 11
30.550407
 21
51.52653
 31
0.0
  0
LINE
  5
408
100
AcDbEntity
  8
HATCH
100
AcDbLine
 10
31.253607
 20
51.99523
 30
0.0
 11
31.253607
 21
51.99523
 31
0.0
  0
LINE
  5
409
100
AcDbEntity
  8
HATCH
100
AcDbLine
 10
30.784807
 20
51.99523
 30
0.0
 11
30.784807
 21
51.99523
 31
0.0
  0
LINE
  5
40A
100
AcDbEntity
  8
HATCH
100
AcDbLine
 10
30.316107
 20
51.99523
 30
0.0
 11
30.316107
 21
51.99523
 31
0.0
  0
LINE
  5
40B
100
AcDbEntity
  8
HATCH
100
AcDbLine
 10
31.019207
 20
52.46403
 30
0.0
 11
31.019207
 21
52.46403
 31
0.0
  0
LINE
  5
40C
100
AcDbEntity
  8
HATCH
100
AcDbLine
 10
30.550407
 20
52.46403
 30
0.0
 11
30.550407
 21
52.46403
 31
0.0
  0
LINE
  5
40D
100
AcDbEntity
  8
HATCH
100
AcDbLine
 10
31.253607
 20
52.93273
 30
0.0
 11
31.253607
 21
52.93273
 31
0.0
  0
LINE
  5
40E
100
AcDbEntity
  8
HATCH
100
AcDbLine
 10
30.784807
 20
52.93273
 30
0.0
 11
30.784807
 21
52.93273
 31
0.0
  0
LINE
  5
40F
100
AcDbEntity
  8
HATCH
100
AcDbLine
 10
30.316107
 20
52.93273
 30
0.0
 11
30.316107
 21
52.93273
 31
0.0
  0
LINE
  5
410
100
AcDbEntity
  8
HATCH
100
AcDbLine
 10
31.019207
 20
53.40153
 30
0.0
 11
31.019207
 21
53.40153
 31
0.0
  0
LINE
  5
411
100
AcDbEntity
  8
HATCH
100
AcDbLine
 10
30.550407
 20
53.40153
 30
0.0
 11
30.550407
 21
53.40153
 31
0.0
  0
LINE
  5
412
100
AcDbEntity
  8
HATCH
100
AcDbLine
 10
31.253607
 20
53.87023
 30
0.0
 11
31.253607
 21
53.87023
 31
0.0
  0
LINE
  5
413
100
AcDbEntity
  8
HATCH
100
AcDbLine
 10
30.784807
 20
53.87023
 30
0.0
 11
30.784807
 21
53.87023
 31
0.0
  0
LINE
  5
414
100
AcDbEntity
  8
HATCH
100
AcDbLine
 10
30.316107
 20
53.87023
 30
0.0
 11
30.316107
 21
53.87023
 31
0.0
  0
LINE
  5
415
100
AcDbEntity
  8
HATCH
100
AcDbLine
 10
31.019207
 20
54.33903
 30
0.0
 11
31.019207
 21
54.33903
 31
0.0
  0
LINE
  5
416
100
AcDbEntity
  8
HATCH
100
AcDbLine
 10
30.550407
 20
54.33903
 30
0.0
 11
30.550407
 21
54.33903
 31
0.0
  0
LINE
  5
417
100
AcDbEntity
  8
HATCH
100
AcDbLine
 10
31.253607
 20
54.80773
 30
0.0
 11
31.253607
 21
54.80773
 31
0.0
  0
LINE
  5
418
100
AcDbEntity
  8
HATCH
100
AcDbLine
 10
30.784807
 20
54.80773
 30
0.0
 11
30.784807
 21
54.80773
 31
0.0
  0
LINE
  5
419
100
AcDbEntity
  8
HATCH
100
AcDbLine
 10
30.316107
 20
54.80773
 30
0.0
 11
30.316107
 21
54.80773
 31
0.0
  0
LINE
  5
41A
100
AcDbEntity
  8
HATCH
100
AcDbLine
 10
31.019207
 20
55.27653
 30
0.0
 11
31.019207
 21
55.27653
 31
0.0
  0
LINE
  5
41B
100
AcDbEntity
  8
HATCH
100
AcDbLine
 10
30.550407
 20
55.27653
 30
0.0
 11
30.550407
 21
55.27653
 31
0.0
  0
LINE
  5
41C
100
AcDbEntity
  8
HATCH
100
AcDbLine
 10
31.253607
 20
55.74523
 30
0.0
 11
31.253607
 21
55.74523
 31
0.0
  0
LINE
  5
41D
100
AcDbEntity
  8
HATCH
100
AcDbLine
 10
30.784807
 20
55.74523
 30
0.0
 11
30.784807
 21
55.74523
 31
0.0
  0
LINE
  5
41E
100
AcDbEntity
  8
HATCH
100
AcDbLine
 10
30.316107
 20
55.74523
 30
0.0
 11
30.316107
 21
55.74523
 31
0.0
  0
LINE
  5
41F
100
AcDbEntity
  8
HATCH
100
AcDbLine
 10
31.019207
 20
56.21403
 30
0.0
 11
31.019207
 21
56.21403
 31
0.0
  0
LINE
  5
420
100
AcDbEntity
  8
HATCH
100
AcDbLine
 10
30.550407
 20
56.21403
 30
0.0
 11
30.550407
 21
56.21403
 31
0.0
  0
LINE
  5
421
100
AcDbEntity
  8
HATCH
100
AcDbLine
 10
28.063907
 20
53.65153
 30
0.0
 11
28.077507
 21
53.72843
 31
0.0
  0
LINE
  5
422
100
AcDbEntity
  8
HATCH
100
AcDbLine
 10
31.019207
 20
49.46633
 30
0.0
 11
31.019207
 21
49.46633
 31
0.0
  0
LINE
  5
423
100
AcDbEntity
  8
HATCH
100
AcDbLine
 10
30.550407
 20
49.46633
 30
0.0
 11
30.550407
 21
49.46633
 31
0.0
  0
LINE
  5
424
100
AcDbEntity
  8
HATCH
100
AcDbLine
 10
31.253607
 20
49.93513
 30
0.0
 11
31.253607
 21
49.93513
 31
0.0
  0
LINE
  5
425
100
AcDbEntity
  8
HATCH
100
AcDbLine
 10
30.784807
 20
49.93513
 30
0.0
 11
30.784807
 21
49.93513
 31
0.0
  0
LINE
  5
426
100
AcDbEntity
  8
HATCH
100
AcDbLine
 10
31.019207
 20
50.40383
 30
0.0
 11
31.019207
 21
50.40383
 31
0.0
  0
LINE
  5
427
100
AcDbEntity
  8
HATCH
100
AcDbLine
 10
30.550407
 20
50.40383
 30
0.0
 11
30.550407
 21
50.40383
 31
0.0
  0
LINE
  5
428
100
AcDbEntity
  8
HATCH
100
AcDbLine
 10
31.253607
 20
50.87263
 30
0.0
 11
31.253607
 21
50.87263
 31
0.0
  0
LINE
  5
429
100
AcDbEntity
  8
HATCH
100
AcDbLine
 10
30.784807
 20
50.87263
 30
0.0
 11
30.784807
 21
50.87263
 31
0.0
  0
LINE
  5
42A
100
AcDbEntity
  8
HATCH
100
AcDbLine
 10
27.411307
 20
57.05043
 30
0.0
 11
27.352407
 21
57.02923
 31
0.0
  0
LINE
  5
42B
100
AcDbEntity
  8
HATCH
100
AcDbLine
 10
26.556307
 20
59.39983
 30
0.0
 11
26.497507
 21
59.37833
 31
0.0
  0
LINE
  5
42C
100
AcDbEntity
  8
HATCH
100
AcDbLine
 10
24.206907
 20
58.54483
 30
0.0
 11
24.148107
 21
58.52333
 31
0.0
  0
LINE
  5
42D
100
AcDbEntity
  8
HATCH
100
AcDbLine
 10
25.701307
 20
61.74893
 30
0.0
 11
25.642507
 21
61.72773
 31
0.0
  0
LINE
  5
42E
100
AcDbEntity
  8
HATCH
100
AcDbLine
 10
24.846607
 20
64.09833
 30
0.0
 11
24.787707
 21
64.07683
 31
0.0
  0
LINE
  5
42F
100
AcDbEntity
  8
HATCH
100
AcDbLine
 10
26.842207
 20
58.76533
 30
0.0
 11
26.806307
 21
58.71403
 31
0.0
  0
LINE
  5
430
100
AcDbEntity
  8
HATCH
100
AcDbLine
 10
25.408107
 20
56.71723
 30
0.0
 11
25.372207
 21
56.66613
 31
0.0
  0
LINE
  5
431
100
AcDbEntity
  8
HATCH
100
AcDbLine
 10
26.228407
 20
62.24693
 30
0.0
 11
26.192507
 21
62.19573
 31
0.0
  0
LINE
  5
432
100
AcDbEntity
  8
HATCH
100
AcDbLine
 10
24.794307
 20
60.19913
 30
0.0
 11
24.758407
 21
60.14783
 31
0.0
  0
LINE
  5
433
100
AcDbEntity
  8
HATCH
100
AcDbLine
 10
24.180807
 20
63.68083
 30
0.0
 11
24.144907
 21
63.62953
 31
0.0
  0
LINE
  5
434
100
AcDbEntity
  8
HATCH
100
AcDbLine
 10
26.564307
 20
61.64293
 30
0.0
 11
26.553607
 21
61.58143
 31
0.0
  0
LINE
  5
435
100
AcDbEntity
  8
HATCH
100
AcDbLine
 10
26.130307
 20
59.18103
 30
0.0
 11
26.119507
 21
59.11953
 31
0.0
  0
LINE
  5
436
100
AcDbEntity
  8
HATCH
100
AcDbLine
 10
25.696207
 20
56.71893
 30
0.0
 11
25.685407
 21
56.65733
 31
0.0
  0
LINE
  5
437
100
AcDbEntity
  8
HATCH
100
AcDbLine
 10
24.102407
 20
62.07703
 30
0.0
 11
24.091707
 21
62.01553
 31
0.0
  0
LINE
  5
438
100
AcDbEntity
  8
HATCH
100
AcDbLine
 10
27.176207
 20
63.94303
 30
0.0
 11
27.221107
 21
64.00723
 31
0.0
  0
LINE
  5
439
100
AcDbEntity
  8
HATCH
100
AcDbLine
 10
26.617107
 20
63.44203
 30
0.0
 11
26.628107
 21
63.50353
 31
0.0
  0
LINE
  5
43A
100
AcDbEntity
  8
HATCH
100
AcDbLine
 10
29.760607
 20
57.90563
 30
0.0
 11
29.701807
 21
57.88423
 31
0.0
  0
LINE
  5
43B
100
AcDbEntity
  8
HATCH
100
AcDbLine
 10
28.905707
 20
60.25483
 30
0.0
 11
28.846807
 21
60.23353
 31
0.0
  0
LINE
  5
43C
100
AcDbEntity
  8
HATCH
100
AcDbLine
 10
28.050707
 20
62.60413
 30
0.0
 11
27.991807
 21
62.58263
 31
0.0
  0
LINE
  5
43D
100
AcDbEntity
  8
HATCH
100
AcDbLine
 10
28.890007
 20
57.33123
 30
0.0
 11
28.854107
 21
57.28023
 31
0.0
  0
LINE
  5
43E
100
AcDbEntity
  8
HATCH
100
AcDbLine
 10
29.710307
 20
62.86103
 30
0.0
 11
29.674507
 21
62.80973
 31
0.0
  0
LINE
  5
43F
100
AcDbEntity
  8
HATCH
100
AcDbLine
 10
28.276307
 20
60.81313
 30
0.0
 11
28.240407
 21
60.76183
 31
0.0
  0
LINE
  5
440
100
AcDbEntity
  8
HATCH
100
AcDbLine
 10
29.460107
 20
63.67103
 30
0.0
 11
29.449407
 21
63.60953
 31
0.0
  0
LINE
  5
441
100
AcDbEntity
  8
HATCH
100
AcDbLine
 10
29.026007
 20
61.20893
 30
0.0
 11
29.015307
 21
61.14733
 31
0.0
  0
LINE
  5
442
100
AcDbEntity
  8
HATCH
100
AcDbLine
 10
28.591907
 20
58.74693
 30
0.0
 11
28.581207
 21
58.68543
 31
0.0
  0
LINE
  5
443
100
AcDbEntity
  8
HATCH
100
AcDbLine
 10
31.253607
 20
56.68273
 30
0.0
 11
31.253607
 21
56.68273
 31
0.0
  0
LINE
  5
444
100
AcDbEntity
  8
HATCH
100
AcDbLine
 10
30.784807
 20
56.68273
 30
0.0
 11
30.784807
 21
56.68273
 31
0.0
  0
LINE
  5
445
100
AcDbEntity
  8
HATCH
100
AcDbLine
 10
30.316107
 20
56.68273
 30
0.0
 11
30.316107
 21
56.68273
 31
0.0
  0
LINE
  5
446
100
AcDbEntity
  8
HATCH
100
AcDbLine
 10
31.019207
 20
57.15153
 30
0.0
 11
31.019207
 21
57.15153
 31
0.0
  0
LINE
  5
447
100
AcDbEntity
  8
HATCH
100
AcDbLine
 10
30.550407
 20
57.15153
 30
0.0
 11
30.550407
 21
57.15153
 31
0.0
  0
LINE
  5
448
100
AcDbEntity
  8
HATCH
100
AcDbLine
 10
31.253607
 20
57.62023
 30
0.0
 11
31.253607
 21
57.62023
 31
0.0
  0
LINE
  5
449
100
AcDbEntity
  8
HATCH
100
AcDbLine
 10
30.784807
 20
57.62023
 30
0.0
 11
30.784807
 21
57.62023
 31
0.0
  0
LINE
  5
44A
100
AcDbEntity
  8
HATCH
100
AcDbLine
 10
30.316107
 20
57.62023
 30
0.0
 11
30.316107
 21
57.62023
 31
0.0
  0
LINE
  5
44B
100
AcDbEntity
  8
HATCH
100
AcDbLine
 10
31.019207
 20
58.08903
 30
0.0
 11
31.019207
 21
58.08903
 31
0.0
  0
LINE
  5
44C
100
AcDbEntity
  8
HATCH
100
AcDbLine
 10
30.550407
 20
58.08903
 30
0.0
 11
30.550407
 21
58.08903
 31
0.0
  0
LINE
  5
44D
100
AcDbEntity
  8
HATCH
100
AcDbLine
 10
31.253607
 20
58.55773
 30
0.0
 11
31.253607
 21
58.55773
 31
0.0
  0
LINE
  5
44E
100
AcDbEntity
  8
HATCH
100
AcDbLine
 10
30.784807
 20
58.55773
 30
0.0
 11
30.784807
 21
58.55773
 31
0.0
  0
LINE
  5
44F
100
AcDbEntity
  8
HATCH
100
AcDbLine
 10
30.316107
 20
58.55773
 30
0.0
 11
30.316107
 21
58.55773
 31
0.0
  0
LINE
  5
450
100
AcDbEntity
  8
HATCH
100
AcDbLine
 10
31.019207
 20
59.02653
 30
0.0
 11
31.019207
 21
59.02653
 31
0.0
  0
LINE
  5
451
100
AcDbEntity
  8
HATCH
100
AcDbLine
 10
30.550407
 20
59.02653
 30
0.0
 11
30.550407
 21
59.02653
 31
0.0
  0
LINE
  5
452
100
AcDbEntity
  8
HATCH
100
AcDbLine
 10
31.253607
 20
59.49523
 30
0.0
 11
31.253607
 21
59.49523
 31
0.0
  0
LINE
  5
453
100
AcDbEntity
  8
HATCH
100
AcDbLine
 10
30.784807
 20
59.49523
 30
0.0
 11
30.784807
 21
59.49523
 31
0.0
  0
LINE
  5
454
100
AcDbEntity
  8
HATCH
100
AcDbLine
 10
30.316107
 20
59.49523
 30
0.0
 11
30.316107
 21
59.49523
 31
0.0
  0
LINE
  5
455
100
AcDbEntity
  8
HATCH
100
AcDbLine
 10
31.019207
 20
59.96403
 30
0.0
 11
31.019207
 21
59.96403
 31
0.0
  0
LINE
  5
456
100
AcDbEntity
  8
HATCH
100
AcDbLine
 10
30.550407
 20
59.96403
 30
0.0
 11
30.550407
 21
59.96403
 31
0.0
  0
LINE
  5
457
100
AcDbEntity
  8
HATCH
100
AcDbLine
 10
31.253607
 20
60.43273
 30
0.0
 11
31.253607
 21
60.43273
 31
0.0
  0
LINE
  5
458
100
AcDbEntity
  8
HATCH
100
AcDbLine
 10
30.784807
 20
60.43273
 30
0.0
 11
30.784807
 21
60.43273
 31
0.0
  0
LINE
  5
459
100
AcDbEntity
  8
HATCH
100
AcDbLine
 10
30.316107
 20
60.43273
 30
0.0
 11
30.316107
 21
60.43273
 31
0.0
  0
LINE
  5
45A
100
AcDbEntity
  8
HATCH
100
AcDbLine
 10
31.019207
 20
60.90153
 30
0.0
 11
31.019207
 21
60.90153
 31
0.0
  0
LINE
  5
45B
100
AcDbEntity
  8
HATCH
100
AcDbLine
 10
30.550407
 20
60.90153
 30
0.0
 11
30.550407
 21
60.90153
 31
0.0
  0
LINE
  5
45C
100
AcDbEntity
  8
HATCH
100
AcDbLine
 10
31.253607
 20
61.37023
 30
0.0
 11
31.253607
 21
61.37023
 31
0.0
  0
LINE
  5
45D
100
AcDbEntity
  8
HATCH
100
AcDbLine
 10
30.784807
 20
61.37023
 30
0.0
 11
30.784807
 21
61.37023
 31
0.0
  0
LINE
  5
45E
100
AcDbEntity
  8
HATCH
100
AcDbLine
 10
30.316107
 20
61.37023
 30
0.0
 11
30.316107
 21
61.37023
 31
0.0
  0
LINE
  5
45F
100
AcDbEntity
  8
HATCH
100
AcDbLine
 10
31.019207
 20
61.83903
 30
0.0
 11
31.019207
 21
61.83903
 31
0.0
  0
LINE
  5
460
100
AcDbEntity
  8
HATCH
100
AcDbLine
 10
30.550407
 20
61.83903
 30
0.0
 11
30.550407
 21
61.83903
 31
0.0
  0
LINE
  5
461
100
AcDbEntity
  8
HATCH
100
AcDbLine
 10
31.253607
 20
62.30773
 30
0.0
 11
31.253607
 21
62.30773
 31
0.0
  0
LINE
  5
462
100
AcDbEntity
  8
HATCH
100
AcDbLine
 10
30.784807
 20
62.30773
 30
0.0
 11
30.784807
 21
62.30773
 31
0.0
  0
LINE
  5
463
100
AcDbEntity
  8
HATCH
100
AcDbLine
 10
30.316107
 20
62.30773
 30
0.0
 11
30.316107
 21
62.30773
 31
0.0
  0
LINE
  5
464
100
AcDbEntity
  8
HATCH
100
AcDbLine
 10
31.019207
 20
62.77653
 30
0.0
 11
31.019207
 21
62.77653
 31
0.0
  0
LINE
  5
465
100
AcDbEntity
  8
HATCH
100
AcDbLine
 10
30.550407
 20
62.77653
 30
0.0
 11
30.550407
 21
62.77653
 31
0.0
  0
LINE
  5
466
100
AcDbEntity
  8
HATCH
100
AcDbLine
 10
31.253607
 20
63.24523
 30
0.0
 11
31.253607
 21
63.24523
 31
0.0
  0
LINE
  5
467
100
AcDbEntity
  8
HATCH
100
AcDbLine
 10
30.784807
 20
63.24523
 30
0.0
 11
30.784807
 21
63.24523
 31
0.0
  0
LINE
  5
468
100
AcDbEntity
  8
HATCH
100
AcDbLine
 10
30.316107
 20
63.24523
 30
0.0
 11
30.316107
 21
63.24523
 31
0.0
  0
LINE
  5
469
100
AcDbEntity
  8
HATCH
100
AcDbLine
 10
31.019207
 20
63.71403
 30
0.0
 11
31.019207
 21
63.71403
 31
0.0
  0
LINE
  5
46A
100
AcDbEntity
  8
HATCH
100
AcDbLine
 10
30.550407
 20
63.71403
 30
0.0
 11
30.550407
 21
63.71403
 31
0.0
  0
LINE
  5
46B
100
AcDbEntity
  8
HATCH
100
AcDbLine
 10
21.036007
 20
74.42133
 30
0.0
 11
25.465707
 21
74.42153
 31
0.0
  0
LINE
  5
46C
100
AcDbEntity
  8
DRAWING
100
AcDbLine
 10
22.169107
 20
74.42153
 30
0.0
 11
22.169107
 21
66.39073
 31
0.0
  0
LINE
  5
46D
100
AcDbEntity
  8
DRAWING
100
AcDbLine
 10
24.044107
 20
74.42153
 30
0.0
 11
24.044107
 21
66.39073
 31
0.0
  0
LINE
  5
46E
100
AcDbEntity
  8
DRAWING
100
AcDbLine
 10
22.169107
 20
66.39073
 30
0.0
 11
24.044107
 21
66.39073
 31
0.0
  0
LINE
  5
46F
100
AcDbEntity
  8
DRAWING
100
AcDbLine
 10
24.044107
 20
66.39073
 30
0.0
 11
22.169107
 21
66.39073
 31
0.0
  0
LINE
  5
470
100
AcDbEntity
  8
HATCH
100
AcDbLine
 10
23.753607
 20
64.18273
 30
0.0
 11
23.753607
 21
64.18273
 31
0.0
  0
LINE
  5
471
100
AcDbEntity
  8
HATCH
100
AcDbLine
 10
23.284807
 20
64.18273
 30
0.0
 11
23.284807
 21
64.18273
 31
0.0
  0
LINE
  5
472
100
AcDbEntity
  8
HATCH
100
AcDbLine
 10
22.816107
 20
64.18273
 30
0.0
 11
22.816107
 21
64.18273
 31
0.0
  0
LINE
  5
473
100
AcDbEntity
  8
HATCH
100
AcDbLine
 10
22.347307
 20
64.18273
 30
0.0
 11
22.347307
 21
64.18273
 31
0.0
  0
LINE
  5
474
100
AcDbEntity
  8
HATCH
100
AcDbLine
 10
23.987907
 20
64.65153
 30
0.0
 11
23.987907
 21
64.65153
 31
0.0
  0
LINE
  5
475
100
AcDbEntity
  8
HATCH
100
AcDbLine
 10
23.519207
 20
64.65153
 30
0.0
 11
23.519207
 21
64.65153
 31
0.0
  0
LINE
  5
476
100
AcDbEntity
  8
HATCH
100
AcDbLine
 10
23.050407
 20
64.65153
 30
0.0
 11
23.050407
 21
64.65153
 31
0.0
  0
LINE
  5
477
100
AcDbEntity
  8
HATCH
100
AcDbLine
 10
22.581707
 20
64.65153
 30
0.0
 11
22.581707
 21
64.65153
 31
0.0
  0
LINE
  5
478
100
AcDbEntity
  8
HATCH
100
AcDbLine
 10
23.753607
 20
65.12023
 30
0.0
 11
23.753607
 21
65.12023
 31
0.0
  0
LINE
  5
479
100
AcDbEntity
  8
HATCH
100
AcDbLine
 10
23.284807
 20
65.12023
 30
0.0
 11
23.284807
 21
65.12023
 31
0.0
  0
LINE
  5
47A
100
AcDbEntity
  8
HATCH
100
AcDbLine
 10
22.816107
 20
65.12023
 30
0.0
 11
22.816107
 21
65.12023
 31
0.0
  0
LINE
  5
47B
100
AcDbEntity
  8
HATCH
100
AcDbLine
 10
22.347307
 20
65.12023
 30
0.0
 11
22.347307
 21
65.12023
 31
0.0
  0
LINE
  5
47C
100
AcDbEntity
  8
HATCH
100
AcDbLine
 10
23.987907
 20
65.58903
 30
0.0
 11
23.987907
 21
65.58903
 31
0.0
  0
LINE
  5
47D
100
AcDbEntity
  8
HATCH
100
AcDbLine
 10
23.519207
 20
65.58903
 30
0.0
 11
23.519207
 21
65.58903
 31
0.0
  0
LINE
  5
47E
100
AcDbEntity
  8
HATCH
100
AcDbLine
 10
23.050407
 20
65.58903
 30
0.0
 11
23.050407
 21
65.58903
 31
0.0
  0
LINE
  5
47F
100
AcDbEntity
  8
HATCH
100
AcDbLine
 10
22.581707
 20
65.58903
 30
0.0
 11
22.581707
 21
65.58903
 31
0.0
  0
LINE
  5
480
100
AcDbEntity
  8
HATCH
100
AcDbLine
 10
23.753607
 20
66.05773
 30
0.0
 11
23.753607
 21
66.05773
 31
0.0
  0
LINE
  5
481
100
AcDbEntity
  8
HATCH
100
AcDbLine
 10
23.284807
 20
66.05773
 30
0.0
 11
23.284807
 21
66.05773
 31
0.0
  0
LINE
  5
482
100
AcDbEntity
  8
HATCH
100
AcDbLine
 10
22.816107
 20
66.05773
 30
0.0
 11
22.816107
 21
66.05773
 31
0.0
  0
LINE
  5
483
100
AcDbEntity
  8
HATCH
100
AcDbLine
 10
22.347307
 20
66.05773
 30
0.0
 11
22.347307
 21
66.05773
 31
0.0
  0
LINE
  5
484
100
AcDbEntity
  8
DRAWING
100
AcDbLine
 10
22.169107
 20
66.39073
 30
0.0
 11
24.044107
 21
66.39073
 31
0.0
  0
LINE
  5
485
100
AcDbEntity
  8
HATCH
100
AcDbLine
 10
23.987907
 20
66.52653
 30
0.0
 11
23.987907
 21
66.52653
 31
0.0
  0
LINE
  5
486
100
AcDbEntity
  8
HATCH
100
AcDbLine
 10
23.519207
 20
66.52653
 30
0.0
 11
23.519207
 21
66.52653
 31
0.0
  0
LINE
  5
487
100
AcDbEntity
  8
HATCH
100
AcDbLine
 10
23.050407
 20
66.52653
 30
0.0
 11
23.050407
 21
66.52653
 31
0.0
  0
LINE
  5
488
100
AcDbEntity
  8
HATCH
100
AcDbLine
 10
22.581707
 20
66.52653
 30
0.0
 11
22.581707
 21
66.52653
 31
0.0
  0
LINE
  5
489
100
AcDbEntity
  8
HATCH
100
AcDbLine
 10
23.753607
 20
66.99523
 30
0.0
 11
23.753607
 21
66.99523
 31
0.0
  0
LINE
  5
48A
100
AcDbEntity
  8
HATCH
100
AcDbLine
 10
23.284807
 20
66.99523
 30
0.0
 11
23.284807
 21
66.99523
 31
0.0
  0
LINE
  5
48B
100
AcDbEntity
  8
HATCH
100
AcDbLine
 10
22.816107
 20
66.99523
 30
0.0
 11
22.816107
 21
66.99523
 31
0.0
  0
LINE
  5
48C
100
AcDbEntity
  8
HATCH
100
AcDbLine
 10
22.347307
 20
66.99523
 30
0.0
 11
22.347307
 21
66.99523
 31
0.0
  0
LINE
  5
48D
100
AcDbEntity
  8
HATCH
100
AcDbLine
 10
23.987907
 20
67.46403
 30
0.0
 11
23.987907
 21
67.46403
 31
0.0
  0
LINE
  5
48E
100
AcDbEntity
  8
HATCH
100
AcDbLine
 10
23.519207
 20
67.46403
 30
0.0
 11
23.519207
 21
67.46403
 31
0.0
  0
LINE
  5
48F
100
AcDbEntity
  8
HATCH
100
AcDbLine
 10
23.050407
 20
67.46403
 30
0.0
 11
23.050407
 21
67.46403
 31
0.0
  0
LINE
  5
490
100
AcDbEntity
  8
HATCH
100
AcDbLine
 10
22.581707
 20
67.46403
 30
0.0
 11
22.581707
 21
67.46403
 31
0.0
  0
LINE
  5
491
100
AcDbEntity
  8
HATCH
100
AcDbLine
 10
23.753607
 20
67.93273
 30
0.0
 11
23.753607
 21
67.93273
 31
0.0
  0
LINE
  5
492
100
AcDbEntity
  8
HATCH
100
AcDbLine
 10
23.284807
 20
67.93273
 30
0.0
 11
23.284807
 21
67.93273
 31
0.0
  0
LINE
  5
493
100
AcDbEntity
  8
HATCH
100
AcDbLine
 10
22.816107
 20
67.93273
 30
0.0
 11
22.816107
 21
67.93273
 31
0.0
  0
LINE
  5
494
100
AcDbEntity
  8
HATCH
100
AcDbLine
 10
22.347307
 20
67.93273
 30
0.0
 11
22.347307
 21
67.93273
 31
0.0
  0
LINE
  5
495
100
AcDbEntity
  8
HATCH
100
AcDbLine
 10
23.987907
 20
68.40153
 30
0.0
 11
23.987907
 21
68.40153
 31
0.0
  0
LINE
  5
496
100
AcDbEntity
  8
HATCH
100
AcDbLine
 10
23.519207
 20
68.40153
 30
0.0
 11
23.519207
 21
68.40153
 31
0.0
  0
LINE
  5
497
100
AcDbEntity
  8
HATCH
100
AcDbLine
 10
23.050407
 20
68.40153
 30
0.0
 11
23.050407
 21
68.40153
 31
0.0
  0
LINE
  5
498
100
AcDbEntity
  8
HATCH
100
AcDbLine
 10
22.581707
 20
68.40153
 30
0.0
 11
22.581707
 21
68.40153
 31
0.0
  0
LINE
  5
499
100
AcDbEntity
  8
HATCH
100
AcDbLine
 10
23.753607
 20
68.87023
 30
0.0
 11
23.753607
 21
68.87023
 31
0.0
  0
LINE
  5
49A
100
AcDbEntity
  8
HATCH
100
AcDbLine
 10
23.284807
 20
68.87023
 30
0.0
 11
23.284807
 21
68.87023
 31
0.0
  0
LINE
  5
49B
100
AcDbEntity
  8
HATCH
100
AcDbLine
 10
22.816107
 20
68.87023
 30
0.0
 11
22.816107
 21
68.87023
 31
0.0
  0
LINE
  5
49C
100
AcDbEntity
  8
HATCH
100
AcDbLine
 10
22.347307
 20
68.87023
 30
0.0
 11
22.347307
 21
68.87023
 31
0.0
  0
LINE
  5
49D
100
AcDbEntity
  8
HATCH
100
AcDbLine
 10
23.987907
 20
69.33903
 30
0.0
 11
23.987907
 21
69.33903
 31
0.0
  0
LINE
  5
49E
100
AcDbEntity
  8
HATCH
100
AcDbLine
 10
23.519207
 20
69.33903
 30
0.0
 11
23.519207
 21
69.33903
 31
0.0
  0
LINE
  5
49F
100
AcDbEntity
  8
HATCH
100
AcDbLine
 10
23.050407
 20
69.33903
 30
0.0
 11
23.050407
 21
69.33903
 31
0.0
  0
LINE
  5
4A0
100
AcDbEntity
  8
HATCH
100
AcDbLine
 10
22.581707
 20
69.33903
 30
0.0
 11
22.581707
 21
69.33903
 31
0.0
  0
LINE
  5
4A1
100
AcDbEntity
  8
HATCH
100
AcDbLine
 10
23.753607
 20
69.80773
 30
0.0
 11
23.753607
 21
69.80773
 31
0.0
  0
LINE
  5
4A2
100
AcDbEntity
  8
HATCH
100
AcDbLine
 10
23.284807
 20
69.80773
 30
0.0
 11
23.284807
 21
69.80773
 31
0.0
  0
LINE
  5
4A3
100
AcDbEntity
  8
HATCH
100
AcDbLine
 10
22.816107
 20
69.80773
 30
0.0
 11
22.816107
 21
69.80773
 31
0.0
  0
LINE
  5
4A4
100
AcDbEntity
  8
HATCH
100
AcDbLine
 10
22.347307
 20
69.80773
 30
0.0
 11
22.347307
 21
69.80773
 31
0.0
  0
LINE
  5
4A5
100
AcDbEntity
  8
HATCH
100
AcDbLine
 10
23.987907
 20
70.27653
 30
0.0
 11
23.987907
 21
70.27653
 31
0.0
  0
LINE
  5
4A6
100
AcDbEntity
  8
HATCH
100
AcDbLine
 10
23.519207
 20
70.27653
 30
0.0
 11
23.519207
 21
70.27653
 31
0.0
  0
LINE
  5
4A7
100
AcDbEntity
  8
HATCH
100
AcDbLine
 10
23.050407
 20
70.27653
 30
0.0
 11
23.050407
 21
70.27653
 31
0.0
  0
LINE
  5
4A8
100
AcDbEntity
  8
HATCH
100
AcDbLine
 10
22.581707
 20
70.27653
 30
0.0
 11
22.581707
 21
70.27653
 31
0.0
  0
LINE
  5
4A9
100
AcDbEntity
  8
HATCH
100
AcDbLine
 10
23.753607
 20
70.74523
 30
0.0
 11
23.753607
 21
70.74523
 31
0.0
  0
LINE
  5
4AA
100
AcDbEntity
  8
HATCH
100
AcDbLine
 10
23.284807
 20
70.74523
 30
0.0
 11
23.284807
 21
70.74523
 31
0.0
  0
LINE
  5
4AB
100
AcDbEntity
  8
HATCH
100
AcDbLine
 10
22.816107
 20
70.74523
 30
0.0
 11
22.816107
 21
70.74523
 31
0.0
  0
LINE
  5
4AC
100
AcDbEntity
  8
HATCH
100
AcDbLine
 10
22.347307
 20
70.74523
 30
0.0
 11
22.347307
 21
70.74523
 31
0.0
  0
LINE
  5
4AD
100
AcDbEntity
  8
HATCH
100
AcDbLine
 10
23.987907
 20
71.21403
 30
0.0
 11
23.987907
 21
71.21403
 31
0.0
  0
LINE
  5
4AE
100
AcDbEntity
  8
HATCH
100
AcDbLine
 10
23.519207
 20
71.21403
 30
0.0
 11
23.519207
 21
71.21403
 31
0.0
  0
LINE
  5
4AF
100
AcDbEntity
  8
HATCH
100
AcDbLine
 10
23.050407
 20
71.21403
 30
0.0
 11
23.050407
 21
71.21403
 31
0.0
  0
LINE
  5
4B0
100
AcDbEntity
  8
HATCH
100
AcDbLine
 10
22.581707
 20
71.21403
 30
0.0
 11
22.581707
 21
71.21403
 31
0.0
  0
LINE
  5
4B1
100
AcDbEntity
  8
HATCH
100
AcDbLine
 10
23.753607
 20
71.68273
 30
0.0
 11
23.753607
 21
71.68273
 31
0.0
  0
LINE
  5
4B2
100
AcDbEntity
  8
HATCH
100
AcDbLine
 10
23.284807
 20
71.68273
 30
0.0
 11
23.284807
 21
71.68273
 31
0.0
  0
LINE
  5
4B3
100
AcDbEntity
  8
HATCH
100
AcDbLine
 10
22.816107
 20
71.68273
 30
0.0
 11
22.816107
 21
71.68273
 31
0.0
  0
LINE
  5
4B4
100
AcDbEntity
  8
HATCH
100
AcDbLine
 10
22.347307
 20
71.68273
 30
0.0
 11
22.347307
 21
71.68273
 31
0.0
  0
LINE
  5
4B5
100
AcDbEntity
  8
DRAWING
100
AcDbLine
 10
24.044107
 20
66.39073
 30
0.0
 11
22.169107
 21
66.39073
 31
0.0
  0
LINE
  5
4B6
100
AcDbEntity
  8
HATCH
100
AcDbLine
 10
23.987907
 20
72.15153
 30
0.0
 11
23.987907
 21
72.15153
 31
0.0
  0
LINE
  5
4B7
100
AcDbEntity
  8
HATCH
100
AcDbLine
 10
23.519207
 20
72.15153
 30
0.0
 11
23.519207
 21
72.15153
 31
0.0
  0
LINE
  5
4B8
100
AcDbEntity
  8
HATCH
100
AcDbLine
 10
23.050407
 20
72.15153
 30
0.0
 11
23.050407
 21
72.15153
 31
0.0
  0
LINE
  5
4B9
100
AcDbEntity
  8
HATCH
100
AcDbLine
 10
22.581707
 20
72.15153
 30
0.0
 11
22.581707
 21
72.15153
 31
0.0
  0
LINE
  5
4BA
100
AcDbEntity
  8
HATCH
100
AcDbLine
 10
23.753607
 20
72.62023
 30
0.0
 11
23.753607
 21
72.62023
 31
0.0
  0
LINE
  5
4BB
100
AcDbEntity
  8
HATCH
100
AcDbLine
 10
23.284807
 20
72.62023
 30
0.0
 11
23.284807
 21
72.62023
 31
0.0
  0
LINE
  5
4BC
100
AcDbEntity
  8
HATCH
100
AcDbLine
 10
22.816107
 20
72.62023
 30
0.0
 11
22.816107
 21
72.62023
 31
0.0
  0
LINE
  5
4BD
100
AcDbEntity
  8
HATCH
100
AcDbLine
 10
22.347307
 20
72.62023
 30
0.0
 11
22.347307
 21
72.62023
 31
0.0
  0
LINE
  5
4BE
100
AcDbEntity
  8
HATCH
100
AcDbLine
 10
23.987907
 20
73.08903
 30
0.0
 11
23.987907
 21
73.08903
 31
0.0
  0
LINE
  5
4BF
100
AcDbEntity
  8
HATCH
100
AcDbLine
 10
23.519207
 20
73.08903
 30
0.0
 11
23.519207
 21
73.08903
 31
0.0
  0
LINE
  5
4C0
100
AcDbEntity
  8
HATCH
100
AcDbLine
 10
23.050407
 20
73.08903
 30
0.0
 11
23.050407
 21
73.08903
 31
0.0
  0
LINE
  5
4C1
100
AcDbEntity
  8
HATCH
100
AcDbLine
 10
22.581707
 20
73.08903
 30
0.0
 11
22.581707
 21
73.08903
 31
0.0
  0
LINE
  5
4C2
100
AcDbEntity
  8
HATCH
100
AcDbLine
 10
23.753607
 20
73.55773
 30
0.0
 11
23.753607
 21
73.55773
 31
0.0
  0
LINE
  5
4C3
100
AcDbEntity
  8
HATCH
100
AcDbLine
 10
23.284807
 20
73.55773
 30
0.0
 11
23.284807
 21
73.55773
 31
0.0
  0
LINE
  5
4C4
100
AcDbEntity
  8
HATCH
100
AcDbLine
 10
22.816107
 20
73.55773
 30
0.0
 11
22.816107
 21
73.55773
 31
0.0
  0
LINE
  5
4C5
100
AcDbEntity
  8
HATCH
100
AcDbLine
 10
22.347307
 20
73.55773
 30
0.0
 11
22.347307
 21
73.55773
 31
0.0
  0
LINE
  5
4C6
100
AcDbEntity
  8
HATCH
100
AcDbLine
 10
23.987907
 20
74.02653
 30
0.0
 11
23.987907
 21
74.02653
 31
0.0
  0
LINE
  5
4C7
100
AcDbEntity
  8
HATCH
100
AcDbLine
 10
23.519207
 20
74.02653
 30
0.0
 11
23.519207
 21
74.02653
 31
0.0
  0
LINE
  5
4C8
100
AcDbEntity
  8
HATCH
100
AcDbLine
 10
23.050407
 20
74.02653
 30
0.0
 11
23.050407
 21
74.02653
 31
0.0
  0
LINE
  5
4C9
100
AcDbEntity
  8
HATCH
100
AcDbLine
 10
22.581707
 20
74.02653
 30
0.0
 11
22.581707
 21
74.02653
 31
0.0
  0
LINE
  5
4CA
100
AcDbEntity
  8
DRAWING
100
AcDbLine
 10
30.294107
 20
66.39073
 30
0.0
 11
30.294107
 21
74.42153
 31
0.0
  0
LINE
  5
4CB
100
AcDbEntity
  8
HATCH
100
AcDbLine
 10
25.408107
 20
71.71723
 30
0.0
 11
25.372207
 21
71.66593
 31
0.0
  0
LINE
  5
4CC
100
AcDbEntity
  8
HATCH
100
AcDbLine
 10
25.696207
 20
71.71893
 30
0.0
 11
25.685407
 21
71.65733
 31
0.0
  0
LINE
  5
4CD
100
AcDbEntity
  8
DIM_TEXT
100
AcDbLine
 10
27.545507
 20
66.56073
 30
0.0
 11
28.195507
 21
67.55253
 31
0.0
  0
LINE
  5
4CE
100
AcDbEntity
  8
DIM_TEXT
100
AcDbLine
 10
27.545507
 20
66.56073
 30
0.0
 11
28.660707
 21
66.96423
 31
0.0
  0
ARC
  5
4CF
100
AcDbEntity
  8
DRAWING
100
AcDbCircle
 10
27.169107
 20
66.39073
 30
0.0
 40
3.0
100
AcDbArc
 50
0.0
 51
180.0
  0
CIRCLE
  5
4D0
100
AcDbEntity
  8
DRAWING
100
AcDbCircle
 10
27.778107
 20
66.26653
 30
0.0
 40
0.375
  0
LINE
  5
4D1
100
AcDbEntity
  8
HATCH
100
AcDbLine
 10
24.536507
 20
64.53923
 30
0.0
 11
24.525807
 21
64.47773
 31
0.0
  0
LINE
  5
4D2
100
AcDbEntity
  8
HATCH
100
AcDbLine
 10
26.556307
 20
66.07393
 30
0.0
 11
26.497507
 21
66.05243
 31
0.0
  0
LINE
  5
4D3
100
AcDbEntity
  8
HATCH
100
AcDbLine
 10
26.130307
 20
65.85513
 30
0.0
 11
26.119507
 21
65.79363
 31
0.0
  0
LINE
  5
4D4
100
AcDbEntity
  8
HATCH
100
AcDbLine
 10
26.842207
 20
65.43913
 30
0.0
 11
26.806307
 21
65.38813
 31
0.0
  0
LINE
  5
4D5
100
AcDbEntity
  8
HATCH
100
AcDbLine
 10
25.061907
 20
71.19543
 30
0.0
 11
25.003107
 21
71.17423
 31
0.0
  0
LINE
  5
4D6
100
AcDbEntity
  8
HATCH
100
AcDbLine
 10
27.456007
 20
70.28333
 30
0.0
 11
27.420107
 21
70.23213
 31
0.0
  0
LINE
  5
4D7
100
AcDbEntity
  8
HATCH
100
AcDbLine
 10
25.262107
 20
69.25703
 30
0.0
 11
25.251407
 21
69.19523
 31
0.0
  0
LINE
  5
4D8
100
AcDbEntity
  8
HATCH
100
AcDbLine
 10
26.649807
 20
68.51143
 30
0.0
 11
26.723307
 21
68.53803
 31
0.0
  0
LINE
  5
4D9
100
AcDbEntity
  8
HATCH
100
AcDbLine
 10
26.918607
 20
67.67863
 30
0.0
 11
26.963507
 21
67.74263
 31
0.0
  0
LINE
  5
4DA
100
AcDbEntity
  8
DIM_TEXT
100
AcDbLine
 10
28.195507
 20
67.55253
 30
0.0
 11
28.660707
 21
66.96423
 31
0.0
  0
LINE
  5
4DB
100
AcDbEntity
  8
HATCH
100
AcDbLine
 10
31.253607
 20
64.18273
 30
0.0
 11
31.253607
 21
64.18273
 31
0.0
  0
LINE
  5
4DC
100
AcDbEntity
  8
HATCH
100
AcDbLine
 10
30.784807
 20
64.18273
 30
0.0
 11
30.784807
 21
64.18273
 31
0.0
  0
LINE
  5
4DD
100
AcDbEntity
  8
HATCH
100
AcDbLine
 10
30.316107
 20
64.18273
 30
0.0
 11
30.316107
 21
64.18273
 31
0.0
  0
LINE
  5
4DE
100
AcDbEntity
  8
HATCH
100
AcDbLine
 10
31.019207
 20
64.65153
 30
0.0
 11
31.019207
 21
64.65153
 31
0.0
  0
LINE
  5
4DF
100
AcDbEntity
  8
HATCH
100
AcDbLine
 10
30.550407
 20
64.65153
 30
0.0
 11
30.550407
 21
64.65153
 31
0.0
  0
LINE
  5
4E0
100
AcDbEntity
  8
HATCH
100
AcDbLine
 10
31.253607
 20
65.12023
 30
0.0
 11
31.253607
 21
65.12023
 31
0.0
  0
LINE
  5
4E1
100
AcDbEntity
  8
HATCH
100
AcDbLine
 10
30.784807
 20
65.12023
 30
0.0
 11
30.784807
 21
65.12023
 31
0.0
  0
LINE
  5
4E2
100
AcDbEntity
  8
HATCH
100
AcDbLine
 10
30.316107
 20
65.12023
 30
0.0
 11
30.316107
 21
65.12023
 31
0.0
  0
LINE
  5
4E3
100
AcDbEntity
  8
HATCH
100
AcDbLine
 10
31.019207
 20
65.58903
 30
0.0
 11
31.019207
 21
65.58903
 31
0.0
  0
LINE
  5
4E4
100
AcDbEntity
  8
HATCH
100
AcDbLine
 10
30.550407
 20
65.58903
 30
0.0
 11
30.550407
 21
65.58903
 31
0.0
  0
LINE
  5
4E5
100
AcDbEntity
  8
HATCH
100
AcDbLine
 10
31.253607
 20
66.05773
 30
0.0
 11
31.253607
 21
66.05773
 31
0.0
  0
LINE
  5
4E6
100
AcDbEntity
  8
HATCH
100
AcDbLine
 10
30.784807
 20
66.05773
 30
0.0
 11
30.784807
 21
66.05773
 31
0.0
  0
LINE
  5
4E7
100
AcDbEntity
  8
HATCH
100
AcDbLine
 10
30.316107
 20
66.05773
 30
0.0
 11
30.316107
 21
66.05773
 31
0.0
  0
LINE
  5
4E8
100
AcDbEntity
  8
HATCH
100
AcDbLine
 10
29.316307
 20
64.45863
 30
0.0
 11
29.389807
 21
64.48523
 31
0.0
  0
LINE
  5
4E9
100
AcDbEntity
  8
HATCH
100
AcDbLine
 10
28.968607
 20
66.50313
 30
0.0
 11
29.013607
 21
66.56703
 31
0.0
  0
LINE
  5
4EA
100
AcDbEntity
  8
HATCH
100
AcDbLine
 10
28.266307
 20
69.70133
 30
0.0
 11
28.207407
 21
69.67983
 31
0.0
  0
LINE
  5
4EB
100
AcDbEntity
  8
HATCH
100
AcDbLine
 10
29.504007
 20
68.84953
 30
0.0
 11
29.468207
 21
68.79823
 31
0.0
  0
LINE
  5
4EC
100
AcDbEntity
  8
HATCH
100
AcDbLine
 10
30.185707
 20
68.38883
 30
0.0
 11
30.174907
 21
68.32733
 31
0.0
  0
LINE
  5
4ED
100
AcDbEntity
  8
HATCH
100
AcDbLine
 10
28.157907
 20
71.28483
 30
0.0
 11
28.147107
 21
71.22333
 31
0.0
  0
LINE
  5
4EE
100
AcDbEntity
  8
HATCH
100
AcDbLine
 10
31.019207
 20
66.52653
 30
0.0
 11
31.019207
 21
66.52653
 31
0.0
  0
LINE
  5
4EF
100
AcDbEntity
  8
HATCH
100
AcDbLine
 10
30.550407
 20
66.52653
 30
0.0
 11
30.550407
 21
66.52653
 31
0.0
  0
LINE
  5
4F0
100
AcDbEntity
  8
HATCH
100
AcDbLine
 10
31.253607
 20
66.99523
 30
0.0
 11
31.253607
 21
66.99523
 31
0.0
  0
LINE
  5
4F1
100
AcDbEntity
  8
HATCH
100
AcDbLine
 10
30.784807
 20
66.99523
 30
0.0
 11
30.784807
 21
66.99523
 31
0.0
  0
LINE
  5
4F2
100
AcDbEntity
  8
HATCH
100
AcDbLine
 10
30.316107
 20
66.99523
 30
0.0
 11
30.316107
 21
66.99523
 31
0.0
  0
LINE
  5
4F3
100
AcDbEntity
  8
HATCH
100
AcDbLine
 10
31.019207
 20
67.46403
 30
0.0
 11
31.019207
 21
67.46403
 31
0.0
  0
LINE
  5
4F4
100
AcDbEntity
  8
HATCH
100
AcDbLine
 10
30.550407
 20
67.46403
 30
0.0
 11
30.550407
 21
67.46403
 31
0.0
  0
LINE
  5
4F5
100
AcDbEntity
  8
HATCH
100
AcDbLine
 10
31.253607
 20
67.93273
 30
0.0
 11
31.253607
 21
67.93273
 31
0.0
  0
LINE
  5
4F6
100
AcDbEntity
  8
HATCH
100
AcDbLine
 10
30.784807
 20
67.93273
 30
0.0
 11
30.784807
 21
67.93273
 31
0.0
  0
LINE
  5
4F7
100
AcDbEntity
  8
HATCH
100
AcDbLine
 10
30.316107
 20
67.93273
 30
0.0
 11
30.316107
 21
67.93273
 31
0.0
  0
LINE
  5
4F8
100
AcDbEntity
  8
HATCH
100
AcDbLine
 10
31.019207
 20
68.40153
 30
0.0
 11
31.019207
 21
68.40153
 31
0.0
  0
LINE
  5
4F9
100
AcDbEntity
  8
HATCH
100
AcDbLine
 10
30.550407
 20
68.40153
 30
0.0
 11
30.550407
 21
68.40153
 31
0.0
  0
LINE
  5
4FA
100
AcDbEntity
  8
HATCH
100
AcDbLine
 10
31.253607
 20
68.87023
 30
0.0
 11
31.253607
 21
68.87023
 31
0.0
  0
LINE
  5
4FB
100
AcDbEntity
  8
HATCH
100
AcDbLine
 10
30.784807
 20
68.87023
 30
0.0
 11
30.784807
 21
68.87023
 31
0.0
  0
LINE
  5
4FC
100
AcDbEntity
  8
HATCH
100
AcDbLine
 10
30.316107
 20
68.87023
 30
0.0
 11
30.316107
 21
68.87023
 31
0.0
  0
LINE
  5
4FD
100
AcDbEntity
  8
HATCH
100
AcDbLine
 10
31.019207
 20
69.33903
 30
0.0
 11
31.019207
 21
69.33903
 31
0.0
  0
LINE
  5
4FE
100
AcDbEntity
  8
HATCH
100
AcDbLine
 10
30.550407
 20
69.33903
 30
0.0
 11
30.550407
 21
69.33903
 31
0.0
  0
LINE
  5
4FF
100
AcDbEntity
  8
HATCH
100
AcDbLine
 10
31.253607
 20
69.80773
 30
0.0
 11
31.253607
 21
69.80773
 31
0.0
  0
LINE
  5
500
100
AcDbEntity
  8
HATCH
100
AcDbLine
 10
30.784807
 20
69.80773
 30
0.0
 11
30.784807
 21
69.80773
 31
0.0
  0
LINE
  5
501
100
AcDbEntity
  8
HATCH
100
AcDbLine
 10
30.316107
 20
69.80773
 30
0.0
 11
30.316107
 21
69.80773
 31
0.0
  0
LINE
  5
502
100
AcDbEntity
  8
HATCH
100
AcDbLine
 10
31.019207
 20
70.27653
 30
0.0
 11
31.019207
 21
70.27653
 31
0.0
  0
LINE
  5
503
100
AcDbEntity
  8
HATCH
100
AcDbLine
 10
30.550407
 20
70.27653
 30
0.0
 11
30.550407
 21
70.27653
 31
0.0
  0
LINE
  5
504
100
AcDbEntity
  8
HATCH
100
AcDbLine
 10
31.253607
 20
70.74523
 30
0.0
 11
31.253607
 21
70.74523
 31
0.0
  0
LINE
  5
505
100
AcDbEntity
  8
HATCH
100
AcDbLine
 10
30.784807
 20
70.74523
 30
0.0
 11
30.784807
 21
70.74523
 31
0.0
  0
LINE
  5
506
100
AcDbEntity
  8
HATCH
100
AcDbLine
 10
30.316107
 20
70.74523
 30
0.0
 11
30.316107
 21
70.74523
 31
0.0
  0
LINE
  5
507
100
AcDbEntity
  8
HATCH
100
AcDbLine
 10
31.019207
 20
71.21403
 30
0.0
 11
31.019207
 21
71.21403
 31
0.0
  0
LINE
  5
508
100
AcDbEntity
  8
HATCH
100
AcDbLine
 10
30.550407
 20
71.21403
 30
0.0
 11
30.550407
 21
71.21403
 31
0.0
  0
LINE
  5
509
100
AcDbEntity
  8
HATCH
100
AcDbLine
 10
31.253607
 20
71.68273
 30
0.0
 11
31.253607
 21
71.68273
 31
0.0
  0
LINE
  5
50A
100
AcDbEntity
  8
HATCH
100
AcDbLine
 10
30.784807
 20
71.68273
 30
0.0
 11
30.784807
 21
71.68273
 31
0.0
  0
LINE
  5
50B
100
AcDbEntity
  8
HATCH
100
AcDbLine
 10
30.316107
 20
71.68273
 30
0.0
 11
30.316107
 21
71.68273
 31
0.0
  0
LINE
  5
50C
100
AcDbEntity
  8
HATCH
100
AcDbLine
 10
28.063907
 20
68.65123
 30
0.0
 11
28.077507
 21
68.72843
 31
0.0
  0
LINE
  5
50D
100
AcDbEntity
  8
HATCH
100
AcDbLine
 10
28.064607
 20
72.76773
 30
0.0
 11
26.115607
 21
76.07513
 31
0.0
  0
LINE
  5
50E
100
AcDbEntity
  8
HATCH
100
AcDbLine
 10
27.411307
 20
72.05043
 30
0.0
 11
27.352407
 21
72.02923
 31
0.0
  0
LINE
  5
50F
100
AcDbEntity
  8
HATCH
100
AcDbLine
 10
26.556307
 20
74.39983
 30
0.0
 11
26.497507
 21
74.37833
 31
0.0
  0
LINE
  5
510
100
AcDbEntity
  8
HATCH
100
AcDbLine
 10
24.206907
 20
73.54483
 30
0.0
 11
24.148107
 21
73.52333
 31
0.0
  0
LINE
  5
511
100
AcDbEntity
  8
HATCH
100
AcDbLine
 10
26.842207
 20
73.76533
 30
0.0
 11
26.806307
 21
73.71403
 31
0.0
  0
LINE
  5
512
100
AcDbEntity
  8
HATCH
100
AcDbLine
 10
26.130307
 20
74.18103
 30
0.0
 11
26.119507
 21
74.11933
 31
0.0
  0
LINE
  5
513
100
AcDbEntity
  8
HATCH
100
AcDbLine
 10
26.115607
 20
76.07513
 30
0.0
 11
25.465707
 21
74.42153
 31
0.0
  0
LINE
  5
514
100
AcDbEntity
  8
HATCH
100
AcDbLine
 10
29.760607
 20
72.90563
 30
0.0
 11
29.701807
 21
72.88423
 31
0.0
  0
LINE
  5
515
100
AcDbEntity
  8
HATCH
100
AcDbLine
 10
28.890007
 20
72.33123
 30
0.0
 11
28.854107
 21
72.27993
 31
0.0
  0
LINE
  5
516
100
AcDbEntity
  8
HATCH
100
AcDbLine
 10
28.591907
 20
73.74693
 30
0.0
 11
28.581207
 21
73.68523
 31
0.0
  0
LINE
  5
517
100
AcDbEntity
  8
HATCH
100
AcDbLine
 10
31.019207
 20
72.15153
 30
0.0
 11
31.019207
 21
72.15153
 31
0.0
  0
LINE
  5
518
100
AcDbEntity
  8
HATCH
100
AcDbLine
 10
30.550407
 20
72.15153
 30
0.0
 11
30.550407
 21
72.15153
 31
0.0
  0
LINE
  5
519
100
AcDbEntity
  8
HATCH
100
AcDbLine
 10
31.253607
 20
72.62023
 30
0.0
 11
31.253607
 21
72.62023
 31
0.0
  0
LINE
  5
51A
100
AcDbEntity
  8
HATCH
100
AcDbLine
 10
30.784807
 20
72.62023
 30
0.0
 11
30.784807
 21
72.62023
 31
0.0
  0
LINE
  5
51B
100
AcDbEntity
  8
HATCH
100
AcDbLine
 10
30.316107
 20
72.62023
 30
0.0
 11
30.316107
 21
72.62023
 31
0.0
  0
LINE
  5
51C
100
AcDbEntity
  8
HATCH
100
AcDbLine
 10
31.019207
 20
73.08903
 30
0.0
 11
31.019207
 21
73.08903
 31
0.0
  0
LINE
  5
51D
100
AcDbEntity
  8
HATCH
100
AcDbLine
 10
30.550407
 20
73.08903
 30
0.0
 11
30.550407
 21
73.08903
 31
0.0
  0
LINE
  5
51E
100
AcDbEntity
  8
HATCH
100
AcDbLine
 10
31.253607
 20
73.55773
 30
0.0
 11
31.253607
 21
73.55773
 31
0.0
  0
LINE
  5
51F
100
AcDbEntity
  8
HATCH
100
AcDbLine
 10
30.784807
 20
73.55773
 30
0.0
 11
30.784807
 21
73.55773
 31
0.0
  0
LINE
  5
520
100
AcDbEntity
  8
HATCH
100
AcDbLine
 10
30.316107
 20
73.55773
 30
0.0
 11
30.316107
 21
73.55773
 31
0.0
  0
LINE
  5
521
100
AcDbEntity
  8
HATCH
100
AcDbLine
 10
31.019207
 20
74.02653
 30
0.0
 11
31.019207
 21
74.02653
 31
0.0
  0
LINE
  5
522
100
AcDbEntity
  8
HATCH
100
AcDbLine
 10
30.550407
 20
74.02653
 30
0.0
 11
30.550407
 21
74.02653
 31
0.0
  0
LINE
  5
523
100
AcDbEntity
  8
HATCH
100
AcDbLine
 10
28.891507
 20
74.42153
 30
0.0
 11
28.064607
 21
72.76773
 31
0.0
  0
LINE
  5
524
100
AcDbEntity
  8
DRAWING
100
AcDbLine
 10
32.169107
 20
51.39073
 30
0.0
 11
32.169107
 21
66.39073
 31
0.0
  0
LINE
  5
525
100
AcDbEntity
  8
HATCH
100
AcDbLine
 10
31.956707
 20
51.52653
 30
0.0
 11
31.956707
 21
51.52653
 31
0.0
  0
LINE
  5
526
100
AcDbEntity
  8
HATCH
100
AcDbLine
 10
31.487907
 20
51.52653
 30
0.0
 11
31.487907
 21
51.52653
 31
0.0
  0
LINE
  5
527
100
AcDbEntity
  8
HATCH
100
AcDbLine
 10
31.722307
 20
51.99523
 30
0.0
 11
31.722307
 21
51.99523
 31
0.0
  0
LINE
  5
528
100
AcDbEntity
  8
HATCH
100
AcDbLine
 10
31.956707
 20
52.46403
 30
0.0
 11
31.956707
 21
52.46403
 31
0.0
  0
LINE
  5
529
100
AcDbEntity
  8
HATCH
100
AcDbLine
 10
31.487907
 20
52.46403
 30
0.0
 11
31.487907
 21
52.46403
 31
0.0
  0
LINE
  5
52A
100
AcDbEntity
  8
HATCH
100
AcDbLine
 10
31.722307
 20
52.93273
 30
0.0
 11
31.722307
 21
52.93273
 31
0.0
  0
LINE
  5
52B
100
AcDbEntity
  8
HATCH
100
AcDbLine
 10
31.956707
 20
53.40153
 30
0.0
 11
31.956707
 21
53.40153
 31
0.0
  0
LINE
  5
52C
100
AcDbEntity
  8
HATCH
100
AcDbLine
 10
31.487907
 20
53.40153
 30
0.0
 11
31.487907
 21
53.40153
 31
0.0
  0
LINE
  5
52D
100
AcDbEntity
  8
HATCH
100
AcDbLine
 10
31.722307
 20
53.87023
 30
0.0
 11
31.722307
 21
53.87023
 31
0.0
  0
LINE
  5
52E
100
AcDbEntity
  8
HATCH
100
AcDbLine
 10
31.956707
 20
54.33903
 30
0.0
 11
31.956707
 21
54.33903
 31
0.0
  0
LINE
  5
52F
100
AcDbEntity
  8
HATCH
100
AcDbLine
 10
31.487907
 20
54.33903
 30
0.0
 11
31.487907
 21
54.33903
 31
0.0
  0
LINE
  5
530
100
AcDbEntity
  8
HATCH
100
AcDbLine
 10
31.722307
 20
54.80773
 30
0.0
 11
31.722307
 21
54.80773
 31
0.0
  0
LINE
  5
531
100
AcDbEntity
  8
HATCH
100
AcDbLine
 10
31.956707
 20
55.27653
 30
0.0
 11
31.956707
 21
55.27653
 31
0.0
  0
LINE
  5
532
100
AcDbEntity
  8
HATCH
100
AcDbLine
 10
31.487907
 20
55.27653
 30
0.0
 11
31.487907
 21
55.27653
 31
0.0
  0
LINE
  5
533
100
AcDbEntity
  8
HATCH
100
AcDbLine
 10
31.722307
 20
55.74523
 30
0.0
 11
31.722307
 21
55.74523
 31
0.0
  0
LINE
  5
534
100
AcDbEntity
  8
HATCH
100
AcDbLine
 10
31.956707
 20
56.21403
 30
0.0
 11
31.956707
 21
56.21403
 31
0.0
  0
LINE
  5
535
100
AcDbEntity
  8
HATCH
100
AcDbLine
 10
31.487907
 20
56.21403
 30
0.0
 11
31.487907
 21
56.21403
 31
0.0
  0
LINE
  5
536
100
AcDbEntity
  8
HATCH
100
AcDbLine
 10
31.956707
 20
49.46633
 30
0.0
 11
31.956707
 21
49.46633
 31
0.0
  0
LINE
  5
537
100
AcDbEntity
  8
HATCH
100
AcDbLine
 10
31.487907
 20
49.46633
 30
0.0
 11
31.487907
 21
49.46633
 31
0.0
  0
LINE
  5
538
100
AcDbEntity
  8
HATCH
100
AcDbLine
 10
31.722307
 20
49.93513
 30
0.0
 11
31.722307
 21
49.93513
 31
0.0
  0
LINE
  5
539
100
AcDbEntity
  8
HATCH
100
AcDbLine
 10
31.956707
 20
50.40383
 30
0.0
 11
31.956707
 21
50.40383
 31
0.0
  0
LINE
  5
53A
100
AcDbEntity
  8
HATCH
100
AcDbLine
 10
31.487907
 20
50.40383
 30
0.0
 11
31.487907
 21
50.40383
 31
0.0
  0
LINE
  5
53B
100
AcDbEntity
  8
HATCH
100
AcDbLine
 10
31.722307
 20
50.87263
 30
0.0
 11
31.722307
 21
50.87263
 31
0.0
  0
LINE
  5
53C
100
AcDbEntity
  8
HATCH
100
AcDbLine
 10
31.722307
 20
56.68273
 30
0.0
 11
31.722307
 21
56.68273
 31
0.0
  0
LINE
  5
53D
100
AcDbEntity
  8
HATCH
100
AcDbLine
 10
31.956707
 20
57.15153
 30
0.0
 11
31.956707
 21
57.15153
 31
0.0
  0
LINE
  5
53E
100
AcDbEntity
  8
HATCH
100
AcDbLine
 10
31.487907
 20
57.15153
 30
0.0
 11
31.487907
 21
57.15153
 31
0.0
  0
LINE
  5
53F
100
AcDbEntity
  8
HATCH
100
AcDbLine
 10
31.722307
 20
57.62023
 30
0.0
 11
31.722307
 21
57.62023
 31
0.0
  0
LINE
  5
540
100
AcDbEntity
  8
HATCH
100
AcDbLine
 10
31.956707
 20
58.08903
 30
0.0
 11
31.956707
 21
58.08903
 31
0.0
  0
LINE
  5
541
100
AcDbEntity
  8
HATCH
100
AcDbLine
 10
31.487907
 20
58.08903
 30
0.0
 11
31.487907
 21
58.08903
 31
0.0
  0
LINE
  5
542
100
AcDbEntity
  8
HATCH
100
AcDbLine
 10
31.722307
 20
58.55773
 30
0.0
 11
31.722307
 21
58.55773
 31
0.0
  0
LINE
  5
543
100
AcDbEntity
  8
HATCH
100
AcDbLine
 10
31.956707
 20
59.02653
 30
0.0
 11
31.956707
 21
59.02653
 31
0.0
  0
LINE
  5
544
100
AcDbEntity
  8
HATCH
100
AcDbLine
 10
31.487907
 20
59.02653
 30
0.0
 11
31.487907
 21
59.02653
 31
0.0
  0
LINE
  5
545
100
AcDbEntity
  8
HATCH
100
AcDbLine
 10
31.722307
 20
59.49523
 30
0.0
 11
31.722307
 21
59.49523
 31
0.0
  0
LINE
  5
546
100
AcDbEntity
  8
HATCH
100
AcDbLine
 10
31.956707
 20
59.96403
 30
0.0
 11
31.956707
 21
59.96403
 31
0.0
  0
LINE
  5
547
100
AcDbEntity
  8
HATCH
100
AcDbLine
 10
31.487907
 20
59.96403
 30
0.0
 11
31.487907
 21
59.96403
 31
0.0
  0
LINE
  5
548
100
AcDbEntity
  8
HATCH
100
AcDbLine
 10
31.722307
 20
60.43273
 30
0.0
 11
31.722307
 21
60.43273
 31
0.0
  0
LINE
  5
549
100
AcDbEntity
  8
HATCH
100
AcDbLine
 10
31.956707
 20
60.90153
 30
0.0
 11
31.956707
 21
60.90153
 31
0.0
  0
LINE
  5
54A
100
AcDbEntity
  8
HATCH
100
AcDbLine
 10
31.487907
 20
60.90153
 30
0.0
 11
31.487907
 21
60.90153
 31
0.0
  0
LINE
  5
54B
100
AcDbEntity
  8
HATCH
100
AcDbLine
 10
31.722307
 20
61.37023
 30
0.0
 11
31.722307
 21
61.37023
 31
0.0
  0
LINE
  5
54C
100
AcDbEntity
  8
HATCH
100
AcDbLine
 10
31.956707
 20
61.83903
 30
0.0
 11
31.956707
 21
61.83903
 31
0.0
  0
LINE
  5
54D
100
AcDbEntity
  8
HATCH
100
AcDbLine
 10
31.487907
 20
61.83903
 30
0.0
 11
31.487907
 21
61.83903
 31
0.0
  0
LINE
  5
54E
100
AcDbEntity
  8
HATCH
100
AcDbLine
 10
31.722307
 20
62.30773
 30
0.0
 11
31.722307
 21
62.30773
 31
0.0
  0
LINE
  5
54F
100
AcDbEntity
  8
HATCH
100
AcDbLine
 10
31.956707
 20
62.77653
 30
0.0
 11
31.956707
 21
62.77653
 31
0.0
  0
LINE
  5
550
100
AcDbEntity
  8
HATCH
100
AcDbLine
 10
31.487907
 20
62.77653
 30
0.0
 11
31.487907
 21
62.77653
 31
0.0
  0
LINE
  5
551
100
AcDbEntity
  8
HATCH
100
AcDbLine
 10
31.722307
 20
63.24523
 30
0.0
 11
31.722307
 21
63.24523
 31
0.0
  0
LINE
  5
552
100
AcDbEntity
  8
HATCH
100
AcDbLine
 10
31.956707
 20
63.71403
 30
0.0
 11
31.956707
 21
63.71403
 31
0.0
  0
LINE
  5
553
100
AcDbEntity
  8
HATCH
100
AcDbLine
 10
31.487907
 20
63.71403
 30
0.0
 11
31.487907
 21
63.71403
 31
0.0
  0
LINE
  5
554
100
AcDbEntity
  8
DRAWING
100
AcDbLine
 10
32.169107
 20
66.39073
 30
0.0
 11
32.169107
 21
74.42153
 31
0.0
  0
LINE
  5
555
100
AcDbEntity
  8
HATCH
100
AcDbLine
 10
31.722307
 20
64.18273
 30
0.0
 11
31.722307
 21
64.18273
 31
0.0
  0
LINE
  5
556
100
AcDbEntity
  8
HATCH
100
AcDbLine
 10
31.956707
 20
64.65153
 30
0.0
 11
31.956707
 21
64.65153
 31
0.0
  0
LINE
  5
557
100
AcDbEntity
  8
HATCH
100
AcDbLine
 10
31.487907
 20
64.65153
 30
0.0
 11
31.487907
 21
64.65153
 31
0.0
  0
LINE
  5
558
100
AcDbEntity
  8
HATCH
100
AcDbLine
 10
31.722307
 20
65.12023
 30
0.0
 11
31.722307
 21
65.12023
 31
0.0
  0
LINE
  5
559
100
AcDbEntity
  8
HATCH
100
AcDbLine
 10
31.956707
 20
65.58903
 30
0.0
 11
31.956707
 21
65.58903
 31
0.0
  0
LINE
  5
55A
100
AcDbEntity
  8
HATCH
100
AcDbLine
 10
31.487907
 20
65.58903
 30
0.0
 11
31.487907
 21
65.58903
 31
0.0
  0
LINE
  5
55B
100
AcDbEntity
  8
HATCH
100
AcDbLine
 10
31.722307
 20
66.05773
 30
0.0
 11
31.722307
 21
66.05773
 31
0.0
  0
LINE
  5
55C
100
AcDbEntity
  8
HATCH
100
AcDbLine
 10
31.956707
 20
66.52653
 30
0.0
 11
31.956707
 21
66.52653
 31
0.0
  0
LINE
  5
55D
100
AcDbEntity
  8
HATCH
100
AcDbLine
 10
31.487907
 20
66.52653
 30
0.0
 11
31.487907
 21
66.52653
 31
0.0
  0
LINE
  5
55E
100
AcDbEntity
  8
HATCH
100
AcDbLine
 10
31.722307
 20
66.99523
 30
0.0
 11
31.722307
 21
66.99523
 31
0.0
  0
LINE
  5
55F
100
AcDbEntity
  8
HATCH
100
AcDbLine
 10
31.956707
 20
67.46403
 30
0.0
 11
31.956707
 21
67.46403
 31
0.0
  0
LINE
  5
560
100
AcDbEntity
  8
HATCH
100
AcDbLine
 10
31.487907
 20
67.46403
 30
0.0
 11
31.487907
 21
67.46403
 31
0.0
  0
LINE
  5
561
100
AcDbEntity
  8
HATCH
100
AcDbLine
 10
31.722307
 20
67.93273
 30
0.0
 11
31.722307
 21
67.93273
 31
0.0
  0
LINE
  5
562
100
AcDbEntity
  8
HATCH
100
AcDbLine
 10
31.956707
 20
68.40153
 30
0.0
 11
31.956707
 21
68.40153
 31
0.0
  0
LINE
  5
563
100
AcDbEntity
  8
HATCH
100
AcDbLine
 10
31.487907
 20
68.40153
 30
0.0
 11
31.487907
 21
68.40153
 31
0.0
  0
LINE
  5
564
100
AcDbEntity
  8
HATCH
100
AcDbLine
 10
31.722307
 20
68.87023
 30
0.0
 11
31.722307
 21
68.87023
 31
0.0
  0
LINE
  5
565
100
AcDbEntity
  8
HATCH
100
AcDbLine
 10
31.956707
 20
69.33903
 30
0.0
 11
31.956707
 21
69.33903
 31
0.0
  0
LINE
  5
566
100
AcDbEntity
  8
HATCH
100
AcDbLine
 10
31.487907
 20
69.33903
 30
0.0
 11
31.487907
 21
69.33903
 31
0.0
  0
LINE
  5
567
100
AcDbEntity
  8
HATCH
100
AcDbLine
 10
31.722307
 20
69.80773
 30
0.0
 11
31.722307
 21
69.80773
 31
0.0
  0
LINE
  5
568
100
AcDbEntity
  8
HATCH
100
AcDbLine
 10
31.956707
 20
70.27653
 30
0.0
 11
31.956707
 21
70.27653
 31
0.0
  0
LINE
  5
569
100
AcDbEntity
  8
HATCH
100
AcDbLine
 10
31.487907
 20
70.27653
 30
0.0
 11
31.487907
 21
70.27653
 31
0.0
  0
LINE
  5
56A
100
AcDbEntity
  8
HATCH
100
AcDbLine
 10
31.722307
 20
70.74523
 30
0.0
 11
31.722307
 21
70.74523
 31
0.0
  0
LINE
  5
56B
100
AcDbEntity
  8
HATCH
100
AcDbLine
 10
31.956707
 20
71.21403
 30
0.0
 11
31.956707
 21
71.21403
 31
0.0
  0
LINE
  5
56C
100
AcDbEntity
  8
HATCH
100
AcDbLine
 10
31.487907
 20
71.21403
 30
0.0
 11
31.487907
 21
71.21403
 31
0.0
  0
LINE
  5
56D
100
AcDbEntity
  8
HATCH
100
AcDbLine
 10
31.722307
 20
71.68273
 30
0.0
 11
31.722307
 21
71.68273
 31
0.0
  0
LINE
  5
56E
100
AcDbEntity
  8
HATCH
100
AcDbLine
 10
31.956707
 20
72.15153
 30
0.0
 11
31.956707
 21
72.15153
 31
0.0
  0
LINE
  5
56F
100
AcDbEntity
  8
HATCH
100
AcDbLine
 10
31.487907
 20
72.15153
 30
0.0
 11
31.487907
 21
72.15153
 31
0.0
  0
LINE
  5
570
100
AcDbEntity
  8
HATCH
100
AcDbLine
 10
31.722307
 20
72.62023
 30
0.0
 11
31.722307
 21
72.62023
 31
0.0
  0
LINE
  5
571
100
AcDbEntity
  8
HATCH
100
AcDbLine
 10
31.956707
 20
73.08903
 30
0.0
 11
31.956707
 21
73.08903
 31
0.0
  0
LINE
  5
572
100
AcDbEntity
  8
HATCH
100
AcDbLine
 10
31.487907
 20
73.08903
 30
0.0
 11
31.487907
 21
73.08903
 31
0.0
  0
LINE
  5
573
100
AcDbEntity
  8
HATCH
100
AcDbLine
 10
31.722307
 20
73.55773
 30
0.0
 11
31.722307
 21
73.55773
 31
0.0
  0
LINE
  5
574
100
AcDbEntity
  8
HATCH
100
AcDbLine
 10
31.956707
 20
74.02653
 30
0.0
 11
31.956707
 21
74.02653
 31
0.0
  0
LINE
  5
575
100
AcDbEntity
  8
HATCH
100
AcDbLine
 10
31.487907
 20
74.02653
 30
0.0
 11
31.487907
 21
74.02653
 31
0.0
  0
LINE
  5
576
100
AcDbEntity
  8
DIM_TEXT
100
AcDbLine
 10
42.983707
 20
77.08423
 30
0.0
 11
40.857407
 21
77.08423
 31
0.0
  0
LINE
  5
577
100
AcDbEntity
  8
DRAWING
100
AcDbLine
 10
67.699707
 20
36.34453
 30
0.0
 11
59.669107
 21
36.34453
 31
0.0
  0
LINE
  5
578
100
AcDbEntity
  8
DRAWING
100
AcDbLine
 10
59.669107
 20
26.34453
 30
0.0
 11
67.699707
 21
26.34453
 31
0.0
  0
LINE
  5
579
100
AcDbEntity
  8
DRAWING
100
AcDbLine
 10
59.669107
 20
28.21953
 30
0.0
 11
67.699707
 21
28.21953
 31
0.0
  0
LINE
  5
57A
100
AcDbEntity
  8
DRAWING
100
AcDbLine
 10
67.699707
 20
34.46953
 30
0.0
 11
59.669107
 21
34.46953
 31
0.0
  0
ARC
  5
57B
100
AcDbEntity
  8
DRAWING
100
AcDbCircle
 10
59.669107
 20
31.34453
 30
0.0
 40
3.0
100
AcDbArc
 50
270.0
 51
90.0
  0
ARC
  5
57C
100
AcDbEntity
  8
DRAWING
100
AcDbCircle
 10
59.669107
 20
31.34453
 30
0.0
 40
3.0
100
AcDbArc
 50
90.0
 51
270.0
  0
LINE
  5
57D
100
AcDbEntity
  8
HATCH
100
AcDbLine
 10
46.679907
 20
26.55693
 30
0.0
 11
46.679907
 21
26.55693
 31
0.0
  0
LINE
  5
57E
100
AcDbEntity
  8
HATCH
100
AcDbLine
 10
47.617407
 20
26.55693
 30
0.0
 11
47.617407
 21
26.55693
 31
0.0
  0
LINE
  5
57F
100
AcDbEntity
  8
HATCH
100
AcDbLine
 10
48.554907
 20
26.55693
 30
0.0
 11
48.554907
 21
26.55693
 31
0.0
  0
LINE
  5
580
100
AcDbEntity
  8
HATCH
100
AcDbLine
 10
49.492407
 20
26.55693
 30
0.0
 11
49.492407
 21
26.55693
 31
0.0
  0
TEXT
  5
581
100
AcDbEntity
  8
DIM_TEXT
100
AcDbText
 10
50.803007
 20
20.36223
 30
0.0
 40
1.125
  1
15"
 51
15.0
  7
INFO
100
AcDbText
  0
LINE
  5
582
100
AcDbEntity
  8
HATCH
100
AcDbLine
 10
50.429907
 20
26.55693
 30
0.0
 11
50.429907
 21
26.55693
 31
0.0
  0
LINE
  5
583
100
AcDbEntity
  8
HATCH
100
AcDbLine
 10
51.367407
 20
26.55693
 30
0.0
 11
51.367407
 21
26.55693
 31
0.0
  0
LINE
  5
584
100
AcDbEntity
  8
HATCH
100
AcDbLine
 10
52.304907
 20
26.55693
 30
0.0
 11
52.304907
 21
26.55693
 31
0.0
  0
LINE
  5
585
100
AcDbEntity
  8
HATCH
100
AcDbLine
 10
53.242407
 20
26.55693
 30
0.0
 11
53.242407
 21
26.55693
 31
0.0
  0
LINE
  5
586
100
AcDbEntity
  8
HATCH
100
AcDbLine
 10
49.995607
 20
33.10553
 30
0.0
 11
49.944407
 21
33.14143
 31
0.0
  0
LINE
  5
587
100
AcDbEntity
  8
HATCH
100
AcDbLine
 10
49.997307
 20
32.81743
 30
0.0
 11
49.935807
 21
32.82813
 31
0.0
  0
LINE
  5
588
100
AcDbEntity
  8
HATCH
100
AcDbLine
 10
47.979607
 20
30.24733
 30
0.0
 11
47.958207
 21
30.30623
 31
0.0
  0
LINE
  5
589
100
AcDbEntity
  8
HATCH
100
AcDbLine
 10
49.473807
 20
33.45173
 30
0.0
 11
49.452507
 21
33.51053
 31
0.0
  0
LINE
  5
58A
100
AcDbEntity
  8
HATCH
100
AcDbLine
 10
47.127807
 20
29.00953
 30
0.0
 11
47.076607
 21
29.04543
 31
0.0
  0
LINE
  5
58B
100
AcDbEntity
  8
HATCH
100
AcDbLine
 10
48.561707
 20
31.05763
 30
0.0
 11
48.510507
 21
31.09353
 31
0.0
  0
LINE
  5
58C
100
AcDbEntity
  8
HATCH
100
AcDbLine
 10
46.667107
 20
28.32793
 30
0.0
 11
46.605507
 21
28.33863
 31
0.0
  0
LINE
  5
58D
100
AcDbEntity
  8
HATCH
100
AcDbLine
 10
49.563207
 20
30.35573
 30
0.0
 11
49.501707
 21
30.36653
 31
0.0
  0
LINE
  5
58E
100
AcDbEntity
  8
HATCH
100
AcDbLine
 10
47.535207
 20
33.25153
 30
0.0
 11
47.473707
 21
33.26223
 31
0.0
  0
LINE
  5
58F
100
AcDbEntity
  8
HATCH
100
AcDbLine
 10
46.679907
 20
27.02563
 30
0.0
 11
46.679907
 21
27.02563
 31
0.0
  0
LINE
  5
590
100
AcDbEntity
  8
HATCH
100
AcDbLine
 10
46.679907
 20
27.49443
 30
0.0
 11
46.679907
 21
27.49443
 31
0.0
  0
LINE
  5
591
100
AcDbEntity
  8
HATCH
100
AcDbLine
 10
46.679907
 20
27.96313
 30
0.0
 11
46.679907
 21
27.96313
 31
0.0
  0
LINE
  5
592
100
AcDbEntity
  8
HATCH
100
AcDbLine
 10
47.148607
 20
26.79133
 30
0.0
 11
47.148607
 21
26.79133
 31
0.0
  0
LINE
  5
593
100
AcDbEntity
  8
HATCH
100
AcDbLine
 10
47.148607
 20
27.26003
 30
0.0
 11
47.148607
 21
27.26003
 31
0.0
  0
LINE
  5
594
100
AcDbEntity
  8
HATCH
100
AcDbLine
 10
47.148607
 20
27.72883
 30
0.0
 11
47.148607
 21
27.72883
 31
0.0
  0
LINE
  5
595
100
AcDbEntity
  8
HATCH
100
AcDbLine
 10
47.148607
 20
28.19753
 30
0.0
 11
47.148607
 21
28.19753
 31
0.0
  0
LINE
  5
596
100
AcDbEntity
  8
HATCH
100
AcDbLine
 10
47.617407
 20
27.02563
 30
0.0
 11
47.617407
 21
27.02563
 31
0.0
  0
LINE
  5
597
100
AcDbEntity
  8
HATCH
100
AcDbLine
 10
47.617407
 20
27.49443
 30
0.0
 11
47.617407
 21
27.49443
 31
0.0
  0
LINE
  5
598
100
AcDbEntity
  8
HATCH
100
AcDbLine
 10
47.617407
 20
27.96313
 30
0.0
 11
47.617407
 21
27.96313
 31
0.0
  0
LINE
  5
599
100
AcDbEntity
  8
HATCH
100
AcDbLine
 10
48.086207
 20
26.79133
 30
0.0
 11
48.086207
 21
26.79133
 31
0.0
  0
LINE
  5
59A
100
AcDbEntity
  8
HATCH
100
AcDbLine
 10
48.086207
 20
27.26003
 30
0.0
 11
48.086207
 21
27.26003
 31
0.0
  0
LINE
  5
59B
100
AcDbEntity
  8
HATCH
100
AcDbLine
 10
48.086207
 20
27.72883
 30
0.0
 11
48.086207
 21
27.72883
 31
0.0
  0
LINE
  5
59C
100
AcDbEntity
  8
HATCH
100
AcDbLine
 10
48.086207
 20
28.19753
 30
0.0
 11
48.086207
 21
28.19753
 31
0.0
  0
LINE
  5
59D
100
AcDbEntity
  8
HATCH
100
AcDbLine
 10
48.554907
 20
27.02563
 30
0.0
 11
48.554907
 21
27.02563
 31
0.0
  0
LINE
  5
59E
100
AcDbEntity
  8
HATCH
100
AcDbLine
 10
48.554907
 20
27.49443
 30
0.0
 11
48.554907
 21
27.49443
 31
0.0
  0
LINE
  5
59F
100
AcDbEntity
  8
HATCH
100
AcDbLine
 10
48.554907
 20
27.96313
 30
0.0
 11
48.554907
 21
27.96313
 31
0.0
  0
LINE
  5
5A0
100
AcDbEntity
  8
HATCH
100
AcDbLine
 10
49.023707
 20
26.79133
 30
0.0
 11
49.023707
 21
26.79133
 31
0.0
  0
LINE
  5
5A1
100
AcDbEntity
  8
HATCH
100
AcDbLine
 10
49.023707
 20
27.26003
 30
0.0
 11
49.023707
 21
27.26003
 31
0.0
  0
LINE
  5
5A2
100
AcDbEntity
  8
HATCH
100
AcDbLine
 10
49.023707
 20
27.72883
 30
0.0
 11
49.023707
 21
27.72883
 31
0.0
  0
LINE
  5
5A3
100
AcDbEntity
  8
HATCH
100
AcDbLine
 10
49.023707
 20
28.19753
 30
0.0
 11
49.023707
 21
28.19753
 31
0.0
  0
LINE
  5
5A4
100
AcDbEntity
  8
HATCH
100
AcDbLine
 10
49.492407
 20
27.02563
 30
0.0
 11
49.492407
 21
27.02563
 31
0.0
  0
LINE
  5
5A5
100
AcDbEntity
  8
HATCH
100
AcDbLine
 10
49.492407
 20
27.49443
 30
0.0
 11
49.492407
 21
27.49443
 31
0.0
  0
LINE
  5
5A6
100
AcDbEntity
  8
HATCH
100
AcDbLine
 10
49.492407
 20
27.96313
 30
0.0
 11
49.492407
 21
27.96313
 31
0.0
  0
LINE
  5
5A7
100
AcDbEntity
  8
HATCH
100
AcDbLine
 10
49.961207
 20
26.79133
 30
0.0
 11
49.961207
 21
26.79133
 31
0.0
  0
LINE
  5
5A8
100
AcDbEntity
  8
HATCH
100
AcDbLine
 10
49.961207
 20
27.26003
 30
0.0
 11
49.961207
 21
27.26003
 31
0.0
  0
LINE
  5
5A9
100
AcDbEntity
  8
HATCH
100
AcDbLine
 10
49.961207
 20
27.72883
 30
0.0
 11
49.961207
 21
27.72883
 31
0.0
  0
LINE
  5
5AA
100
AcDbEntity
  8
HATCH
100
AcDbLine
 10
49.961207
 20
28.19753
 30
0.0
 11
49.961207
 21
28.19753
 31
0.0
  0
LINE
  5
5AB
100
AcDbEntity
  8
HATCH
100
AcDbLine
 10
46.789607
 20
31.86383
 30
0.0
 11
46.816407
 21
31.79033
 31
0.0
  0
LINE
  5
5AC
100
AcDbEntity
  8
HATCH
100
AcDbLine
 10
46.929807
 20
30.44973
 30
0.0
 11
47.006707
 21
30.43603
 31
0.0
  0
CIRCLE
  5
5AD
100
AcDbEntity
  8
DRAWING
100
AcDbCircle
 10
46.675307
 20
31.80713
 30
0.0
 40
0.375
  0
LINE
  5
5AE
100
AcDbEntity
  8
HATCH
100
AcDbLine
 10
51.183907
 20
28.75293
 30
0.0
 11
51.162607
 21
28.81183
 31
0.0
  0
LINE
  5
5AF
100
AcDbEntity
  8
HATCH
100
AcDbLine
 10
50.328907
 20
31.10233
 30
0.0
 11
50.307507
 21
31.16113
 31
0.0
  0
LINE
  5
5B0
100
AcDbEntity
  8
HATCH
100
AcDbLine
 10
53.533207
 20
29.60793
 30
0.0
 11
53.511807
 21
29.66673
 31
0.0
  0
LINE
  5
5B1
100
AcDbEntity
  8
HATCH
100
AcDbLine
 10
52.678107
 20
31.95733
 30
0.0
 11
52.656807
 21
32.01613
 31
0.0
  0
LINE
  5
5B2
100
AcDbEntity
  8
HATCH
100
AcDbLine
 10
50.609607
 20
29.62353
 30
0.0
 11
50.558407
 21
29.65943
 31
0.0
  0
LINE
  5
5B3
100
AcDbEntity
  8
HATCH
100
AcDbLine
 10
52.043507
 20
31.67143
 30
0.0
 11
51.992307
 21
31.70733
 31
0.0
  0
LINE
  5
5B4
100
AcDbEntity
  8
HATCH
100
AcDbLine
 10
53.477407
 20
33.71923
 30
0.0
 11
53.426207
 21
33.75513
 31
0.0
  0
LINE
  5
5B5
100
AcDbEntity
  8
HATCH
100
AcDbLine
 10
52.025207
 20
29.92163
 30
0.0
 11
51.963707
 21
29.93243
 31
0.0
  0
LINE
  5
5B6
100
AcDbEntity
  8
HATCH
100
AcDbLine
 10
52.459307
 20
32.38333
 30
0.0
 11
52.397807
 21
32.39403
 31
0.0
  0
LINE
  5
5B7
100
AcDbEntity
  8
HATCH
100
AcDbLine
 10
50.429907
 20
27.02563
 30
0.0
 11
50.429907
 21
27.02563
 31
0.0
  0
LINE
  5
5B8
100
AcDbEntity
  8
HATCH
100
AcDbLine
 10
50.429907
 20
27.49443
 30
0.0
 11
50.429907
 21
27.49443
 31
0.0
  0
LINE
  5
5B9
100
AcDbEntity
  8
HATCH
100
AcDbLine
 10
50.429907
 20
27.96313
 30
0.0
 11
50.429907
 21
27.96313
 31
0.0
  0
LINE
  5
5BA
100
AcDbEntity
  8
HATCH
100
AcDbLine
 10
50.898707
 20
26.79133
 30
0.0
 11
50.898707
 21
26.79133
 31
0.0
  0
LINE
  5
5BB
100
AcDbEntity
  8
HATCH
100
AcDbLine
 10
50.898707
 20
27.26003
 30
0.0
 11
50.898707
 21
27.26003
 31
0.0
  0
LINE
  5
5BC
100
AcDbEntity
  8
HATCH
100
AcDbLine
 10
50.898707
 20
27.72883
 30
0.0
 11
50.898707
 21
27.72883
 31
0.0
  0
LINE
  5
5BD
100
AcDbEntity
  8
HATCH
100
AcDbLine
 10
50.898707
 20
28.19753
 30
0.0
 11
50.898707
 21
28.19753
 31
0.0
  0
LINE
  5
5BE
100
AcDbEntity
  8
HATCH
100
AcDbLine
 10
51.367407
 20
27.02563
 30
0.0
 11
51.367407
 21
27.02563
 31
0.0
  0
LINE
  5
5BF
100
AcDbEntity
  8
HATCH
100
AcDbLine
 10
51.367407
 20
27.49443
 30
0.0
 11
51.367407
 21
27.49443
 31
0.0
  0
LINE
  5
5C0
100
AcDbEntity
  8
HATCH
100
AcDbLine
 10
51.367407
 20
27.96313
 30
0.0
 11
51.367407
 21
27.96313
 31
0.0
  0
LINE
  5
5C1
100
AcDbEntity
  8
HATCH
100
AcDbLine
 10
51.836207
 20
26.79133
 30
0.0
 11
51.836207
 21
26.79133
 31
0.0
  0
LINE
  5
5C2
100
AcDbEntity
  8
HATCH
100
AcDbLine
 10
51.836207
 20
27.26003
 30
0.0
 11
51.836207
 21
27.26003
 31
0.0
  0
LINE
  5
5C3
100
AcDbEntity
  8
HATCH
100
AcDbLine
 10
51.836207
 20
27.72883
 30
0.0
 11
51.836207
 21
27.72883
 31
0.0
  0
LINE
  5
5C4
100
AcDbEntity
  8
HATCH
100
AcDbLine
 10
51.836207
 20
28.19753
 30
0.0
 11
51.836207
 21
28.19753
 31
0.0
  0
LINE
  5
5C5
100
AcDbEntity
  8
HATCH
100
AcDbLine
 10
52.304907
 20
27.02563
 30
0.0
 11
52.304907
 21
27.02563
 31
0.0
  0
LINE
  5
5C6
100
AcDbEntity
  8
HATCH
100
AcDbLine
 10
52.304907
 20
27.49443
 30
0.0
 11
52.304907
 21
27.49443
 31
0.0
  0
LINE
  5
5C7
100
AcDbEntity
  8
HATCH
100
AcDbLine
 10
52.304907
 20
27.96313
 30
0.0
 11
52.304907
 21
27.96313
 31
0.0
  0
LINE
  5
5C8
100
AcDbEntity
  8
HATCH
100
AcDbLine
 10
52.773707
 20
26.79133
 30
0.0
 11
52.773707
 21
26.79133
 31
0.0
  0
LINE
  5
5C9
100
AcDbEntity
  8
HATCH
100
AcDbLine
 10
52.773707
 20
27.26003
 30
0.0
 11
52.773707
 21
27.26003
 31
0.0
  0
LINE
  5
5CA
100
AcDbEntity
  8
HATCH
100
AcDbLine
 10
52.773707
 20
27.72883
 30
0.0
 11
52.773707
 21
27.72883
 31
0.0
  0
LINE
  5
5CB
100
AcDbEntity
  8
HATCH
100
AcDbLine
 10
52.773707
 20
28.19753
 30
0.0
 11
52.773707
 21
28.19753
 31
0.0
  0
LINE
  5
5CC
100
AcDbEntity
  8
HATCH
100
AcDbLine
 10
53.242407
 20
27.02563
 30
0.0
 11
53.242407
 21
27.02563
 31
0.0
  0
LINE
  5
5CD
100
AcDbEntity
  8
HATCH
100
AcDbLine
 10
53.242407
 20
27.49443
 30
0.0
 11
53.242407
 21
27.49443
 31
0.0
  0
LINE
  5
5CE
100
AcDbEntity
  8
HATCH
100
AcDbLine
 10
53.242407
 20
27.96313
 30
0.0
 11
53.242407
 21
27.96313
 31
0.0
  0
LINE
  5
5CF
100
AcDbEntity
  8
DRAWING
100
AcDbLine
 10
59.669107
 20
28.21953
 30
0.0
 11
59.669107
 21
26.34453
 31
0.0
  0
LINE
  5
5D0
100
AcDbEntity
  8
DRAWING
100
AcDbLine
 10
59.669107
 20
26.34453
 30
0.0
 11
59.669107
 21
28.21953
 31
0.0
  0
LINE
  5
5D1
100
AcDbEntity
  8
DRAWING
100
AcDbLine
 10
59.669107
 20
28.21953
 30
0.0
 11
59.669107
 21
26.34453
 31
0.0
  0
LINE
  5
5D2
100
AcDbEntity
  8
DRAWING
100
AcDbLine
 10
59.669107
 20
26.34453
 30
0.0
 11
59.669107
 21
28.21953
 31
0.0
  0
LINE
  5
5D3
100
AcDbEntity
  8
HATCH
100
AcDbLine
 10
54.179907
 20
26.55693
 30
0.0
 11
54.179907
 21
26.55693
 31
0.0
  0
LINE
  5
5D4
100
AcDbEntity
  8
HATCH
100
AcDbLine
 10
55.117407
 20
26.55693
 30
0.0
 11
55.117407
 21
26.55693
 31
0.0
  0
LINE
  5
5D5
100
AcDbEntity
  8
HATCH
100
AcDbLine
 10
56.054907
 20
26.55693
 30
0.0
 11
56.054907
 21
26.55693
 31
0.0
  0
LINE
  5
5D6
100
AcDbEntity
  8
HATCH
100
AcDbLine
 10
56.992407
 20
26.55693
 30
0.0
 11
56.992407
 21
26.55693
 31
0.0
  0
LINE
  5
5D7
100
AcDbEntity
  8
DIM_TEXT
100
AcDbLine
 10
59.669107
 20
25.34453
 30
0.0
 11
59.669107
 21
19.36223
 31
0.0
  0
LINE
  5
5D8
100
AcDbEntity
  8
HATCH
100
AcDbLine
 10
57.929907
 20
26.55693
 30
0.0
 11
57.929907
 21
26.55693
 31
0.0
  0
LINE
  5
5D9
100
AcDbEntity
  8
HATCH
100
AcDbLine
 10
58.867407
 20
26.55693
 30
0.0
 11
58.867407
 21
26.55693
 31
0.0
  0
LINE
  5
5DA
100
AcDbEntity
  8
HATCH
100
AcDbLine
 10
59.804807
 20
26.55693
 30
0.0
 11
59.804807
 21
26.55693
 31
0.0
  0
LINE
  5
5DB
100
AcDbEntity
  8
HATCH
100
AcDbLine
 10
60.742307
 20
26.55693
 30
0.0
 11
60.742307
 21
26.55693
 31
0.0
  0
LINE
  5
5DC
100
AcDbEntity
  8
HATCH
100
AcDbLine
 10
55.882407
 20
30.46293
 30
0.0
 11
55.861107
 21
30.52173
 31
0.0
  0
LINE
  5
5DD
100
AcDbEntity
  8
HATCH
100
AcDbLine
 10
55.027307
 20
32.81233
 30
0.0
 11
55.006007
 21
32.87113
 31
0.0
  0
LINE
  5
5DE
100
AcDbEntity
  8
HATCH
100
AcDbLine
 10
57.376607
 20
33.66703
 30
0.0
 11
57.355207
 21
33.72583
 31
0.0
  0
LINE
  5
5DF
100
AcDbEntity
  8
HATCH
100
AcDbLine
 10
56.139307
 20
28.80323
 30
0.0
 11
56.088007
 21
28.83913
 31
0.0
  0
LINE
  5
5E0
100
AcDbEntity
  8
HATCH
100
AcDbLine
 10
54.091407
 20
30.23733
 30
0.0
 11
54.040107
 21
30.27323
 31
0.0
  0
LINE
  5
5E1
100
AcDbEntity
  8
HATCH
100
AcDbLine
 10
55.525307
 20
32.28523
 30
0.0
 11
55.474107
 21
32.32103
 31
0.0
  0
LINE
  5
5E2
100
AcDbEntity
  8
HATCH
100
AcDbLine
 10
56.949307
 20
29.05353
 30
0.0
 11
56.887807
 21
29.06423
 31
0.0
  0
LINE
  5
5E3
100
AcDbEntity
  8
HATCH
100
AcDbLine
 10
54.487307
 20
29.48753
 30
0.0
 11
54.425807
 21
29.49833
 31
0.0
  0
LINE
  5
5E4
100
AcDbEntity
  8
HATCH
100
AcDbLine
 10
54.921407
 20
31.94923
 30
0.0
 11
54.859807
 21
31.96003
 31
0.0
  0
LINE
  5
5E5
100
AcDbEntity
  8
HATCH
100
AcDbLine
 10
53.711207
 20
26.79133
 30
0.0
 11
53.711207
 21
26.79133
 31
0.0
  0
LINE
  5
5E6
100
AcDbEntity
  8
HATCH
100
AcDbLine
 10
53.711207
 20
27.26003
 30
0.0
 11
53.711207
 21
27.26003
 31
0.0
  0
LINE
  5
5E7
100
AcDbEntity
  8
HATCH
100
AcDbLine
 10
53.711207
 20
27.72883
 30
0.0
 11
53.711207
 21
27.72883
 31
0.0
  0
LINE
  5
5E8
100
AcDbEntity
  8
HATCH
100
AcDbLine
 10
53.711207
 20
28.19753
 30
0.0
 11
53.711207
 21
28.19753
 31
0.0
  0
LINE
  5
5E9
100
AcDbEntity
  8
HATCH
100
AcDbLine
 10
54.179907
 20
27.02563
 30
0.0
 11
54.179907
 21
27.02563
 31
0.0
  0
LINE
  5
5EA
100
AcDbEntity
  8
HATCH
100
AcDbLine
 10
54.179907
 20
27.49443
 30
0.0
 11
54.179907
 21
27.49443
 31
0.0
  0
LINE
  5
5EB
100
AcDbEntity
  8
HATCH
100
AcDbLine
 10
54.179907
 20
27.96313
 30
0.0
 11
54.179907
 21
27.96313
 31
0.0
  0
LINE
  5
5EC
100
AcDbEntity
  8
HATCH
100
AcDbLine
 10
54.648707
 20
26.79133
 30
0.0
 11
54.648707
 21
26.79133
 31
0.0
  0
LINE
  5
5ED
100
AcDbEntity
  8
HATCH
100
AcDbLine
 10
54.648707
 20
27.26003
 30
0.0
 11
54.648707
 21
27.26003
 31
0.0
  0
LINE
  5
5EE
100
AcDbEntity
  8
HATCH
100
AcDbLine
 10
54.648707
 20
27.72883
 30
0.0
 11
54.648707
 21
27.72883
 31
0.0
  0
LINE
  5
5EF
100
AcDbEntity
  8
HATCH
100
AcDbLine
 10
54.648707
 20
28.19753
 30
0.0
 11
54.648707
 21
28.19753
 31
0.0
  0
LINE
  5
5F0
100
AcDbEntity
  8
HATCH
100
AcDbLine
 10
55.117407
 20
27.02563
 30
0.0
 11
55.117407
 21
27.02563
 31
0.0
  0
LINE
  5
5F1
100
AcDbEntity
  8
HATCH
100
AcDbLine
 10
55.117407
 20
27.49443
 30
0.0
 11
55.117407
 21
27.49443
 31
0.0
  0
LINE
  5
5F2
100
AcDbEntity
  8
HATCH
100
AcDbLine
 10
55.117407
 20
27.96313
 30
0.0
 11
55.117407
 21
27.96313
 31
0.0
  0
LINE
  5
5F3
100
AcDbEntity
  8
HATCH
100
AcDbLine
 10
55.586207
 20
26.79133
 30
0.0
 11
55.586207
 21
26.79133
 31
0.0
  0
LINE
  5
5F4
100
AcDbEntity
  8
HATCH
100
AcDbLine
 10
55.586207
 20
27.26003
 30
0.0
 11
55.586207
 21
27.26003
 31
0.0
  0
LINE
  5
5F5
100
AcDbEntity
  8
HATCH
100
AcDbLine
 10
55.586207
 20
27.72883
 30
0.0
 11
55.586207
 21
27.72883
 31
0.0
  0
LINE
  5
5F6
100
AcDbEntity
  8
HATCH
100
AcDbLine
 10
55.586207
 20
28.19753
 30
0.0
 11
55.586207
 21
28.19753
 31
0.0
  0
LINE
  5
5F7
100
AcDbEntity
  8
HATCH
100
AcDbLine
 10
56.054907
 20
27.02563
 30
0.0
 11
56.054907
 21
27.02563
 31
0.0
  0
LINE
  5
5F8
100
AcDbEntity
  8
HATCH
100
AcDbLine
 10
56.054907
 20
27.49443
 30
0.0
 11
56.054907
 21
27.49443
 31
0.0
  0
LINE
  5
5F9
100
AcDbEntity
  8
HATCH
100
AcDbLine
 10
56.054907
 20
27.96313
 30
0.0
 11
56.054907
 21
27.96313
 31
0.0
  0
LINE
  5
5FA
100
AcDbEntity
  8
HATCH
100
AcDbLine
 10
56.523707
 20
26.79133
 30
0.0
 11
56.523707
 21
26.79133
 31
0.0
  0
LINE
  5
5FB
100
AcDbEntity
  8
HATCH
100
AcDbLine
 10
56.523707
 20
27.26003
 30
0.0
 11
56.523707
 21
27.26003
 31
0.0
  0
LINE
  5
5FC
100
AcDbEntity
  8
HATCH
100
AcDbLine
 10
56.523707
 20
27.72883
 30
0.0
 11
56.523707
 21
27.72883
 31
0.0
  0
LINE
  5
5FD
100
AcDbEntity
  8
HATCH
100
AcDbLine
 10
56.523707
 20
28.19753
 30
0.0
 11
56.523707
 21
28.19753
 31
0.0
  0
LINE
  5
5FE
100
AcDbEntity
  8
HATCH
100
AcDbLine
 10
56.992407
 20
27.02563
 30
0.0
 11
56.992407
 21
27.02563
 31
0.0
  0
LINE
  5
5FF
100
AcDbEntity
  8
HATCH
100
AcDbLine
 10
56.992407
 20
27.49443
 30
0.0
 11
56.992407
 21
27.49443
 31
0.0
  0
LINE
  5
600
100
AcDbEntity
  8
HATCH
100
AcDbLine
 10
56.992407
 20
27.96313
 30
0.0
 11
56.992407
 21
27.96313
 31
0.0
  0
LINE
  5
601
100
AcDbEntity
  8
HATCH
100
AcDbLine
 10
57.221507
 20
31.33743
 30
0.0
 11
57.285507
 21
31.29253
 31
0.0
  0
LINE
  5
602
100
AcDbEntity
  8
HATCH
100
AcDbLine
 10
56.720307
 20
31.89653
 30
0.0
 11
56.781807
 21
31.88553
 31
0.0
  0
LINE
  5
603
100
AcDbEntity
  8
HATCH
100
AcDbLine
 10
57.817507
 20
33.97713
 30
0.0
 11
57.756007
 21
33.98783
 31
0.0
  0
LINE
  5
604
100
AcDbEntity
  8
HATCH
100
AcDbLine
 10
57.461207
 20
26.79133
 30
0.0
 11
57.461207
 21
26.79133
 31
0.0
  0
LINE
  5
605
100
AcDbEntity
  8
HATCH
100
AcDbLine
 10
57.461207
 20
27.26003
 30
0.0
 11
57.461207
 21
27.26003
 31
0.0
  0
LINE
  5
606
100
AcDbEntity
  8
HATCH
100
AcDbLine
 10
57.461207
 20
27.72883
 30
0.0
 11
57.461207
 21
27.72883
 31
0.0
  0
LINE
  5
607
100
AcDbEntity
  8
HATCH
100
AcDbLine
 10
57.461207
 20
28.19753
 30
0.0
 11
57.461207
 21
28.19753
 31
0.0
  0
LINE
  5
608
100
AcDbEntity
  8
HATCH
100
AcDbLine
 10
57.929907
 20
27.02563
 30
0.0
 11
57.929907
 21
27.02563
 31
0.0
  0
LINE
  5
609
100
AcDbEntity
  8
HATCH
100
AcDbLine
 10
57.929907
 20
27.49443
 30
0.0
 11
57.929907
 21
27.49443
 31
0.0
  0
LINE
  5
60A
100
AcDbEntity
  8
HATCH
100
AcDbLine
 10
57.929907
 20
27.96313
 30
0.0
 11
57.929907
 21
27.96313
 31
0.0
  0
LINE
  5
60B
100
AcDbEntity
  8
HATCH
100
AcDbLine
 10
58.398707
 20
26.79133
 30
0.0
 11
58.398707
 21
26.79133
 31
0.0
  0
LINE
  5
60C
100
AcDbEntity
  8
HATCH
100
AcDbLine
 10
58.398707
 20
27.26003
 30
0.0
 11
58.398707
 21
27.26003
 31
0.0
  0
LINE
  5
60D
100
AcDbEntity
  8
HATCH
100
AcDbLine
 10
58.398707
 20
27.72883
 30
0.0
 11
58.398707
 21
27.72883
 31
0.0
  0
LINE
  5
60E
100
AcDbEntity
  8
HATCH
100
AcDbLine
 10
58.398707
 20
28.19753
 30
0.0
 11
58.398707
 21
28.19753
 31
0.0
  0
LINE
  5
60F
100
AcDbEntity
  8
HATCH
100
AcDbLine
 10
58.867407
 20
27.02563
 30
0.0
 11
58.867407
 21
27.02563
 31
0.0
  0
LINE
  5
610
100
AcDbEntity
  8
HATCH
100
AcDbLine
 10
58.867407
 20
27.49443
 30
0.0
 11
58.867407
 21
27.49443
 31
0.0
  0
LINE
  5
611
100
AcDbEntity
  8
HATCH
100
AcDbLine
 10
58.867407
 20
27.96313
 30
0.0
 11
58.867407
 21
27.96313
 31
0.0
  0
LINE
  5
612
100
AcDbEntity
  8
HATCH
100
AcDbLine
 10
59.336207
 20
26.79133
 30
0.0
 11
59.336207
 21
26.79133
 31
0.0
  0
LINE
  5
613
100
AcDbEntity
  8
HATCH
100
AcDbLine
 10
59.336207
 20
27.26003
 30
0.0
 11
59.336207
 21
27.26003
 31
0.0
  0
LINE
  5
614
100
AcDbEntity
  8
HATCH
100
AcDbLine
 10
59.336207
 20
27.72883
 30
0.0
 11
59.336207
 21
27.72883
 31
0.0
  0
LINE
  5
615
100
AcDbEntity
  8
HATCH
100
AcDbLine
 10
59.336207
 20
28.19753
 30
0.0
 11
59.336207
 21
28.19753
 31
0.0
  0
LINE
  5
616
100
AcDbEntity
  8
HATCH
100
AcDbLine
 10
57.737007
 20
29.19733
 30
0.0
 11
57.763707
 21
29.12383
 31
0.0
  0
LINE
  5
617
100
AcDbEntity
  8
HATCH
100
AcDbLine
 10
59.781307
 20
29.54493
 30
0.0
 11
59.845307
 21
29.50003
 31
0.0
  0
LINE
  5
618
100
AcDbEntity
  8
HATCH
100
AcDbLine
 10
59.352207
 20
31.95733
 30
0.0
 11
59.330807
 21
32.01613
 31
0.0
  0
LINE
  5
619
100
AcDbEntity
  8
HATCH
100
AcDbLine
 10
59.133407
 20
32.38333
 30
0.0
 11
59.071907
 21
32.39403
 31
0.0
  0
LINE
  5
61A
100
AcDbEntity
  8
HATCH
100
AcDbLine
 10
58.717607
 20
31.67143
 30
0.0
 11
58.666407
 21
31.70733
 31
0.0
  0
LINE
  5
61B
100
AcDbEntity
  8
HATCH
100
AcDbLine
 10
59.804807
 20
27.02563
 30
0.0
 11
59.804807
 21
27.02563
 31
0.0
  0
LINE
  5
61C
100
AcDbEntity
  8
HATCH
100
AcDbLine
 10
59.804807
 20
27.49443
 30
0.0
 11
59.804807
 21
27.49443
 31
0.0
  0
LINE
  5
61D
100
AcDbEntity
  8
HATCH
100
AcDbLine
 10
59.804807
 20
27.96313
 30
0.0
 11
59.804807
 21
27.96313
 31
0.0
  0
LINE
  5
61E
100
AcDbEntity
  8
HATCH
100
AcDbLine
 10
60.273607
 20
26.79133
 30
0.0
 11
60.273607
 21
26.79133
 31
0.0
  0
LINE
  5
61F
100
AcDbEntity
  8
HATCH
100
AcDbLine
 10
60.273607
 20
27.26003
 30
0.0
 11
60.273607
 21
27.26003
 31
0.0
  0
LINE
  5
620
100
AcDbEntity
  8
HATCH
100
AcDbLine
 10
60.273607
 20
27.72883
 30
0.0
 11
60.273607
 21
27.72883
 31
0.0
  0
LINE
  5
621
100
AcDbEntity
  8
HATCH
100
AcDbLine
 10
60.273607
 20
28.19753
 30
0.0
 11
60.273607
 21
28.19753
 31
0.0
  0
LINE
  5
622
100
AcDbEntity
  8
HATCH
100
AcDbLine
 10
60.742307
 20
27.02563
 30
0.0
 11
60.742307
 21
27.02563
 31
0.0
  0
LINE
  5
623
100
AcDbEntity
  8
HATCH
100
AcDbLine
 10
60.742307
 20
27.49443
 30
0.0
 11
60.742307
 21
27.49443
 31
0.0
  0
LINE
  5
624
100
AcDbEntity
  8
HATCH
100
AcDbLine
 10
60.742307
 20
27.96313
 30
0.0
 11
60.742307
 21
27.96313
 31
0.0
  0
LINE
  5
625
100
AcDbEntity
  8
HATCH
100
AcDbLine
 10
60.956907
 20
31.59503
 30
0.0
 11
61.021007
 21
31.55003
 31
0.0
  0
LINE
  5
626
100
AcDbEntity
  8
HATCH
100
AcDbLine
 10
46.679907
 20
34.52563
 30
0.0
 11
46.679907
 21
34.52563
 31
0.0
  0
LINE
  5
627
100
AcDbEntity
  8
HATCH
100
AcDbLine
 10
46.679907
 20
34.99443
 30
0.0
 11
46.679907
 21
34.99443
 31
0.0
  0
LINE
  5
628
100
AcDbEntity
  8
HATCH
100
AcDbLine
 10
46.679907
 20
35.46313
 30
0.0
 11
46.679907
 21
35.46313
 31
0.0
  0
LINE
  5
629
100
AcDbEntity
  8
HATCH
100
AcDbLine
 10
46.679907
 20
35.93193
 30
0.0
 11
46.679907
 21
35.93193
 31
0.0
  0
LINE
  5
62A
100
AcDbEntity
  8
HATCH
100
AcDbLine
 10
47.148607
 20
34.76003
 30
0.0
 11
47.148607
 21
34.76003
 31
0.0
  0
LINE
  5
62B
100
AcDbEntity
  8
HATCH
100
AcDbLine
 10
47.148607
 20
35.22883
 30
0.0
 11
47.148607
 21
35.22883
 31
0.0
  0
LINE
  5
62C
100
AcDbEntity
  8
HATCH
100
AcDbLine
 10
47.148607
 20
35.69753
 30
0.0
 11
47.148607
 21
35.69753
 31
0.0
  0
LINE
  5
62D
100
AcDbEntity
  8
HATCH
100
AcDbLine
 10
47.148607
 20
36.16633
 30
0.0
 11
47.148607
 21
36.16633
 31
0.0
  0
LINE
  5
62E
100
AcDbEntity
  8
HATCH
100
AcDbLine
 10
47.617407
 20
34.52563
 30
0.0
 11
47.617407
 21
34.52563
 31
0.0
  0
LINE
  5
62F
100
AcDbEntity
  8
HATCH
100
AcDbLine
 10
47.617407
 20
34.99443
 30
0.0
 11
47.617407
 21
34.99443
 31
0.0
  0
LINE
  5
630
100
AcDbEntity
  8
HATCH
100
AcDbLine
 10
47.617407
 20
35.46313
 30
0.0
 11
47.617407
 21
35.46313
 31
0.0
  0
LINE
  5
631
100
AcDbEntity
  8
HATCH
100
AcDbLine
 10
47.617407
 20
35.93193
 30
0.0
 11
47.617407
 21
35.93193
 31
0.0
  0
LINE
  5
632
100
AcDbEntity
  8
HATCH
100
AcDbLine
 10
48.086207
 20
34.76003
 30
0.0
 11
48.086207
 21
34.76003
 31
0.0
  0
LINE
  5
633
100
AcDbEntity
  8
HATCH
100
AcDbLine
 10
48.086207
 20
35.22883
 30
0.0
 11
48.086207
 21
35.22883
 31
0.0
  0
LINE
  5
634
100
AcDbEntity
  8
HATCH
100
AcDbLine
 10
48.086207
 20
35.69753
 30
0.0
 11
48.086207
 21
35.69753
 31
0.0
  0
LINE
  5
635
100
AcDbEntity
  8
HATCH
100
AcDbLine
 10
48.086207
 20
36.16633
 30
0.0
 11
48.086207
 21
36.16633
 31
0.0
  0
LINE
  5
636
100
AcDbEntity
  8
HATCH
100
AcDbLine
 10
48.554907
 20
34.52563
 30
0.0
 11
48.554907
 21
34.52563
 31
0.0
  0
LINE
  5
637
100
AcDbEntity
  8
HATCH
100
AcDbLine
 10
48.554907
 20
34.99443
 30
0.0
 11
48.554907
 21
34.99443
 31
0.0
  0
LINE
  5
638
100
AcDbEntity
  8
HATCH
100
AcDbLine
 10
48.554907
 20
35.46313
 30
0.0
 11
48.554907
 21
35.46313
 31
0.0
  0
LINE
  5
639
100
AcDbEntity
  8
HATCH
100
AcDbLine
 10
48.554907
 20
35.93193
 30
0.0
 11
48.554907
 21
35.93193
 31
0.0
  0
LINE
  5
63A
100
AcDbEntity
  8
HATCH
100
AcDbLine
 10
49.023707
 20
34.76003
 30
0.0
 11
49.023707
 21
34.76003
 31
0.0
  0
LINE
  5
63B
100
AcDbEntity
  8
HATCH
100
AcDbLine
 10
49.023707
 20
35.22883
 30
0.0
 11
49.023707
 21
35.22883
 31
0.0
  0
LINE
  5
63C
100
AcDbEntity
  8
HATCH
100
AcDbLine
 10
49.023707
 20
35.69753
 30
0.0
 11
49.023707
 21
35.69753
 31
0.0
  0
LINE
  5
63D
100
AcDbEntity
  8
HATCH
100
AcDbLine
 10
49.023707
 20
36.16633
 30
0.0
 11
49.023707
 21
36.16633
 31
0.0
  0
LINE
  5
63E
100
AcDbEntity
  8
HATCH
100
AcDbLine
 10
49.492407
 20
34.52563
 30
0.0
 11
49.492407
 21
34.52563
 31
0.0
  0
LINE
  5
63F
100
AcDbEntity
  8
HATCH
100
AcDbLine
 10
49.492407
 20
34.99443
 30
0.0
 11
49.492407
 21
34.99443
 31
0.0
  0
LINE
  5
640
100
AcDbEntity
  8
HATCH
100
AcDbLine
 10
49.492407
 20
35.46313
 30
0.0
 11
49.492407
 21
35.46313
 31
0.0
  0
LINE
  5
641
100
AcDbEntity
  8
HATCH
100
AcDbLine
 10
49.492407
 20
35.93193
 30
0.0
 11
49.492407
 21
35.93193
 31
0.0
  0
LINE
  5
642
100
AcDbEntity
  8
HATCH
100
AcDbLine
 10
49.961207
 20
34.76003
 30
0.0
 11
49.961207
 21
34.76003
 31
0.0
  0
LINE
  5
643
100
AcDbEntity
  8
HATCH
100
AcDbLine
 10
49.961207
 20
35.22883
 30
0.0
 11
49.961207
 21
35.22883
 31
0.0
  0
LINE
  5
644
100
AcDbEntity
  8
HATCH
100
AcDbLine
 10
49.961207
 20
35.69753
 30
0.0
 11
49.961207
 21
35.69753
 31
0.0
  0
LINE
  5
645
100
AcDbEntity
  8
HATCH
100
AcDbLine
 10
49.961207
 20
36.16633
 30
0.0
 11
49.961207
 21
36.16633
 31
0.0
  0
LINE
  5
646
100
AcDbEntity
  8
HATCH
100
AcDbLine
 10
51.823107
 20
34.30663
 30
0.0
 11
51.801707
 21
34.36553
 31
0.0
  0
LINE
  5
647
100
AcDbEntity
  8
HATCH
100
AcDbLine
 10
50.429907
 20
34.52563
 30
0.0
 11
50.429907
 21
34.52563
 31
0.0
  0
LINE
  5
648
100
AcDbEntity
  8
HATCH
100
AcDbLine
 10
50.429907
 20
34.99443
 30
0.0
 11
50.429907
 21
34.99443
 31
0.0
  0
LINE
  5
649
100
AcDbEntity
  8
HATCH
100
AcDbLine
 10
50.429907
 20
35.46313
 30
0.0
 11
50.429907
 21
35.46313
 31
0.0
  0
LINE
  5
64A
100
AcDbEntity
  8
HATCH
100
AcDbLine
 10
50.429907
 20
35.93193
 30
0.0
 11
50.429907
 21
35.93193
 31
0.0
  0
LINE
  5
64B
100
AcDbEntity
  8
HATCH
100
AcDbLine
 10
50.898707
 20
34.76003
 30
0.0
 11
50.898707
 21
34.76003
 31
0.0
  0
LINE
  5
64C
100
AcDbEntity
  8
HATCH
100
AcDbLine
 10
50.898707
 20
35.22883
 30
0.0
 11
50.898707
 21
35.22883
 31
0.0
  0
LINE
  5
64D
100
AcDbEntity
  8
HATCH
100
AcDbLine
 10
50.898707
 20
35.69753
 30
0.0
 11
50.898707
 21
35.69753
 31
0.0
  0
LINE
  5
64E
100
AcDbEntity
  8
HATCH
100
AcDbLine
 10
50.898707
 20
36.16633
 30
0.0
 11
50.898707
 21
36.16633
 31
0.0
  0
LINE
  5
64F
100
AcDbEntity
  8
HATCH
100
AcDbLine
 10
51.367407
 20
34.52563
 30
0.0
 11
51.367407
 21
34.52563
 31
0.0
  0
LINE
  5
650
100
AcDbEntity
  8
HATCH
100
AcDbLine
 10
51.367407
 20
34.99443
 30
0.0
 11
51.367407
 21
34.99443
 31
0.0
  0
LINE
  5
651
100
AcDbEntity
  8
HATCH
100
AcDbLine
 10
51.367407
 20
35.46313
 30
0.0
 11
51.367407
 21
35.46313
 31
0.0
  0
LINE
  5
652
100
AcDbEntity
  8
HATCH
100
AcDbLine
 10
51.367407
 20
35.93193
 30
0.0
 11
51.367407
 21
35.93193
 31
0.0
  0
LINE
  5
653
100
AcDbEntity
  8
HATCH
100
AcDbLine
 10
51.836207
 20
34.76003
 30
0.0
 11
51.836207
 21
34.76003
 31
0.0
  0
LINE
  5
654
100
AcDbEntity
  8
HATCH
100
AcDbLine
 10
51.836207
 20
35.22883
 30
0.0
 11
51.836207
 21
35.22883
 31
0.0
  0
LINE
  5
655
100
AcDbEntity
  8
HATCH
100
AcDbLine
 10
51.836207
 20
35.69753
 30
0.0
 11
51.836207
 21
35.69753
 31
0.0
  0
LINE
  5
656
100
AcDbEntity
  8
HATCH
100
AcDbLine
 10
51.836207
 20
36.16633
 30
0.0
 11
51.836207
 21
36.16633
 31
0.0
  0
LINE
  5
657
100
AcDbEntity
  8
HATCH
100
AcDbLine
 10
52.304907
 20
34.52563
 30
0.0
 11
52.304907
 21
34.52563
 31
0.0
  0
LINE
  5
658
100
AcDbEntity
  8
HATCH
100
AcDbLine
 10
52.304907
 20
34.99443
 30
0.0
 11
52.304907
 21
34.99443
 31
0.0
  0
LINE
  5
659
100
AcDbEntity
  8
HATCH
100
AcDbLine
 10
52.304907
 20
35.46313
 30
0.0
 11
52.304907
 21
35.46313
 31
0.0
  0
LINE
  5
65A
100
AcDbEntity
  8
HATCH
100
AcDbLine
 10
52.304907
 20
35.93193
 30
0.0
 11
52.304907
 21
35.93193
 31
0.0
  0
LINE
  5
65B
100
AcDbEntity
  8
HATCH
100
AcDbLine
 10
52.773707
 20
34.76003
 30
0.0
 11
52.773707
 21
34.76003
 31
0.0
  0
LINE
  5
65C
100
AcDbEntity
  8
HATCH
100
AcDbLine
 10
52.773707
 20
35.22883
 30
0.0
 11
52.773707
 21
35.22883
 31
0.0
  0
LINE
  5
65D
100
AcDbEntity
  8
HATCH
100
AcDbLine
 10
52.773707
 20
35.69753
 30
0.0
 11
52.773707
 21
35.69753
 31
0.0
  0
LINE
  5
65E
100
AcDbEntity
  8
HATCH
100
AcDbLine
 10
52.773707
 20
36.16633
 30
0.0
 11
52.773707
 21
36.16633
 31
0.0
  0
LINE
  5
65F
100
AcDbEntity
  8
HATCH
100
AcDbLine
 10
53.242407
 20
34.52563
 30
0.0
 11
53.242407
 21
34.52563
 31
0.0
  0
LINE
  5
660
100
AcDbEntity
  8
HATCH
100
AcDbLine
 10
53.242407
 20
34.99443
 30
0.0
 11
53.242407
 21
34.99443
 31
0.0
  0
LINE
  5
661
100
AcDbEntity
  8
HATCH
100
AcDbLine
 10
53.242407
 20
35.46313
 30
0.0
 11
53.242407
 21
35.46313
 31
0.0
  0
LINE
  5
662
100
AcDbEntity
  8
HATCH
100
AcDbLine
 10
53.242407
 20
35.93193
 30
0.0
 11
53.242407
 21
35.93193
 31
0.0
  0
LINE
  5
663
100
AcDbEntity
  8
HATCH
100
AcDbLine
 10
56.959107
 20
34.33283
 30
0.0
 11
56.907907
 21
34.36873
 31
0.0
  0
LINE
  5
664
100
AcDbEntity
  8
HATCH
100
AcDbLine
 10
55.355407
 20
34.41113
 30
0.0
 11
55.293907
 21
34.42193
 31
0.0
  0
LINE
  5
665
100
AcDbEntity
  8
HATCH
100
AcDbLine
 10
53.711207
 20
34.76003
 30
0.0
 11
53.711207
 21
34.76003
 31
0.0
  0
LINE
  5
666
100
AcDbEntity
  8
HATCH
100
AcDbLine
 10
53.711207
 20
35.22883
 30
0.0
 11
53.711207
 21
35.22883
 31
0.0
  0
LINE
  5
667
100
AcDbEntity
  8
HATCH
100
AcDbLine
 10
53.711207
 20
35.69753
 30
0.0
 11
53.711207
 21
35.69753
 31
0.0
  0
LINE
  5
668
100
AcDbEntity
  8
HATCH
100
AcDbLine
 10
53.711207
 20
36.16633
 30
0.0
 11
53.711207
 21
36.16633
 31
0.0
  0
LINE
  5
669
100
AcDbEntity
  8
HATCH
100
AcDbLine
 10
54.179907
 20
34.52563
 30
0.0
 11
54.179907
 21
34.52563
 31
0.0
  0
LINE
  5
66A
100
AcDbEntity
  8
HATCH
100
AcDbLine
 10
54.179907
 20
34.99443
 30
0.0
 11
54.179907
 21
34.99443
 31
0.0
  0
LINE
  5
66B
100
AcDbEntity
  8
HATCH
100
AcDbLine
 10
54.179907
 20
35.46313
 30
0.0
 11
54.179907
 21
35.46313
 31
0.0
  0
LINE
  5
66C
100
AcDbEntity
  8
HATCH
100
AcDbLine
 10
54.179907
 20
35.93193
 30
0.0
 11
54.179907
 21
35.93193
 31
0.0
  0
LINE
  5
66D
100
AcDbEntity
  8
HATCH
100
AcDbLine
 10
54.648707
 20
34.76003
 30
0.0
 11
54.648707
 21
34.76003
 31
0.0
  0
LINE
  5
66E
100
AcDbEntity
  8
HATCH
100
AcDbLine
 10
54.648707
 20
35.22883
 30
0.0
 11
54.648707
 21
35.22883
 31
0.0
  0
LINE
  5
66F
100
AcDbEntity
  8
HATCH
100
AcDbLine
 10
54.648707
 20
35.69753
 30
0.0
 11
54.648707
 21
35.69753
 31
0.0
  0
LINE
  5
670
100
AcDbEntity
  8
HATCH
100
AcDbLine
 10
54.648707
 20
36.16633
 30
0.0
 11
54.648707
 21
36.16633
 31
0.0
  0
LINE
  5
671
100
AcDbEntity
  8
HATCH
100
AcDbLine
 10
55.117407
 20
34.52563
 30
0.0
 11
55.117407
 21
34.52563
 31
0.0
  0
LINE
  5
672
100
AcDbEntity
  8
HATCH
100
AcDbLine
 10
55.117407
 20
34.99443
 30
0.0
 11
55.117407
 21
34.99443
 31
0.0
  0
LINE
  5
673
100
AcDbEntity
  8
HATCH
100
AcDbLine
 10
55.117407
 20
35.46313
 30
0.0
 11
55.117407
 21
35.46313
 31
0.0
  0
LINE
  5
674
100
AcDbEntity
  8
HATCH
100
AcDbLine
 10
55.117407
 20
35.93193
 30
0.0
 11
55.117407
 21
35.93193
 31
0.0
  0
LINE
  5
675
100
AcDbEntity
  8
HATCH
100
AcDbLine
 10
55.586207
 20
34.76003
 30
0.0
 11
55.586207
 21
34.76003
 31
0.0
  0
LINE
  5
676
100
AcDbEntity
  8
HATCH
100
AcDbLine
 10
55.586207
 20
35.22883
 30
0.0
 11
55.586207
 21
35.22883
 31
0.0
  0
LINE
  5
677
100
AcDbEntity
  8
HATCH
100
AcDbLine
 10
55.586207
 20
35.69753
 30
0.0
 11
55.586207
 21
35.69753
 31
0.0
  0
LINE
  5
678
100
AcDbEntity
  8
HATCH
100
AcDbLine
 10
55.586207
 20
36.16633
 30
0.0
 11
55.586207
 21
36.16633
 31
0.0
  0
LINE
  5
679
100
AcDbEntity
  8
HATCH
100
AcDbLine
 10
56.054907
 20
34.52563
 30
0.0
 11
56.054907
 21
34.52563
 31
0.0
  0
LINE
  5
67A
100
AcDbEntity
  8
HATCH
100
AcDbLine
 10
56.054907
 20
34.99443
 30
0.0
 11
56.054907
 21
34.99443
 31
0.0
  0
LINE
  5
67B
100
AcDbEntity
  8
HATCH
100
AcDbLine
 10
56.054907
 20
35.46313
 30
0.0
 11
56.054907
 21
35.46313
 31
0.0
  0
LINE
  5
67C
100
AcDbEntity
  8
HATCH
100
AcDbLine
 10
56.054907
 20
35.93193
 30
0.0
 11
56.054907
 21
35.93193
 31
0.0
  0
LINE
  5
67D
100
AcDbEntity
  8
HATCH
100
AcDbLine
 10
56.523707
 20
34.76003
 30
0.0
 11
56.523707
 21
34.76003
 31
0.0
  0
LINE
  5
67E
100
AcDbEntity
  8
HATCH
100
AcDbLine
 10
56.523707
 20
35.22883
 30
0.0
 11
56.523707
 21
35.22883
 31
0.0
  0
LINE
  5
67F
100
AcDbEntity
  8
HATCH
100
AcDbLine
 10
56.523707
 20
35.69753
 30
0.0
 11
56.523707
 21
35.69753
 31
0.0
  0
LINE
  5
680
100
AcDbEntity
  8
HATCH
100
AcDbLine
 10
56.523707
 20
36.16633
 30
0.0
 11
56.523707
 21
36.16633
 31
0.0
  0
LINE
  5
681
100
AcDbEntity
  8
HATCH
100
AcDbLine
 10
56.992407
 20
34.52563
 30
0.0
 11
56.992407
 21
34.52563
 31
0.0
  0
LINE
  5
682
100
AcDbEntity
  8
HATCH
100
AcDbLine
 10
56.992407
 20
34.99443
 30
0.0
 11
56.992407
 21
34.99443
 31
0.0
  0
LINE
  5
683
100
AcDbEntity
  8
HATCH
100
AcDbLine
 10
56.992407
 20
35.46313
 30
0.0
 11
56.992407
 21
35.46313
 31
0.0
  0
LINE
  5
684
100
AcDbEntity
  8
HATCH
100
AcDbLine
 10
56.992407
 20
35.93193
 30
0.0
 11
56.992407
 21
35.93193
 31
0.0
  0
LINE
  5
685
100
AcDbEntity
  8
DRAWING
100
AcDbLine
 10
59.669107
 20
36.34453
 30
0.0
 11
59.669107
 21
34.46953
 31
0.0
  0
LINE
  5
686
100
AcDbEntity
  8
DRAWING
100
AcDbLine
 10
59.669107
 20
34.46953
 30
0.0
 11
59.669107
 21
36.34453
 31
0.0
  0
LINE
  5
687
100
AcDbEntity
  8
HATCH
100
AcDbLine
 10
57.461207
 20
34.76003
 30
0.0
 11
57.461207
 21
34.76003
 31
0.0
  0
LINE
  5
688
100
AcDbEntity
  8
HATCH
100
AcDbLine
 10
57.461207
 20
35.22883
 30
0.0
 11
57.461207
 21
35.22883
 31
0.0
  0
LINE
  5
689
100
AcDbEntity
  8
HATCH
100
AcDbLine
 10
57.461207
 20
35.69753
 30
0.0
 11
57.461207
 21
35.69753
 31
0.0
  0
LINE
  5
68A
100
AcDbEntity
  8
HATCH
100
AcDbLine
 10
57.461207
 20
36.16633
 30
0.0
 11
57.461207
 21
36.16633
 31
0.0
  0
LINE
  5
68B
100
AcDbEntity
  8
HATCH
100
AcDbLine
 10
57.929907
 20
34.52563
 30
0.0
 11
57.929907
 21
34.52563
 31
0.0
  0
LINE
  5
68C
100
AcDbEntity
  8
HATCH
100
AcDbLine
 10
57.929907
 20
34.99443
 30
0.0
 11
57.929907
 21
34.99443
 31
0.0
  0
LINE
  5
68D
100
AcDbEntity
  8
HATCH
100
AcDbLine
 10
57.929907
 20
35.46313
 30
0.0
 11
57.929907
 21
35.46313
 31
0.0
  0
LINE
  5
68E
100
AcDbEntity
  8
HATCH
100
AcDbLine
 10
57.929907
 20
35.93193
 30
0.0
 11
57.929907
 21
35.93193
 31
0.0
  0
LINE
  5
68F
100
AcDbEntity
  8
HATCH
100
AcDbLine
 10
58.398707
 20
34.76003
 30
0.0
 11
58.398707
 21
34.76003
 31
0.0
  0
LINE
  5
690
100
AcDbEntity
  8
HATCH
100
AcDbLine
 10
58.398707
 20
35.22883
 30
0.0
 11
58.398707
 21
35.22883
 31
0.0
  0
LINE
  5
691
100
AcDbEntity
  8
HATCH
100
AcDbLine
 10
58.398707
 20
35.69753
 30
0.0
 11
58.398707
 21
35.69753
 31
0.0
  0
LINE
  5
692
100
AcDbEntity
  8
HATCH
100
AcDbLine
 10
58.398707
 20
36.16633
 30
0.0
 11
58.398707
 21
36.16633
 31
0.0
  0
LINE
  5
693
100
AcDbEntity
  8
HATCH
100
AcDbLine
 10
58.867407
 20
34.52563
 30
0.0
 11
58.867407
 21
34.52563
 31
0.0
  0
LINE
  5
694
100
AcDbEntity
  8
HATCH
100
AcDbLine
 10
58.867407
 20
34.99443
 30
0.0
 11
58.867407
 21
34.99443
 31
0.0
  0
LINE
  5
695
100
AcDbEntity
  8
HATCH
100
AcDbLine
 10
58.867407
 20
35.46313
 30
0.0
 11
58.867407
 21
35.46313
 31
0.0
  0
LINE
  5
696
100
AcDbEntity
  8
HATCH
100
AcDbLine
 10
58.867407
 20
35.93193
 30
0.0
 11
58.867407
 21
35.93193
 31
0.0
  0
LINE
  5
697
100
AcDbEntity
  8
HATCH
100
AcDbLine
 10
59.336207
 20
34.76003
 30
0.0
 11
59.336207
 21
34.76003
 31
0.0
  0
LINE
  5
698
100
AcDbEntity
  8
HATCH
100
AcDbLine
 10
59.336207
 20
35.22883
 30
0.0
 11
59.336207
 21
35.22883
 31
0.0
  0
LINE
  5
699
100
AcDbEntity
  8
HATCH
100
AcDbLine
 10
59.336207
 20
35.69753
 30
0.0
 11
59.336207
 21
35.69753
 31
0.0
  0
LINE
  5
69A
100
AcDbEntity
  8
HATCH
100
AcDbLine
 10
59.336207
 20
36.16633
 30
0.0
 11
59.336207
 21
36.16633
 31
0.0
  0
LINE
  5
69B
100
AcDbEntity
  8
DRAWING
100
AcDbLine
 10
59.669107
 20
36.34453
 30
0.0
 11
59.669107
 21
34.46953
 31
0.0
  0
LINE
  5
69C
100
AcDbEntity
  8
HATCH
100
AcDbLine
 10
59.804807
 20
34.52563
 30
0.0
 11
59.804807
 21
34.52563
 31
0.0
  0
LINE
  5
69D
100
AcDbEntity
  8
HATCH
100
AcDbLine
 10
59.804807
 20
34.99443
 30
0.0
 11
59.804807
 21
34.99443
 31
0.0
  0
LINE
  5
69E
100
AcDbEntity
  8
HATCH
100
AcDbLine
 10
59.804807
 20
35.46313
 30
0.0
 11
59.804807
 21
35.46313
 31
0.0
  0
LINE
  5
69F
100
AcDbEntity
  8
HATCH
100
AcDbLine
 10
59.804807
 20
35.93193
 30
0.0
 11
59.804807
 21
35.93193
 31
0.0
  0
LINE
  5
6A0
100
AcDbEntity
  8
HATCH
100
AcDbLine
 10
60.273607
 20
34.76003
 30
0.0
 11
60.273607
 21
34.76003
 31
0.0
  0
LINE
  5
6A1
100
AcDbEntity
  8
HATCH
100
AcDbLine
 10
60.273607
 20
35.22883
 30
0.0
 11
60.273607
 21
35.22883
 31
0.0
  0
LINE
  5
6A2
100
AcDbEntity
  8
HATCH
100
AcDbLine
 10
60.273607
 20
35.69753
 30
0.0
 11
60.273607
 21
35.69753
 31
0.0
  0
LINE
  5
6A3
100
AcDbEntity
  8
HATCH
100
AcDbLine
 10
60.273607
 20
36.16633
 30
0.0
 11
60.273607
 21
36.16633
 31
0.0
  0
LINE
  5
6A4
100
AcDbEntity
  8
HATCH
100
AcDbLine
 10
60.742307
 20
34.52563
 30
0.0
 11
60.742307
 21
34.52563
 31
0.0
  0
LINE
  5
6A5
100
AcDbEntity
  8
HATCH
100
AcDbLine
 10
60.742307
 20
34.99443
 30
0.0
 11
60.742307
 21
34.99443
 31
0.0
  0
LINE
  5
6A6
100
AcDbEntity
  8
HATCH
100
AcDbLine
 10
60.742307
 20
35.46313
 30
0.0
 11
60.742307
 21
35.46313
 31
0.0
  0
LINE
  5
6A7
100
AcDbEntity
  8
HATCH
100
AcDbLine
 10
60.742307
 20
35.93193
 30
0.0
 11
60.742307
 21
35.93193
 31
0.0
  0
LINE
  5
6A8
100
AcDbEntity
  8
DRAWING
100
AcDbLine
 10
59.669107
 20
34.46953
 30
0.0
 11
59.669107
 21
36.34453
 31
0.0
  0
LINE
  5
6A9
100
AcDbEntity
  8
HATCH
100
AcDbLine
 10
67.699707
 20
37.47753
 30
0.0
 11
67.699707
 21
33.04793
 31
0.0
  0
LINE
  5
6AA
100
AcDbEntity
  8
HATCH
100
AcDbLine
 10
66.046007
 20
30.44903
 30
0.0
 11
69.353507
 21
32.39793
 31
0.0
  0
LINE
  5
6AB
100
AcDbEntity
  8
HATCH
100
AcDbLine
 10
69.353507
 20
32.39793
 30
0.0
 11
67.699707
 21
33.04793
 31
0.0
  0
LINE
  5
6AC
100
AcDbEntity
  8
HATCH
100
AcDbLine
 10
67.699707
 20
29.62213
 30
0.0
 11
67.699707
 21
25.19243
 31
0.0
  0
LINE
  5
6AD
100
AcDbEntity
  8
HATCH
100
AcDbLine
 10
61.679807
 20
26.55693
 30
0.0
 11
61.679807
 21
26.55693
 31
0.0
  0
LINE
  5
6AE
100
AcDbEntity
  8
HATCH
100
AcDbLine
 10
62.617307
 20
26.55693
 30
0.0
 11
62.617307
 21
26.55693
 31
0.0
  0
LINE
  5
6AF
100
AcDbEntity
  8
HATCH
100
AcDbLine
 10
63.554807
 20
26.55693
 30
0.0
 11
63.554807
 21
26.55693
 31
0.0
  0
LINE
  5
6B0
100
AcDbEntity
  8
HATCH
100
AcDbLine
 10
64.492307
 20
26.55693
 30
0.0
 11
64.492307
 21
26.55693
 31
0.0
  0
LINE
  5
6B1
100
AcDbEntity
  8
HATCH
100
AcDbLine
 10
65.429807
 20
26.55693
 30
0.0
 11
65.429807
 21
26.55693
 31
0.0
  0
LINE
  5
6B2
100
AcDbEntity
  8
HATCH
100
AcDbLine
 10
66.367307
 20
26.55693
 30
0.0
 11
66.367307
 21
26.55693
 31
0.0
  0
LINE
  5
6B3
100
AcDbEntity
  8
HATCH
100
AcDbLine
 10
67.304807
 20
26.55693
 30
0.0
 11
67.304807
 21
26.55693
 31
0.0
  0
LINE
  5
6B4
100
AcDbEntity
  8
HATCH
100
AcDbLine
 10
62.979607
 20
30.24733
 30
0.0
 11
62.958307
 21
30.30623
 31
0.0
  0
LINE
  5
6B5
100
AcDbEntity
  8
HATCH
100
AcDbLine
 10
64.473807
 20
33.45173
 30
0.0
 11
64.452507
 21
33.51053
 31
0.0
  0
LINE
  5
6B6
100
AcDbEntity
  8
HATCH
100
AcDbLine
 10
62.127807
 20
29.00953
 30
0.0
 11
62.076607
 21
29.04543
 31
0.0
  0
LINE
  5
6B7
100
AcDbEntity
  8
HATCH
100
AcDbLine
 10
63.561707
 20
31.05763
 30
0.0
 11
63.510507
 21
31.09353
 31
0.0
  0
LINE
  5
6B8
100
AcDbEntity
  8
HATCH
100
AcDbLine
 10
61.667107
 20
28.32793
 30
0.0
 11
61.605607
 21
28.33863
 31
0.0
  0
LINE
  5
6B9
100
AcDbEntity
  8
HATCH
100
AcDbLine
 10
64.563207
 20
30.35573
 30
0.0
 11
64.501607
 21
30.36653
 31
0.0
  0
LINE
  5
6BA
100
AcDbEntity
  8
HATCH
100
AcDbLine
 10
62.535307
 20
33.25153
 30
0.0
 11
62.473707
 21
33.26223
 31
0.0
  0
LINE
  5
6BB
100
AcDbEntity
  8
HATCH
100
AcDbLine
 10
61.211107
 20
26.79133
 30
0.0
 11
61.211107
 21
26.79133
 31
0.0
  0
LINE
  5
6BC
100
AcDbEntity
  8
HATCH
100
AcDbLine
 10
61.211107
 20
27.26003
 30
0.0
 11
61.211107
 21
27.26003
 31
0.0
  0
LINE
  5
6BD
100
AcDbEntity
  8
HATCH
100
AcDbLine
 10
61.211107
 20
27.72883
 30
0.0
 11
61.211107
 21
27.72883
 31
0.0
  0
LINE
  5
6BE
100
AcDbEntity
  8
HATCH
100
AcDbLine
 10
61.211107
 20
28.19753
 30
0.0
 11
61.211107
 21
28.19753
 31
0.0
  0
LINE
  5
6BF
100
AcDbEntity
  8
HATCH
100
AcDbLine
 10
61.679807
 20
27.02563
 30
0.0
 11
61.679807
 21
27.02563
 31
0.0
  0
LINE
  5
6C0
100
AcDbEntity
  8
HATCH
100
AcDbLine
 10
61.679807
 20
27.49443
 30
0.0
 11
61.679807
 21
27.49443
 31
0.0
  0
LINE
  5
6C1
100
AcDbEntity
  8
HATCH
100
AcDbLine
 10
61.679807
 20
27.96313
 30
0.0
 11
61.679807
 21
27.96313
 31
0.0
  0
LINE
  5
6C2
100
AcDbEntity
  8
HATCH
100
AcDbLine
 10
62.148607
 20
26.79133
 30
0.0
 11
62.148607
 21
26.79133
 31
0.0
  0
LINE
  5
6C3
100
AcDbEntity
  8
HATCH
100
AcDbLine
 10
62.148607
 20
27.26003
 30
0.0
 11
62.148607
 21
27.26003
 31
0.0
  0
LINE
  5
6C4
100
AcDbEntity
  8
HATCH
100
AcDbLine
 10
62.148607
 20
27.72883
 30
0.0
 11
62.148607
 21
27.72883
 31
0.0
  0
LINE
  5
6C5
100
AcDbEntity
  8
HATCH
100
AcDbLine
 10
62.148607
 20
28.19753
 30
0.0
 11
62.148607
 21
28.19753
 31
0.0
  0
LINE
  5
6C6
100
AcDbEntity
  8
HATCH
100
AcDbLine
 10
62.617307
 20
27.02563
 30
0.0
 11
62.617307
 21
27.02563
 31
0.0
  0
LINE
  5
6C7
100
AcDbEntity
  8
HATCH
100
AcDbLine
 10
62.617307
 20
27.49443
 30
0.0
 11
62.617307
 21
27.49443
 31
0.0
  0
LINE
  5
6C8
100
AcDbEntity
  8
HATCH
100
AcDbLine
 10
62.617307
 20
27.96313
 30
0.0
 11
62.617307
 21
27.96313
 31
0.0
  0
LINE
  5
6C9
100
AcDbEntity
  8
HATCH
100
AcDbLine
 10
63.086107
 20
26.79133
 30
0.0
 11
63.086107
 21
26.79133
 31
0.0
  0
LINE
  5
6CA
100
AcDbEntity
  8
HATCH
100
AcDbLine
 10
63.086107
 20
27.26003
 30
0.0
 11
63.086107
 21
27.26003
 31
0.0
  0
LINE
  5
6CB
100
AcDbEntity
  8
HATCH
100
AcDbLine
 10
63.086107
 20
27.72883
 30
0.0
 11
63.086107
 21
27.72883
 31
0.0
  0
LINE
  5
6CC
100
AcDbEntity
  8
HATCH
100
AcDbLine
 10
63.086107
 20
28.19753
 30
0.0
 11
63.086107
 21
28.19753
 31
0.0
  0
LINE
  5
6CD
100
AcDbEntity
  8
HATCH
100
AcDbLine
 10
63.554807
 20
27.02563
 30
0.0
 11
63.554807
 21
27.02563
 31
0.0
  0
LINE
  5
6CE
100
AcDbEntity
  8
HATCH
100
AcDbLine
 10
63.554807
 20
27.49443
 30
0.0
 11
63.554807
 21
27.49443
 31
0.0
  0
LINE
  5
6CF
100
AcDbEntity
  8
HATCH
100
AcDbLine
 10
63.554807
 20
27.96313
 30
0.0
 11
63.554807
 21
27.96313
 31
0.0
  0
LINE
  5
6D0
100
AcDbEntity
  8
HATCH
100
AcDbLine
 10
64.023607
 20
26.79133
 30
0.0
 11
64.023607
 21
26.79133
 31
0.0
  0
LINE
  5
6D1
100
AcDbEntity
  8
HATCH
100
AcDbLine
 10
64.023607
 20
27.26003
 30
0.0
 11
64.023607
 21
27.26003
 31
0.0
  0
LINE
  5
6D2
100
AcDbEntity
  8
HATCH
100
AcDbLine
 10
64.023607
 20
27.72883
 30
0.0
 11
64.023607
 21
27.72883
 31
0.0
  0
LINE
  5
6D3
100
AcDbEntity
  8
HATCH
100
AcDbLine
 10
64.023607
 20
28.19753
 30
0.0
 11
64.023607
 21
28.19753
 31
0.0
  0
LINE
  5
6D4
100
AcDbEntity
  8
HATCH
100
AcDbLine
 10
64.492307
 20
27.02563
 30
0.0
 11
64.492307
 21
27.02563
 31
0.0
  0
LINE
  5
6D5
100
AcDbEntity
  8
HATCH
100
AcDbLine
 10
64.492307
 20
27.49443
 30
0.0
 11
64.492307
 21
27.49443
 31
0.0
  0
LINE
  5
6D6
100
AcDbEntity
  8
HATCH
100
AcDbLine
 10
64.492307
 20
27.96313
 30
0.0
 11
64.492307
 21
27.96313
 31
0.0
  0
LINE
  5
6D7
100
AcDbEntity
  8
HATCH
100
AcDbLine
 10
61.789707
 20
31.86383
 30
0.0
 11
61.816407
 21
31.79033
 31
0.0
  0
LINE
  5
6D8
100
AcDbEntity
  8
HATCH
100
AcDbLine
 10
61.929707
 20
30.44973
 30
0.0
 11
62.006707
 21
30.43603
 31
0.0
  0
CIRCLE
  5
6D9
100
AcDbEntity
  8
DRAWING
100
AcDbCircle
 10
61.675307
 20
31.80713
 30
0.0
 40
0.375
  0
LINE
  5
6DA
100
AcDbEntity
  8
HATCH
100
AcDbLine
 10
66.183907
 20
28.75293
 30
0.0
 11
66.162607
 21
28.81183
 31
0.0
  0
LINE
  5
6DB
100
AcDbEntity
  8
HATCH
100
AcDbLine
 10
65.328907
 20
31.10233
 30
0.0
 11
65.307507
 21
31.16113
 31
0.0
  0
LINE
  5
6DC
100
AcDbEntity
  8
HATCH
100
AcDbLine
 10
67.678107
 20
31.95733
 30
0.0
 11
67.656807
 21
32.01613
 31
0.0
  0
LINE
  5
6DD
100
AcDbEntity
  8
HATCH
100
AcDbLine
 10
65.609707
 20
29.62353
 30
0.0
 11
65.558407
 21
29.65943
 31
0.0
  0
LINE
  5
6DE
100
AcDbEntity
  8
HATCH
100
AcDbLine
 10
67.043507
 20
31.67143
 30
0.0
 11
66.992307
 21
31.70733
 31
0.0
  0
LINE
  5
6DF
100
AcDbEntity
  8
HATCH
100
AcDbLine
 10
64.995607
 20
33.10553
 30
0.0
 11
64.944407
 21
33.14143
 31
0.0
  0
LINE
  5
6E0
100
AcDbEntity
  8
HATCH
100
AcDbLine
 10
67.025207
 20
29.92163
 30
0.0
 11
66.963707
 21
29.93243
 31
0.0
  0
LINE
  5
6E1
100
AcDbEntity
  8
HATCH
100
AcDbLine
 10
67.459307
 20
32.38333
 30
0.0
 11
67.397707
 21
32.39403
 31
0.0
  0
LINE
  5
6E2
100
AcDbEntity
  8
HATCH
100
AcDbLine
 10
64.997307
 20
32.81743
 30
0.0
 11
64.935707
 21
32.82813
 31
0.0
  0
LINE
  5
6E3
100
AcDbEntity
  8
HATCH
100
AcDbLine
 10
64.961107
 20
26.79133
 30
0.0
 11
64.961107
 21
26.79133
 31
0.0
  0
LINE
  5
6E4
100
AcDbEntity
  8
HATCH
100
AcDbLine
 10
64.961107
 20
27.26003
 30
0.0
 11
64.961107
 21
27.26003
 31
0.0
  0
LINE
  5
6E5
100
AcDbEntity
  8
HATCH
100
AcDbLine
 10
64.961107
 20
27.72883
 30
0.0
 11
64.961107
 21
27.72883
 31
0.0
  0
LINE
  5
6E6
100
AcDbEntity
  8
HATCH
100
AcDbLine
 10
64.961107
 20
28.19753
 30
0.0
 11
64.961107
 21
28.19753
 31
0.0
  0
LINE
  5
6E7
100
AcDbEntity
  8
HATCH
100
AcDbLine
 10
65.429807
 20
27.02563
 30
0.0
 11
65.429807
 21
27.02563
 31
0.0
  0
LINE
  5
6E8
100
AcDbEntity
  8
HATCH
100
AcDbLine
 10
65.429807
 20
27.49443
 30
0.0
 11
65.429807
 21
27.49443
 31
0.0
  0
LINE
  5
6E9
100
AcDbEntity
  8
HATCH
100
AcDbLine
 10
65.429807
 20
27.96313
 30
0.0
 11
65.429807
 21
27.96313
 31
0.0
  0
LINE
  5
6EA
100
AcDbEntity
  8
HATCH
100
AcDbLine
 10
65.898607
 20
26.79133
 30
0.0
 11
65.898607
 21
26.79133
 31
0.0
  0
LINE
  5
6EB
100
AcDbEntity
  8
HATCH
100
AcDbLine
 10
65.898607
 20
27.26003
 30
0.0
 11
65.898607
 21
27.26003
 31
0.0
  0
LINE
  5
6EC
100
AcDbEntity
  8
HATCH
100
AcDbLine
 10
65.898607
 20
27.72883
 30
0.0
 11
65.898607
 21
27.72883
 31
0.0
  0
LINE
  5
6ED
100
AcDbEntity
  8
HATCH
100
AcDbLine
 10
65.898607
 20
28.19753
 30
0.0
 11
65.898607
 21
28.19753
 31
0.0
  0
LINE
  5
6EE
100
AcDbEntity
  8
HATCH
100
AcDbLine
 10
66.367307
 20
27.02563
 30
0.0
 11
66.367307
 21
27.02563
 31
0.0
  0
LINE
  5
6EF
100
AcDbEntity
  8
HATCH
100
AcDbLine
 10
66.367307
 20
27.49443
 30
0.0
 11
66.367307
 21
27.49443
 31
0.0
  0
LINE
  5
6F0
100
AcDbEntity
  8
HATCH
100
AcDbLine
 10
66.367307
 20
27.96313
 30
0.0
 11
66.367307
 21
27.96313
 31
0.0
  0
LINE
  5
6F1
100
AcDbEntity
  8
HATCH
100
AcDbLine
 10
66.836107
 20
26.79133
 30
0.0
 11
66.836107
 21
26.79133
 31
0.0
  0
LINE
  5
6F2
100
AcDbEntity
  8
HATCH
100
AcDbLine
 10
66.836107
 20
27.26003
 30
0.0
 11
66.836107
 21
27.26003
 31
0.0
  0
LINE
  5
6F3
100
AcDbEntity
  8
HATCH
100
AcDbLine
 10
66.836107
 20
27.72883
 30
0.0
 11
66.836107
 21
27.72883
 31
0.0
  0
LINE
  5
6F4
100
AcDbEntity
  8
HATCH
100
AcDbLine
 10
66.836107
 20
28.19753
 30
0.0
 11
66.836107
 21
28.19753
 31
0.0
  0
LINE
  5
6F5
100
AcDbEntity
  8
HATCH
100
AcDbLine
 10
67.304807
 20
27.02563
 30
0.0
 11
67.304807
 21
27.02563
 31
0.0
  0
LINE
  5
6F6
100
AcDbEntity
  8
HATCH
100
AcDbLine
 10
67.304807
 20
27.49443
 30
0.0
 11
67.304807
 21
27.49443
 31
0.0
  0
LINE
  5
6F7
100
AcDbEntity
  8
HATCH
100
AcDbLine
 10
67.304807
 20
27.96313
 30
0.0
 11
67.304807
 21
27.96313
 31
0.0
  0
LINE
  5
6F8
100
AcDbEntity
  8
HATCH
100
AcDbLine
 10
67.699707
 20
29.62213
 30
0.0
 11
66.046007
 21
30.44903
 31
0.0
  0
LINE
  5
6F9
100
AcDbEntity
  8
HATCH
100
AcDbLine
 10
61.211107
 20
34.76003
 30
0.0
 11
61.211107
 21
34.76003
 31
0.0
  0
LINE
  5
6FA
100
AcDbEntity
  8
HATCH
100
AcDbLine
 10
61.211107
 20
35.22883
 30
0.0
 11
61.211107
 21
35.22883
 31
0.0
  0
LINE
  5
6FB
100
AcDbEntity
  8
HATCH
100
AcDbLine
 10
61.211107
 20
35.69753
 30
0.0
 11
61.211107
 21
35.69753
 31
0.0
  0
LINE
  5
6FC
100
AcDbEntity
  8
HATCH
100
AcDbLine
 10
61.211107
 20
36.16633
 30
0.0
 11
61.211107
 21
36.16633
 31
0.0
  0
LINE
  5
6FD
100
AcDbEntity
  8
HATCH
100
AcDbLine
 10
61.679807
 20
34.52563
 30
0.0
 11
61.679807
 21
34.52563
 31
0.0
  0
LINE
  5
6FE
100
AcDbEntity
  8
HATCH
100
AcDbLine
 10
61.679807
 20
34.99443
 30
0.0
 11
61.679807
 21
34.99443
 31
0.0
  0
LINE
  5
6FF
100
AcDbEntity
  8
HATCH
100
AcDbLine
 10
61.679807
 20
35.46313
 30
0.0
 11
61.679807
 21
35.46313
 31
0.0
  0
LINE
  5
700
100
AcDbEntity
  8
HATCH
100
AcDbLine
 10
61.679807
 20
35.93193
 30
0.0
 11
61.679807
 21
35.93193
 31
0.0
  0
LINE
  5
701
100
AcDbEntity
  8
HATCH
100
AcDbLine
 10
62.148607
 20
34.76003
 30
0.0
 11
62.148607
 21
34.76003
 31
0.0
  0
LINE
  5
702
100
AcDbEntity
  8
HATCH
100
AcDbLine
 10
62.148607
 20
35.22883
 30
0.0
 11
62.148607
 21
35.22883
 31
0.0
  0
LINE
  5
703
100
AcDbEntity
  8
HATCH
100
AcDbLine
 10
62.148607
 20
35.69753
 30
0.0
 11
62.148607
 21
35.69753
 31
0.0
  0
LINE
  5
704
100
AcDbEntity
  8
HATCH
100
AcDbLine
 10
62.148607
 20
36.16633
 30
0.0
 11
62.148607
 21
36.16633
 31
0.0
  0
LINE
  5
705
100
AcDbEntity
  8
HATCH
100
AcDbLine
 10
62.617307
 20
34.52563
 30
0.0
 11
62.617307
 21
34.52563
 31
0.0
  0
LINE
  5
706
100
AcDbEntity
  8
HATCH
100
AcDbLine
 10
62.617307
 20
34.99443
 30
0.0
 11
62.617307
 21
34.99443
 31
0.0
  0
LINE
  5
707
100
AcDbEntity
  8
HATCH
100
AcDbLine
 10
62.617307
 20
35.46313
 30
0.0
 11
62.617307
 21
35.46313
 31
0.0
  0
LINE
  5
708
100
AcDbEntity
  8
HATCH
100
AcDbLine
 10
62.617307
 20
35.93193
 30
0.0
 11
62.617307
 21
35.93193
 31
0.0
  0
LINE
  5
709
100
AcDbEntity
  8
HATCH
100
AcDbLine
 10
63.086107
 20
34.76003
 30
0.0
 11
63.086107
 21
34.76003
 31
0.0
  0
LINE
  5
70A
100
AcDbEntity
  8
HATCH
100
AcDbLine
 10
63.086107
 20
35.22883
 30
0.0
 11
63.086107
 21
35.22883
 31
0.0
  0
LINE
  5
70B
100
AcDbEntity
  8
HATCH
100
AcDbLine
 10
63.086107
 20
35.69753
 30
0.0
 11
63.086107
 21
35.69753
 31
0.0
  0
LINE
  5
70C
100
AcDbEntity
  8
HATCH
100
AcDbLine
 10
63.086107
 20
36.16633
 30
0.0
 11
63.086107
 21
36.16633
 31
0.0
  0
LINE
  5
70D
100
AcDbEntity
  8
HATCH
100
AcDbLine
 10
63.554807
 20
34.52563
 30
0.0
 11
63.554807
 21
34.52563
 31
0.0
  0
LINE
  5
70E
100
AcDbEntity
  8
HATCH
100
AcDbLine
 10
63.554807
 20
34.99443
 30
0.0
 11
63.554807
 21
34.99443
 31
0.0
  0
LINE
  5
70F
100
AcDbEntity
  8
HATCH
100
AcDbLine
 10
63.554807
 20
35.46313
 30
0.0
 11
63.554807
 21
35.46313
 31
0.0
  0
LINE
  5
710
100
AcDbEntity
  8
HATCH
100
AcDbLine
 10
63.554807
 20
35.93193
 30
0.0
 11
63.554807
 21
35.93193
 31
0.0
  0
LINE
  5
711
100
AcDbEntity
  8
HATCH
100
AcDbLine
 10
64.023607
 20
34.76003
 30
0.0
 11
64.023607
 21
34.76003
 31
0.0
  0
LINE
  5
712
100
AcDbEntity
  8
HATCH
100
AcDbLine
 10
64.023607
 20
35.22883
 30
0.0
 11
64.023607
 21
35.22883
 31
0.0
  0
LINE
  5
713
100
AcDbEntity
  8
HATCH
100
AcDbLine
 10
64.023607
 20
35.69753
 30
0.0
 11
64.023607
 21
35.69753
 31
0.0
  0
LINE
  5
714
100
AcDbEntity
  8
HATCH
100
AcDbLine
 10
64.023607
 20
36.16633
 30
0.0
 11
64.023607
 21
36.16633
 31
0.0
  0
LINE
  5
715
100
AcDbEntity
  8
HATCH
100
AcDbLine
 10
64.492307
 20
34.52563
 30
0.0
 11
64.492307
 21
34.52563
 31
0.0
  0
LINE
  5
716
100
AcDbEntity
  8
HATCH
100
AcDbLine
 10
64.492307
 20
34.99443
 30
0.0
 11
64.492307
 21
34.99443
 31
0.0
  0
LINE
  5
717
100
AcDbEntity
  8
HATCH
100
AcDbLine
 10
64.492307
 20
35.46313
 30
0.0
 11
64.492307
 21
35.46313
 31
0.0
  0
LINE
  5
718
100
AcDbEntity
  8
HATCH
100
AcDbLine
 10
64.492307
 20
35.93193
 30
0.0
 11
64.492307
 21
35.93193
 31
0.0
  0
LINE
  5
719
100
AcDbEntity
  8
HATCH
100
AcDbLine
 10
66.823107
 20
34.30663
 30
0.0
 11
66.801707
 21
34.36553
 31
0.0
  0
LINE
  5
71A
100
AcDbEntity
  8
HATCH
100
AcDbLine
 10
64.961107
 20
34.76003
 30
0.0
 11
64.961107
 21
34.76003
 31
0.0
  0
LINE
  5
71B
100
AcDbEntity
  8
HATCH
100
AcDbLine
 10
64.961107
 20
35.22883
 30
0.0
 11
64.961107
 21
35.22883
 31
0.0
  0
LINE
  5
71C
100
AcDbEntity
  8
HATCH
100
AcDbLine
 10
64.961107
 20
35.69753
 30
0.0
 11
64.961107
 21
35.69753
 31
0.0
  0
LINE
  5
71D
100
AcDbEntity
  8
HATCH
100
AcDbLine
 10
64.961107
 20
36.16633
 30
0.0
 11
64.961107
 21
36.16633
 31
0.0
  0
LINE
  5
71E
100
AcDbEntity
  8
HATCH
100
AcDbLine
 10
65.429807
 20
34.52563
 30
0.0
 11
65.429807
 21
34.52563
 31
0.0
  0
LINE
  5
71F
100
AcDbEntity
  8
HATCH
100
AcDbLine
 10
65.429807
 20
34.99443
 30
0.0
 11
65.429807
 21
34.99443
 31
0.0
  0
LINE
  5
720
100
AcDbEntity
  8
HATCH
100
AcDbLine
 10
65.429807
 20
35.46313
 30
0.0
 11
65.429807
 21
35.46313
 31
0.0
  0
LINE
  5
721
100
AcDbEntity
  8
HATCH
100
AcDbLine
 10
65.429807
 20
35.93193
 30
0.0
 11
65.429807
 21
35.93193
 31
0.0
  0
LINE
  5
722
100
AcDbEntity
  8
HATCH
100
AcDbLine
 10
65.898607
 20
34.76003
 30
0.0
 11
65.898607
 21
34.76003
 31
0.0
  0
LINE
  5
723
100
AcDbEntity
  8
HATCH
100
AcDbLine
 10
65.898607
 20
35.22883
 30
0.0
 11
65.898607
 21
35.22883
 31
0.0
  0
LINE
  5
724
100
AcDbEntity
  8
HATCH
100
AcDbLine
 10
65.898607
 20
35.69753
 30
0.0
 11
65.898607
 21
35.69753
 31
0.0
  0
LINE
  5
725
100
AcDbEntity
  8
HATCH
100
AcDbLine
 10
65.898607
 20
36.16633
 30
0.0
 11
65.898607
 21
36.16633
 31
0.0
  0
LINE
  5
726
100
AcDbEntity
  8
HATCH
100
AcDbLine
 10
66.367307
 20
34.52563
 30
0.0
 11
66.367307
 21
34.52563
 31
0.0
  0
LINE
  5
727
100
AcDbEntity
  8
HATCH
100
AcDbLine
 10
66.367307
 20
34.99443
 30
0.0
 11
66.367307
 21
34.99443
 31
0.0
  0
LINE
  5
728
100
AcDbEntity
  8
HATCH
100
AcDbLine
 10
66.367307
 20
35.46313
 30
0.0
 11
66.367307
 21
35.46313
 31
0.0
  0
LINE
  5
729
100
AcDbEntity
  8
HATCH
100
AcDbLine
 10
66.367307
 20
35.93193
 30
0.0
 11
66.367307
 21
35.93193
 31
0.0
  0
LINE
  5
72A
100
AcDbEntity
  8
HATCH
100
AcDbLine
 10
66.836107
 20
34.76003
 30
0.0
 11
66.836107
 21
34.76003
 31
0.0
  0
LINE
  5
72B
100
AcDbEntity
  8
HATCH
100
AcDbLine
 10
66.836107
 20
35.22883
 30
0.0
 11
66.836107
 21
35.22883
 31
0.0
  0
LINE
  5
72C
100
AcDbEntity
  8
HATCH
100
AcDbLine
 10
66.836107
 20
35.69753
 30
0.0
 11
66.836107
 21
35.69753
 31
0.0
  0
LINE
  5
72D
100
AcDbEntity
  8
HATCH
100
AcDbLine
 10
66.836107
 20
36.16633
 30
0.0
 11
66.836107
 21
36.16633
 31
0.0
  0
LINE
  5
72E
100
AcDbEntity
  8
HATCH
100
AcDbLine
 10
67.304807
 20
34.52563
 30
0.0
 11
67.304807
 21
34.52563
 31
0.0
  0
LINE
  5
72F
100
AcDbEntity
  8
HATCH
100
AcDbLine
 10
67.304807
 20
34.99443
 30
0.0
 11
67.304807
 21
34.99443
 31
0.0
  0
LINE
  5
730
100
AcDbEntity
  8
HATCH
100
AcDbLine
 10
67.304807
 20
35.46313
 30
0.0
 11
67.304807
 21
35.46313
 31
0.0
  0
LINE
  5
731
100
AcDbEntity
  8
HATCH
100
AcDbLine
 10
67.304807
 20
35.93193
 30
0.0
 11
67.304807
 21
35.93193
 31
0.0
  0
TEXT
  5
732
100
AcDbEntity
  8
DIM_TEXT
100
AcDbText
 10
49.598707
 20
55.11293
 30
0.0
 40
1.125
  1
CUT END ELEMENT AS
 51
15.0
  7
INFO
100
AcDbText
  0
TEXT
  5
733
100
AcDbEntity
  8
DIM_TEXT
100
AcDbText
 10
49.598707
 20
53.18433
 30
0.0
 40
1.125
  1
SHOWN @ CORNERS FOR
 51
15.0
  7
INFO
100
AcDbText
  0
TEXT
  5
734
100
AcDbEntity
  8
DIM_TEXT
100
AcDbText
 10
49.598707
 20
51.25583
 30
0.0
 40
1.125
  1
CONCRETE TO FLOW
 51
15.0
  7
INFO
100
AcDbText
  0
TEXT
  5
735
100
AcDbEntity
  8
DIM_TEXT
100
AcDbText
 10
49.598707
 20
49.32723
 30
0.0
 40
1.125
  1
WALL TO WALL
 51
15.0
  7
INFO
100
AcDbText
  0
LINE
  5
736
100
AcDbEntity
  8
DIM_TEXT
100
AcDbLine
 10
48.653707
 20
55.82173
 30
0.0
 11
47.472507
 21
55.82173
 31
0.0
  0
TEXT
  5
737
100
AcDbEntity
  8
DRAWING
100
AcDbText
 10
24.670889
 20
4.961431
 30
0.0
 40
2.5
  1
END ELEMENTS
  7
TITLE
 72
     1
 11
39.789937
 21
4.961431
 31
0.0
100
AcDbText
  0
TEXT
  5
73C
100
AcDbEntity
  8
DIM_TEXT
100
AcDbText
 10
11.161517
 20
29.19356
 30
0.0
 40
1.125
  1
WALL
 50
90.0
 51
15.0
  7
INFO
 72
     1
 11
11.161517
 21
31.25606
 31
0.0
100
AcDbText
  0
ENDSEC
  0
SECTION
  2
OBJECTS
  0
DICTIONARY
  5
C
100
AcDbDictionary
  3
ACAD_GROUP
350
D
  3
ACAD_MLINESTYLE
350
1A
  3
ACDBVARIABLEDICTIONARY
350
29
  0
DICTIONARY
  5
D
102
{ACAD_REACTORS
330
C
102
}
100
AcDbDictionary
  0
DICTIONARY
  5
1A
102
{ACAD_REACTORS
330
C
102
}
100
AcDbDictionary
  3
STANDARD
350
1B
  0
DICTIONARY
  5
29
102
{ACAD_REACTORS
330
C
102
}
100
AcDbDictionary
  3
DIMADEC
350
2A
  0
MLINESTYLE
  5
1B
102
{ACAD_REACTORS
330
1A
102
}
100
AcDbMlineStyle
  2
STANDARD
 70
     0
  3

 62
   256
 51
90.0
 52
90.0
 71
     2
 49
0.5
 62
   256
  6
BYLAYER
 49
-0.5
 62
   256
  6
BYLAYER
  0
DICTIONARYVAR
  5
2A
102
{ACAD_REACTORS
330
29
102
}
100
DictionaryVariables
280
     0
  1
0
  0
ENDSEC
  0
EOF
