  0
SECTION
  2
HEADER
  9
$ACADVER
  1
AC1014
  9
$ACADMAINTVER
 70
     8
  9
$DWGCODEPAGE
  3
ANSI_1252
  9
$INSBASE
 10
0.0
 20
0.0
 30
0.0
  9
$EXTMIN
 10
6.208983
 20
5.086431
 30
0.0
  9
$EXTMAX
 10
73.922696
 20
80.756921
 30
96.0
  9
$LIMMIN
 10
0.0
 20
0.0
  9
$LIMMAX
 10
85.0
 20
110.0
  9
$ORTHOMODE
 70
     1
  9
$REGENMODE
 70
     1
  9
$FILLMODE
 70
     1
  9
$QTEXTMODE
 70
     0
  9
$MIRRTEXT
 70
     1
  9
$DRAGMODE
 70
     2
  9
$LTSCALE
 40
3.0
  9
$OSMODE
 70
    37
  9
$ATTMODE
 70
     1
  9
$TEXTSIZE
 40
0.2
  9
$TRACEWID
 40
0.05
  9
$TEXTSTYLE
  7
STANDARD
  9
$CLAYER
  8
0
  9
$CELTYPE
  6
BYLAYER
  9
$CECOLOR
 62
   256
  9
$CELTSCALE
 40
1.0
  9
$DELOBJ
 70
     1
  9
$DISPSILH
 70
     0
  9
$DIMSCALE
 40
1.0
  9
$DIMASZ
 40
0.18
  9
$DIMEXO
 40
0.0625
  9
$DIMDLI
 40
0.38
  9
$DIMRND
 40
0.0
  9
$DIMDLE
 40
0.0
  9
$DIMEXE
 40
0.18
  9
$DIMTP
 40
0.0
  9
$DIMTM
 40
0.0
  9
$DIMTXT
 40
0.18
  9
$DIMCEN
 40
0.09
  9
$DIMTSZ
 40
0.0
  9
$DIMTOL
 70
     0
  9
$DIMLIM
 70
     0
  9
$DIMTIH
 70
     1
  9
$DIMTOH
 70
     1
  9
$DIMSE1
 70
     0
  9
$DIMSE2
 70
     0
  9
$DIMTAD
 70
     0
  9
$DIMZIN
 70
     0
  9
$DIMBLK
  1

  9
$DIMASO
 70
     1
  9
$DIMSHO
 70
     1
  9
$DIMPOST
  1

  9
$DIMAPOST
  1

  9
$DIMALT
 70
     0
  9
$DIMALTD
 70
     2
  9
$DIMALTF
 40
25.4
  9
$DIMLFAC
 40
1.0
  9
$DIMTOFL
 70
     0
  9
$DIMTVP
 40
0.0
  9
$DIMTIX
 70
     0
  9
$DIMSOXD
 70
     0
  9
$DIMSAH
 70
     0
  9
$DIMBLK1
  1

  9
$DIMBLK2
  1

  9
$DIMSTYLE
  2
STANDARD
  9
$DIMCLRD
 70
     0
  9
$DIMCLRE
 70
     0
  9
$DIMCLRT
 70
     0
  9
$DIMTFAC
 40
1.0
  9
$DIMGAP
 40
0.09
  9
$DIMJUST
 70
     0
  9
$DIMSD1
 70
     0
  9
$DIMSD2
 70
     0
  9
$DIMTOLJ
 70
     1
  9
$DIMTZIN
 70
     0
  9
$DIMALTZ
 70
     0
  9
$DIMALTTZ
 70
     0
  9
$DIMFIT
 70
     5
  9
$DIMUPT
 70
     0
  9
$DIMUNIT
 70
     4
  9
$DIMDEC
 70
     4
  9
$DIMTDEC
 70
     4
  9
$DIMALTU
 70
     4
  9
$DIMALTTD
 70
     2
  9
$DIMTXSTY
  7
STANDARD
  9
$DIMAUNIT
 70
     2
  9
$LUNITS
 70
     4
  9
$LUPREC
 70
     4
  9
$SKETCHINC
 40
0.1
  9
$FILLETRAD
 40
0.0
  9
$AUNITS
 70
     2
  9
$AUPREC
 70
     0
  9
$MENU
  1
acad
  9
$ELEVATION
 40
0.0
  9
$PELEVATION
 40
0.0
  9
$THICKNESS
 40
0.0
  9
$LIMCHECK
 70
     0
  9
$BLIPMODE
 70
     1
  9
$CHAMFERA
 40
0.0
  9
$CHAMFERB
 40
0.0
  9
$CHAMFERC
 40
0.0
  9
$CHAMFERD
 40
0.0
  9
$SKPOLY
 70
     0
  9
$TDCREATE
 40
2451166.755591666
  9
$TDUPDATE
 40
2452235.721823263
  9
$TDINDWG
 40
0.0252821759
  9
$TDUSRTIMER
 40
0.0252821759
  9
$USRTIMER
 70
     1
  9
$ANGBASE
 50
0.0
  9
$ANGDIR
 70
     0
  9
$PDMODE
 70
     0
  9
$PDSIZE
 40
0.0
  9
$PLINEWID
 40
0.0
  9
$COORDS
 70
     1
  9
$SPLFRAME
 70
     0
  9
$SPLINETYPE
 70
     6
  9
$SPLINESEGS
 70
     8
  9
$ATTDIA
 70
     0
  9
$ATTREQ
 70
     1
  9
$HANDLING
 70
     1
  9
$HANDSEED
  5
AE2
  9
$SURFTAB1
 70
     6
  9
$SURFTAB2
 70
     6
  9
$SURFTYPE
 70
     6
  9
$SURFU
 70
     6
  9
$SURFV
 70
     6
  9
$UCSNAME
  2

  9
$UCSORG
 10
0.0
 20
0.0
 30
0.0
  9
$UCSXDIR
 10
1.0
 20
0.0
 30
0.0
  9
$UCSYDIR
 10
0.0
 20
1.0
 30
0.0
  9
$PUCSNAME
  2

  9
$PUCSORG
 10
0.0
 20
0.0
 30
0.0
  9
$PUCSXDIR
 10
1.0
 20
0.0
 30
0.0
  9
$PUCSYDIR
 10
0.0
 20
1.0
 30
0.0
  9
$USERI1
 70
     0
  9
$USERI2
 70
     0
  9
$USERI3
 70
     0
  9
$USERI4
 70
     0
  9
$USERI5
 70
     0
  9
$USERR1
 40
0.0
  9
$USERR2
 40
0.0
  9
$USERR3
 40
0.0
  9
$USERR4
 40
0.0
  9
$USERR5
 40
0.0
  9
$WORLDVIEW
 70
     1
  9
$SHADEDGE
 70
     3
  9
$SHADEDIF
 70
    70
  9
$TILEMODE
 70
     1
  9
$MAXACTVP
 70
    16
  9
$PINSBASE
 10
0.0
 20
0.0
 30
0.0
  9
$PLIMCHECK
 70
     0
  9
$PEXTMIN
 10
1.000000E+20
 20
1.000000E+20
 30
1.000000E+20
  9
$PEXTMAX
 10
-1.000000E+20
 20
-1.000000E+20
 30
-1.000000E+20
  9
$PLIMMIN
 10
0.0
 20
0.0
  9
$PLIMMAX
 10
12.0
 20
9.0
  9
$UNITMODE
 70
     0
  9
$VISRETAIN
 70
     0
  9
$PLINEGEN
 70
     0
  9
$PSLTSCALE
 70
     1
  9
$TREEDEPTH
 70
  3020
  9
$PICKSTYLE
 70
     1
  9
$CMLSTYLE
  2
STANDARD
  9
$CMLJUST
 70
     0
  9
$CMLSCALE
 40
1.0
  9
$PROXYGRAPHICS
 70
     1
  9
$MEASUREMENT
 70
     0
  0
ENDSEC
  0
SECTION
  2
CLASSES
  0
CLASS
  1
DICTIONARYVAR
  2
AcDbDictionaryVar
  3
"AutoCAD"
 90
        0
280
     0
281
     0
  0
CLASS
  1
LWPOLYLINE
  2
AcDbPolyline
  3
"AutoCAD"
 90
        0
280
     0
281
     1
  0
ENDSEC
  0
SECTION
  2
TABLES
  0
TABLE
  2
VPORT
  5
8
100
AcDbSymbolTable
 70
     1
  0
VPORT
  5
ADC
100
AcDbSymbolTableRecord
100
AcDbViewportTableRecord
  2
*ACTIVE
 70
     0
 10
0.0
 20
0.0
 11
1.0
 21
1.0
 12
39.771677
 22
42.811405
 13
0.0
 23
0.0
 14
1.0
 24
1.0
 15
1.0
 25
1.0
 16
0.0
 26
0.0
 36
1.0
 17
0.0
 27
0.0
 37
0.0
 40
84.826754
 41
1.474388
 42
50.0
 43
0.0
 44
0.0
 50
0.0
 51
0.0
 71
     0
 72
   100
 73
     1
 74
     1
 75
     0
 76
     0
 77
     0
 78
     0
  0
ENDTAB
  0
TABLE
  2
LTYPE
  5
5
100
AcDbSymbolTable
 70
     2
  0
LTYPE
  5
11
100
AcDbSymbolTableRecord
100
AcDbLinetypeTableRecord
  2
BYBLOCK
 70
     0
  3

 72
    65
 73
     0
 40
0.0
  0
LTYPE
  5
12
100
AcDbSymbolTableRecord
100
AcDbLinetypeTableRecord
  2
BYLAYER
 70
     0
  3

 72
    65
 73
     0
 40
0.0
  0
LTYPE
  5
13
100
AcDbSymbolTableRecord
100
AcDbLinetypeTableRecord
  2
CONTINUOUS
 70
     0
  3
Solid line
 72
    65
 73
     0
 40
0.0
  0
LTYPE
  5
1F
100
AcDbSymbolTableRecord
100
AcDbLinetypeTableRecord
  2
HIDDEN
 70
     0
  3
__ __ __ __ __ __ __ __ __ __ __ __ __ __ __ __
 72
    65
 73
     2
 40
0.375
 49
0.25
 74
     0
 49
-0.125
 74
     0
  0
ENDTAB
  0
TABLE
  2
LAYER
  5
2
100
AcDbSymbolTable
 70
     7
  0
LAYER
  5
E
100
AcDbSymbolTableRecord
100
AcDbLayerTableRecord
  2
0
 70
     0
 62
     7
  6
CONTINUOUS
  0
LAYER
  5
24
100
AcDbSymbolTableRecord
100
AcDbLayerTableRecord
  2
DRAWING
 70
     0
 62
     7
  6
CONTINUOUS
  0
LAYER
  5
25
100
AcDbSymbolTableRecord
100
AcDbLayerTableRecord
  2
HATCH
 70
     0
 62
     3
  6
CONTINUOUS
  0
LAYER
  5
26
100
AcDbSymbolTableRecord
100
AcDbLayerTableRecord
  2
DIM_TEXT
 70
     0
 62
     6
  6
CONTINUOUS
  0
LAYER
  5
27
100
AcDbSymbolTableRecord
100
AcDbLayerTableRecord
  2
HIDDEN
 70
     0
 62
     4
  6
HIDDEN
  0
LAYER
  5
28
100
AcDbSymbolTableRecord
100
AcDbLayerTableRecord
  2
WALL
 70
     0
 62
     7
  6
CONTINUOUS
  0
LAYER
  5
450
100
AcDbSymbolTableRecord
100
AcDbLayerTableRecord
  2
BORDER
 70
     0
 62
    14
  6
CONTINUOUS
  0
ENDTAB
  0
TABLE
  2
STYLE
  5
3
100
AcDbSymbolTable
 70
     3
  0
STYLE
  5
F
100
AcDbSymbolTableRecord
100
AcDbTextStyleTableRecord
  2
STANDARD
 70
     0
 40
0.0
 41
1.0
 50
0.0
 71
     0
 42
0.2
  3
txt
  4

  0
STYLE
  5
1E
100
AcDbSymbolTableRecord
100
AcDbTextStyleTableRecord
  2
TITLE
 70
     0
 40
0.0
 41
1.0
 50
0.0
 71
     0
 42
2.8
  3
C:\ACADWIN\FONTS\ROMANC.SHX
  4

  0
STYLE
  5
451
100
AcDbSymbolTableRecord
100
AcDbTextStyleTableRecord
  2
ROMANS
 70
     0
 40
0.0
 41
1.0
 50
0.0
 71
     0
 42
2.25
  3
romans
  4

  0
ENDTAB
  0
TABLE
  2
VIEW
  5
6
100
AcDbSymbolTable
 70
     0
  0
ENDTAB
  0
TABLE
  2
UCS
  5
7
100
AcDbSymbolTable
 70
     0
  0
ENDTAB
  0
TABLE
  2
APPID
  5
9
100
AcDbSymbolTable
 70
     2
  0
APPID
  5
10
100
AcDbSymbolTableRecord
100
AcDbRegAppTableRecord
  2
ACAD
 70
     0
  0
APPID
  5
23
100
AcDbSymbolTableRecord
100
AcDbRegAppTableRecord
  2
ZIMM
 70
     0
  0
ENDTAB
  0
TABLE
  2
DIMSTYLE
  5
A
100
AcDbSymbolTable
 70
     1
  0
DIMSTYLE
105
44D
100
AcDbSymbolTableRecord
100
AcDbDimStyleTableRecord
  2
STANDARD
 70
     0
  3

  4

  5

  6

  7

 40
1.0
 41
0.18
 42
0.0625
 43
0.38
 44
0.18
 45
0.0
 46
0.0
 47
0.0
 48
0.0
140
0.18
141
0.09
142
0.0
143
25.4
144
1.0
145
0.0
146
1.0
147
0.09
 71
     0
 72
     0
 73
     1
 74
     1
 75
     0
 76
     0
 77
     0
 78
     0
170
     0
171
     2
172
     0
173
     0
174
     0
175
     0
176
     0
177
     0
178
     0
270
     2
271
     4
272
     4
273
     2
274
     2
340
F
275
     0
280
     0
281
     0
282
     0
283
     1
284
     0
285
     0
286
     0
287
     3
288
     0
  0
ENDTAB
  0
TABLE
  2
BLOCK_RECORD
  5
1
100
AcDbSymbolTable
 70
     2
  0
BLOCK_RECORD
  5
17
100
AcDbSymbolTableRecord
100
AcDbBlockTableRecord
  2
*MODEL_SPACE
  0
BLOCK_RECORD
  5
14
100
AcDbSymbolTableRecord
100
AcDbBlockTableRecord
  2
*PAPER_SPACE
  0
BLOCK_RECORD
  5
452
100
AcDbSymbolTableRecord
100
AcDbBlockTableRecord
  2
A$C725778E3
  0
BLOCK_RECORD
  5
AD6
100
AcDbSymbolTableRecord
100
AcDbBlockTableRecord
  2
_CLOSEDBLANK
  0
ENDTAB
  0
ENDSEC
  0
SECTION
  2
BLOCKS
  0
BLOCK
  5
2B
100
AcDbEntity
  8
0
100
AcDbBlockBegin
  2
*MODEL_SPACE
 70
     0
 10
0.0
 20
0.0
 30
0.0
  3
*MODEL_SPACE
  1

  0
ENDBLK
  5
2C
100
AcDbEntity
  8
0
100
AcDbBlockEnd
  0
BLOCK
  5
29
100
AcDbEntity
 67
     1
  8
0
100
AcDbBlockBegin
  2
*PAPER_SPACE
 70
     0
 10
0.0
 20
0.0
 30
0.0
  3
*PAPER_SPACE
  1

  0
ENDBLK
  5
2A
100
AcDbEntity
 67
     1
  8
0
100
AcDbBlockEnd
  0
BLOCK
  5
78F
100
AcDbEntity
  8
0
100
AcDbBlockBegin
  2
A$C725778E3
 70
     0
 10
0.0
 20
0.0
 30
0.0
  3
A$C725778E3
  1

  0
LINE
  5
453
100
AcDbEntity
  8
0
  6
CONTINUOUS
100
AcDbLine
 39
96.0
 10
36.86725
 20
41.071708
 30
0.0
 11
36.86725
 21
39.571708
 31
0.0
  0
LINE
  5
454
100
AcDbEntity
  8
0
  6
CONTINUOUS
100
AcDbLine
 39
96.0
 10
30.61725
 20
39.571708
 30
0.0
 11
36.86725
 21
41.071708
 31
0.0
  0
LINE
  5
455
100
AcDbEntity
  8
0
  6
CONTINUOUS
100
AcDbLine
 39
96.0
 10
30.61725
 20
41.071708
 30
0.0
 11
30.61725
 21
39.571708
 31
0.0
  0
LINE
  5
456
100
AcDbEntity
  8
0
  6
CONTINUOUS
 62
     1
100
AcDbLine
 39
96.0
 10
32.520616
 20
33.666004
 30
0.0
 11
32.509872
 21
33.727589
 31
0.0
  0
LINE
  5
457
100
AcDbEntity
  8
0
  6
CONTINUOUS
 62
     1
100
AcDbLine
 39
96.0
 10
32.232528
 20
33.667652
 30
0.0
 11
32.196641
 21
33.718921
 31
0.0
  0
LINE
  5
458
100
AcDbEntity
  8
0
  6
CONTINUOUS
 62
     1
100
AcDbLine
 39
96.0
 10
34.235703
 20
33.3344
 30
0.0
 11
34.176866
 21
33.355762
 31
0.0
  0
LINE
  5
459
100
AcDbEntity
  8
0
  6
CONTINUOUS
 62
     1
100
AcDbLine
 39
90.0
 10
33.613875
 20
32.166187
 30
0.0
 11
33.580185
 21
32.214161
 31
0.0
  0
LINE
  5
45A
100
AcDbEntity
  8
0
  6
CONTINUOUS
 62
     1
100
AcDbLine
 39
90.0
 10
33.928085
 20
33.510425
 30
0.0
 11
33.89415
 21
33.558399
 31
0.0
  0
LINE
  5
45B
100
AcDbEntity
  8
0
  6
CONTINUOUS
 62
    15
100
AcDbLine
 39
89.99775
 10
33.505966
 20
32.529102
 30
0.0
 11
32.317
 21
32.529102
 31
0.0
  0
LINE
  5
45C
100
AcDbEntity
  8
0
  6
CONTINUOUS
 62
    15
100
AcDbLine
 39
89.99775
 10
32.317
 20
33.232227
 30
0.0
 11
32.317
 21
32.529102
 31
0.0
  0
LINE
  5
45D
100
AcDbEntity
  8
0
  6
CONTINUOUS
 62
    15
100
AcDbLine
 39
89.99775
 10
33.154403
 20
33.232227
 30
0.0
 11
32.317
 21
33.232227
 31
0.0
  0
ARC
  5
45E
100
AcDbEntity
  8
0
  6
CONTINUOUS
 62
    15
100
AcDbCircle
 39
89.99775
 10
33.154403
 20
33.58379
 30
0.0
 40
0.351554
100
AcDbArc
 50
270.0
 51
0.0
  0
ARC
  5
45F
100
AcDbEntity
  8
0
  6
CONTINUOUS
 62
    15
100
AcDbCircle
 39
89.99775
 10
33.505966
 20
33.232227
 30
0.0
 40
0.703108
100
AcDbArc
 50
270.0
 51
0.0
  0
LINE
  5
460
100
AcDbEntity
  8
0
  6
CONTINUOUS
 62
    15
100
AcDbLine
 39
89.99775
 10
34.209091
 20
41.071708
 30
0.0
 11
34.209091
 21
33.232227
 31
0.0
  0
LINE
  5
461
100
AcDbEntity
  8
0
  6
CONTINUOUS
 62
    15
100
AcDbLine
 39
89.99775
 10
33.505966
 20
41.071708
 30
0.0
 11
33.505966
 21
33.58379
 31
0.0
  0
LINE
  5
462
100
AcDbEntity
  8
0
  6
CONTINUOUS
 62
     1
100
AcDbLine
 39
96.0
 10
33.286728
 20
41.555104
 30
0.0
 11
33.285263
 21
41.065358
 31
0.0
  0
LINE
  5
463
100
AcDbEntity
  8
0
  6
CONTINUOUS
 62
     1
100
AcDbLine
 39
67.498313
 10
34.428819
 20
41.555104
 30
0.0
 11
33.286728
 21
41.555104
 31
0.0
  0
LINE
  5
464
100
AcDbEntity
  8
0
  6
CONTINUOUS
 62
     1
100
AcDbLine
 39
67.498313
 10
34.209091
 20
42.041676
 30
0.0
 11
34.209091
 21
41.555104
 31
0.0
  0
LINE
  5
465
100
AcDbEntity
  8
0
  6
CONTINUOUS
 62
     1
100
AcDbLine
 39
67.498313
 10
33.505966
 20
42.041676
 30
0.0
 11
34.209091
 21
42.041676
 31
0.0
  0
LINE
  5
466
100
AcDbEntity
  8
0
  6
CONTINUOUS
 62
     1
100
AcDbLine
 39
67.498313
 10
33.505966
 20
41.555104
 30
0.0
 11
33.505966
 21
42.041676
 31
0.0
  0
LINE
  5
467
100
AcDbEntity
  8
0
  6
CONTINUOUS
 62
     1
100
AcDbLine
 39
67.498313
 10
33.525253
 20
41.424733
 30
0.0
 11
33.426375
 21
41.555104
 31
0.0
  0
LINE
  5
468
100
AcDbEntity
  8
0
  6
CONTINUOUS
 62
     1
100
AcDbLine
 39
67.498313
 10
33.525253
 20
41.424733
 30
0.0
 11
33.624375
 21
41.555104
 31
0.0
  0
LINE
  5
469
100
AcDbEntity
  8
0
  6
CONTINUOUS
 62
     1
100
AcDbLine
 39
67.498313
 10
34.199813
 20
41.424733
 30
0.0
 11
34.100938
 21
41.555104
 31
0.0
  0
LINE
  5
46A
100
AcDbEntity
  8
0
  6
CONTINUOUS
 62
     1
100
AcDbLine
 39
67.498313
 10
34.199813
 20
41.424733
 30
0.0
 11
34.299669
 21
41.555104
 31
0.0
  0
LINE
  5
46B
100
AcDbEntity
  8
0
  6
CONTINUOUS
 62
     1
100
AcDbLine
 39
67.498313
 10
33.525253
 20
41.071708
 30
0.0
 11
33.525253
 21
41.424733
 31
0.0
  0
LINE
  5
46C
100
AcDbEntity
  8
0
  6
CONTINUOUS
 62
     1
100
AcDbLine
 39
67.498313
 10
34.199813
 20
41.071708
 30
0.0
 11
34.199813
 21
41.424733
 31
0.0
  0
LINE
  5
46D
100
AcDbEntity
  8
0
  6
CONTINUOUS
 62
     1
100
AcDbLine
 39
67.498313
 10
34.428819
 20
41.071708
 30
0.0
 11
34.428819
 21
41.555104
 31
0.0
  0
LINE
  5
46E
100
AcDbEntity
  8
0
  6
CONTINUOUS
100
AcDbLine
 39
96.0
 10
30.61725
 20
41.071708
 30
0.0
 11
36.86725
 21
39.571708
 31
0.0
  0
LINE
  5
46F
100
AcDbEntity
  8
0
  6
CONTINUOUS
100
AcDbLine
 39
96.0
 10
36.86725
 20
41.071708
 30
0.0
 11
30.61725
 21
39.571708
 31
0.0
  0
LINE
  5
470
100
AcDbEntity
  8
0
  6
CONTINUOUS
100
AcDbLine
 39
96.0
 10
30.61725
 20
41.071708
 30
0.0
 11
36.86725
 21
41.071708
 31
0.0
  0
LINE
  5
471
100
AcDbEntity
  8
BORDER
  6
CONTINUOUS
 62
     2
100
AcDbLine
 39
96.0
 10
38.32965
 20
39.151601
 30
0.0
 11
38.32965
 21
39.151601
 31
0.0
  0
LINE
  5
472
100
AcDbEntity
  8
BORDER
  6
CONTINUOUS
 62
     2
100
AcDbLine
 39
96.0
 10
37.86095
 20
39.151601
 30
0.0
 11
37.86095
 21
39.151601
 31
0.0
  0
LINE
  5
473
100
AcDbEntity
  8
BORDER
  6
CONTINUOUS
 62
     2
100
AcDbLine
 39
96.0
 10
37.39215
 20
39.151601
 30
0.0
 11
37.39215
 21
39.151601
 31
0.0
  0
LINE
  5
474
100
AcDbEntity
  8
BORDER
  6
CONTINUOUS
 62
     2
100
AcDbLine
 39
96.0
 10
38.32965
 20
38.214101
 30
0.0
 11
38.32965
 21
38.214101
 31
0.0
  0
LINE
  5
475
100
AcDbEntity
  8
BORDER
  6
CONTINUOUS
 62
     2
100
AcDbLine
 39
96.0
 10
37.86095
 20
38.214101
 30
0.0
 11
37.86095
 21
38.214101
 31
0.0
  0
LINE
  5
476
100
AcDbEntity
  8
BORDER
  6
CONTINUOUS
 62
     2
100
AcDbLine
 39
96.0
 10
37.39215
 20
38.214101
 30
0.0
 11
37.39215
 21
38.214101
 31
0.0
  0
LINE
  5
477
100
AcDbEntity
  8
BORDER
  6
CONTINUOUS
 62
     2
100
AcDbLine
 39
96.0
 10
38.56405
 20
38.682801
 30
0.0
 11
38.56405
 21
38.682801
 31
0.0
  0
LINE
  5
478
100
AcDbEntity
  8
BORDER
  6
CONTINUOUS
 62
     2
100
AcDbLine
 39
96.0
 10
38.09525
 20
38.682801
 30
0.0
 11
38.09525
 21
38.682801
 31
0.0
  0
LINE
  5
479
100
AcDbEntity
  8
BORDER
  6
CONTINUOUS
 62
     2
100
AcDbLine
 39
96.0
 10
37.62655
 20
38.682801
 30
0.0
 11
37.62655
 21
38.682801
 31
0.0
  0
LINE
  5
47A
100
AcDbEntity
  8
BORDER
  6
CONTINUOUS
 62
     2
100
AcDbLine
 39
96.0
 10
37.15775
 20
38.682801
 30
0.0
 11
37.15775
 21
38.682801
 31
0.0
  0
LINE
  5
47B
100
AcDbEntity
  8
BORDER
  6
CONTINUOUS
 62
     2
100
AcDbLine
 39
96.0
 10
38.32965
 20
37.276601
 30
0.0
 11
38.32965
 21
37.276601
 31
0.0
  0
LINE
  5
47C
100
AcDbEntity
  8
BORDER
  6
CONTINUOUS
 62
     2
100
AcDbLine
 39
96.0
 10
37.86095
 20
37.276601
 30
0.0
 11
37.86095
 21
37.276601
 31
0.0
  0
LINE
  5
47D
100
AcDbEntity
  8
BORDER
  6
CONTINUOUS
 62
     2
100
AcDbLine
 39
96.0
 10
37.39215
 20
37.276601
 30
0.0
 11
37.39215
 21
37.276601
 31
0.0
  0
LINE
  5
47E
100
AcDbEntity
  8
BORDER
  6
CONTINUOUS
 62
     2
100
AcDbLine
 39
96.0
 10
38.56405
 20
37.745301
 30
0.0
 11
38.56405
 21
37.745301
 31
0.0
  0
LINE
  5
47F
100
AcDbEntity
  8
BORDER
  6
CONTINUOUS
 62
     2
100
AcDbLine
 39
96.0
 10
38.09525
 20
37.745301
 30
0.0
 11
38.09525
 21
37.745301
 31
0.0
  0
LINE
  5
480
100
AcDbEntity
  8
BORDER
  6
CONTINUOUS
 62
     2
100
AcDbLine
 39
96.0
 10
37.62655
 20
37.745301
 30
0.0
 11
37.62655
 21
37.745301
 31
0.0
  0
LINE
  5
481
100
AcDbEntity
  8
BORDER
  6
CONTINUOUS
 62
     2
100
AcDbLine
 39
96.0
 10
37.15775
 20
37.745301
 30
0.0
 11
37.15775
 21
37.745301
 31
0.0
  0
LINE
  5
482
100
AcDbEntity
  8
BORDER
  6
CONTINUOUS
 62
     2
100
AcDbLine
 39
96.0
 10
38.32965
 20
36.339101
 30
0.0
 11
38.32965
 21
36.339101
 31
0.0
  0
LINE
  5
483
100
AcDbEntity
  8
BORDER
  6
CONTINUOUS
 62
     2
100
AcDbLine
 39
96.0
 10
37.86095
 20
36.339101
 30
0.0
 11
37.86095
 21
36.339101
 31
0.0
  0
LINE
  5
484
100
AcDbEntity
  8
BORDER
  6
CONTINUOUS
 62
     2
100
AcDbLine
 39
96.0
 10
37.39215
 20
36.339101
 30
0.0
 11
37.39215
 21
36.339101
 31
0.0
  0
LINE
  5
485
100
AcDbEntity
  8
BORDER
  6
CONTINUOUS
 62
     2
100
AcDbLine
 39
96.0
 10
38.56405
 20
36.807801
 30
0.0
 11
38.56405
 21
36.807801
 31
0.0
  0
LINE
  5
486
100
AcDbEntity
  8
BORDER
  6
CONTINUOUS
 62
     2
100
AcDbLine
 39
96.0
 10
38.09525
 20
36.807801
 30
0.0
 11
38.09525
 21
36.807801
 31
0.0
  0
LINE
  5
487
100
AcDbEntity
  8
BORDER
  6
CONTINUOUS
 62
     2
100
AcDbLine
 39
96.0
 10
37.62655
 20
36.807801
 30
0.0
 11
37.62655
 21
36.807801
 31
0.0
  0
LINE
  5
488
100
AcDbEntity
  8
BORDER
  6
CONTINUOUS
 62
     2
100
AcDbLine
 39
96.0
 10
37.15775
 20
36.807801
 30
0.0
 11
37.15775
 21
36.807801
 31
0.0
  0
LINE
  5
489
100
AcDbEntity
  8
BORDER
  6
CONTINUOUS
 62
     2
100
AcDbLine
 39
96.0
 10
38.73905
 20
39.440101
 30
0.0
 11
38.73905
 21
39.440101
 31
0.0
  0
LINE
  5
48A
100
AcDbEntity
  8
BORDER
  6
CONTINUOUS
 62
     2
100
AcDbLine
 39
96.0
 10
38.73905
 20
38.971301
 30
0.0
 11
38.73905
 21
38.971301
 31
0.0
  0
LINE
  5
48B
100
AcDbEntity
  8
BORDER
  6
CONTINUOUS
 62
     3
100
AcDbLine
 39
96.0
 10
28.74225
 20
39.571708
 30
0.0
 11
38.742852
 21
39.571708
 31
0.0
  0
LINE
  5
48C
100
AcDbEntity
  8
BORDER
  6
CONTINUOUS
 62
     3
100
AcDbLine
 39
96.0
 10
38.74225
 20
24.6844
 30
0.0
 11
36.86725
 21
24.6844
 31
0.0
  0
LINE
  5
48D
100
AcDbEntity
  8
BORDER
  6
CONTINUOUS
 62
     3
100
AcDbLine
 39
96.0
 10
30.61725
 20
24.6844
 30
0.0
 11
28.74225
 21
24.6844
 31
0.0
  0
LINE
  5
48E
100
AcDbEntity
  8
BORDER
  6
CONTINUOUS
 62
     3
100
AcDbLine
 39
96.0
 10
28.74225
 20
24.6844
 30
0.0
 11
30.61725
 21
24.6844
 31
0.0
  0
ARC
  5
48F
100
AcDbEntity
  8
BORDER
  6
CONTINUOUS
 62
     3
100
AcDbCircle
 39
96.0
 10
33.74225
 20
24.6844
 30
0.0
 40
3.0
100
AcDbArc
 50
0.0
 51
180.0
  0
LINE
  5
490
100
AcDbEntity
  8
BORDER
  6
CONTINUOUS
 62
     3
100
AcDbLine
 39
96.0
 10
36.86725
 20
24.6844
 30
0.0
 11
38.74225
 21
24.6844
 31
0.0
  0
LINE
  5
491
100
AcDbEntity
  8
BORDER
  6
CONTINUOUS
 62
     1
100
AcDbLine
 39
96.0
 10
32.00565
 20
30.8203
 30
0.0
 11
32.06455
 21
30.8416
 31
0.0
  0
LINE
  5
492
100
AcDbEntity
  8
BORDER
  6
CONTINUOUS
 62
     1
100
AcDbLine
 39
96.0
 10
32.86065
 20
28.471
 30
0.0
 11
32.91955
 21
28.4924
 31
0.0
  0
LINE
  5
493
100
AcDbEntity
  8
BORDER
  6
CONTINUOUS
 62
     1
100
AcDbLine
 39
96.0
 10
35.21005
 20
29.3261
 30
0.0
 11
35.26885
 21
29.3475
 31
0.0
  0
LINE
  5
494
100
AcDbEntity
  8
BORDER
  6
CONTINUOUS
 62
     1
100
AcDbLine
 39
96.0
 10
36.06475
 20
26.9769
 30
0.0
 11
36.12365
 21
26.9983
 31
0.0
  0
LINE
  5
495
100
AcDbEntity
  8
BORDER
  6
CONTINUOUS
 62
     1
100
AcDbLine
 39
96.0
 10
31.20105
 20
28.2142
 30
0.0
 11
31.23685
 21
28.2654
 31
0.0
  0
LINE
  5
496
100
AcDbEntity
  8
BORDER
  6
CONTINUOUS
 62
     1
100
AcDbLine
 39
96.0
 10
32.63505
 20
30.2621
 30
0.0
 11
32.67095
 21
30.3133
 31
0.0
  0
LINE
  5
497
100
AcDbEntity
  8
BORDER
  6
CONTINUOUS
 62
     1
100
AcDbLine
 39
96.0
 10
34.68295
 20
28.8282
 30
0.0
 11
34.71885
 21
28.8794
 31
0.0
  0
LINE
  5
498
100
AcDbEntity
  8
BORDER
  6
CONTINUOUS
 62
     1
100
AcDbLine
 39
96.0
 10
36.11705
 20
30.8761
 30
0.0
 11
36.15295
 21
30.9272
 31
0.0
  0
LINE
  5
499
100
AcDbEntity
  8
BORDER
  6
CONTINUOUS
 62
     1
100
AcDbLine
 39
96.0
 10
36.73055
 20
27.3944
 30
0.0
 11
36.76645
 21
27.4456
 31
0.0
  0
LINE
  5
49A
100
AcDbEntity
  8
BORDER
  6
CONTINUOUS
 62
     1
100
AcDbLine
 39
96.0
 10
31.45125
 20
27.4041
 30
0.0
 11
31.46195
 21
27.4657
 31
0.0
  0
LINE
  5
49B
100
AcDbEntity
  8
BORDER
  6
CONTINUOUS
 62
     1
100
AcDbLine
 39
96.0
 10
31.88535
 20
29.8662
 30
0.0
 11
31.89605
 21
29.9277
 31
0.0
  0
LINE
  5
49C
100
AcDbEntity
  8
BORDER
  6
CONTINUOUS
 62
     1
100
AcDbLine
 39
96.0
 10
34.34705
 20
29.4321
 30
0.0
 11
34.35775
 21
29.4936
 31
0.0
  0
LINE
  5
49D
100
AcDbEntity
  8
BORDER
  6
CONTINUOUS
 62
     1
100
AcDbLine
 39
96.0
 10
36.37485
 20
26.536
 30
0.0
 11
36.38555
 21
26.5975
 31
0.0
  0
LINE
  5
49E
100
AcDbEntity
  8
BORDER
  6
CONTINUOUS
 62
     1
100
AcDbLine
 39
96.0
 10
36.80895
 20
28.998
 30
0.0
 11
36.81965
 21
29.0595
 31
0.0
  0
LINE
  5
49F
100
AcDbEntity
  8
BORDER
  6
CONTINUOUS
 62
     2
100
AcDbLine
 39
96.0
 10
28.95465
 20
31.1111
 30
0.0
 11
28.95465
 21
31.1111
 31
0.0
  0
LINE
  5
4A0
100
AcDbEntity
  8
BORDER
  6
CONTINUOUS
 62
     2
100
AcDbLine
 39
96.0
 10
29.42345
 20
31.1111
 30
0.0
 11
29.42345
 21
31.1111
 31
0.0
  0
LINE
  5
4A1
100
AcDbEntity
  8
BORDER
  6
CONTINUOUS
 62
     2
100
AcDbLine
 39
96.0
 10
29.89215
 20
31.1111
 30
0.0
 11
29.89215
 21
31.1111
 31
0.0
  0
LINE
  5
4A2
100
AcDbEntity
  8
BORDER
  6
CONTINUOUS
 62
     2
100
AcDbLine
 39
96.0
 10
30.36095
 20
31.1111
 30
0.0
 11
30.36095
 21
31.1111
 31
0.0
  0
LINE
  5
4A3
100
AcDbEntity
  8
BORDER
  6
CONTINUOUS
 62
     2
100
AcDbLine
 39
96.0
 10
29.18905
 20
30.6423
 30
0.0
 11
29.18905
 21
30.6423
 31
0.0
  0
LINE
  5
4A4
100
AcDbEntity
  8
BORDER
  6
CONTINUOUS
 62
     2
100
AcDbLine
 39
96.0
 10
29.65775
 20
30.6423
 30
0.0
 11
29.65775
 21
30.6423
 31
0.0
  0
LINE
  5
4A5
100
AcDbEntity
  8
BORDER
  6
CONTINUOUS
 62
     2
100
AcDbLine
 39
96.0
 10
30.12655
 20
30.6423
 30
0.0
 11
30.12655
 21
30.6423
 31
0.0
  0
LINE
  5
4A6
100
AcDbEntity
  8
BORDER
  6
CONTINUOUS
 62
     2
100
AcDbLine
 39
96.0
 10
30.59525
 20
30.6423
 30
0.0
 11
30.59525
 21
30.6423
 31
0.0
  0
LINE
  5
4A7
100
AcDbEntity
  8
BORDER
  6
CONTINUOUS
 62
     2
100
AcDbLine
 39
96.0
 10
28.95465
 20
30.1736
 30
0.0
 11
28.95465
 21
30.1736
 31
0.0
  0
LINE
  5
4A8
100
AcDbEntity
  8
BORDER
  6
CONTINUOUS
 62
     2
100
AcDbLine
 39
96.0
 10
29.42345
 20
30.1736
 30
0.0
 11
29.42345
 21
30.1736
 31
0.0
  0
LINE
  5
4A9
100
AcDbEntity
  8
BORDER
  6
CONTINUOUS
 62
     2
100
AcDbLine
 39
96.0
 10
29.89215
 20
30.1736
 30
0.0
 11
29.89215
 21
30.1736
 31
0.0
  0
LINE
  5
4AA
100
AcDbEntity
  8
BORDER
  6
CONTINUOUS
 62
     2
100
AcDbLine
 39
96.0
 10
30.36095
 20
30.1736
 30
0.0
 11
30.36095
 21
30.1736
 31
0.0
  0
LINE
  5
4AB
100
AcDbEntity
  8
BORDER
  6
CONTINUOUS
 62
     2
100
AcDbLine
 39
96.0
 10
29.18905
 20
29.7048
 30
0.0
 11
29.18905
 21
29.7048
 31
0.0
  0
LINE
  5
4AC
100
AcDbEntity
  8
BORDER
  6
CONTINUOUS
 62
     2
100
AcDbLine
 39
96.0
 10
29.65775
 20
29.7048
 30
0.0
 11
29.65775
 21
29.7048
 31
0.0
  0
LINE
  5
4AD
100
AcDbEntity
  8
BORDER
  6
CONTINUOUS
 62
     2
100
AcDbLine
 39
96.0
 10
30.12655
 20
29.7048
 30
0.0
 11
30.12655
 21
29.7048
 31
0.0
  0
LINE
  5
4AE
100
AcDbEntity
  8
BORDER
  6
CONTINUOUS
 62
     2
100
AcDbLine
 39
96.0
 10
30.59525
 20
29.7048
 30
0.0
 11
30.59525
 21
29.7048
 31
0.0
  0
LINE
  5
4AF
100
AcDbEntity
  8
BORDER
  6
CONTINUOUS
 62
     2
100
AcDbLine
 39
96.0
 10
28.95465
 20
29.2361
 30
0.0
 11
28.95465
 21
29.2361
 31
0.0
  0
LINE
  5
4B0
100
AcDbEntity
  8
BORDER
  6
CONTINUOUS
 62
     2
100
AcDbLine
 39
96.0
 10
29.42345
 20
29.2361
 30
0.0
 11
29.42345
 21
29.2361
 31
0.0
  0
LINE
  5
4B1
100
AcDbEntity
  8
BORDER
  6
CONTINUOUS
 62
     2
100
AcDbLine
 39
96.0
 10
29.89215
 20
29.2361
 30
0.0
 11
29.89215
 21
29.2361
 31
0.0
  0
LINE
  5
4B2
100
AcDbEntity
  8
BORDER
  6
CONTINUOUS
 62
     2
100
AcDbLine
 39
96.0
 10
30.36095
 20
29.2361
 30
0.0
 11
30.36095
 21
29.2361
 31
0.0
  0
LINE
  5
4B3
100
AcDbEntity
  8
BORDER
  6
CONTINUOUS
 62
     2
100
AcDbLine
 39
96.0
 10
29.18905
 20
28.7673
 30
0.0
 11
29.18905
 21
28.7673
 31
0.0
  0
LINE
  5
4B4
100
AcDbEntity
  8
BORDER
  6
CONTINUOUS
 62
     2
100
AcDbLine
 39
96.0
 10
29.65775
 20
28.7673
 30
0.0
 11
29.65775
 21
28.7673
 31
0.0
  0
LINE
  5
4B5
100
AcDbEntity
  8
BORDER
  6
CONTINUOUS
 62
     2
100
AcDbLine
 39
96.0
 10
30.12655
 20
28.7673
 30
0.0
 11
30.12655
 21
28.7673
 31
0.0
  0
LINE
  5
4B6
100
AcDbEntity
  8
BORDER
  6
CONTINUOUS
 62
     2
100
AcDbLine
 39
96.0
 10
30.59525
 20
28.7673
 30
0.0
 11
30.59525
 21
28.7673
 31
0.0
  0
LINE
  5
4B7
100
AcDbEntity
  8
BORDER
  6
CONTINUOUS
 62
     2
100
AcDbLine
 39
96.0
 10
28.95465
 20
28.2986
 30
0.0
 11
28.95465
 21
28.2986
 31
0.0
  0
LINE
  5
4B8
100
AcDbEntity
  8
BORDER
  6
CONTINUOUS
 62
     2
100
AcDbLine
 39
96.0
 10
29.42345
 20
28.2986
 30
0.0
 11
29.42345
 21
28.2986
 31
0.0
  0
LINE
  5
4B9
100
AcDbEntity
  8
BORDER
  6
CONTINUOUS
 62
     2
100
AcDbLine
 39
96.0
 10
29.89215
 20
28.2986
 30
0.0
 11
29.89215
 21
28.2986
 31
0.0
  0
LINE
  5
4BA
100
AcDbEntity
  8
BORDER
  6
CONTINUOUS
 62
     2
100
AcDbLine
 39
96.0
 10
30.36095
 20
28.2986
 30
0.0
 11
30.36095
 21
28.2986
 31
0.0
  0
LINE
  5
4BB
100
AcDbEntity
  8
BORDER
  6
CONTINUOUS
 62
     2
100
AcDbLine
 39
96.0
 10
29.18905
 20
27.8298
 30
0.0
 11
29.18905
 21
27.8298
 31
0.0
  0
LINE
  5
4BC
100
AcDbEntity
  8
BORDER
  6
CONTINUOUS
 62
     2
100
AcDbLine
 39
96.0
 10
29.65775
 20
27.8298
 30
0.0
 11
29.65775
 21
27.8298
 31
0.0
  0
LINE
  5
4BD
100
AcDbEntity
  8
BORDER
  6
CONTINUOUS
 62
     2
100
AcDbLine
 39
96.0
 10
30.12655
 20
27.8298
 30
0.0
 11
30.12655
 21
27.8298
 31
0.0
  0
LINE
  5
4BE
100
AcDbEntity
  8
BORDER
  6
CONTINUOUS
 62
     2
100
AcDbLine
 39
96.0
 10
30.59525
 20
27.8298
 30
0.0
 11
30.59525
 21
27.8298
 31
0.0
  0
LINE
  5
4BF
100
AcDbEntity
  8
BORDER
  6
CONTINUOUS
 62
     2
100
AcDbLine
 39
96.0
 10
28.95465
 20
27.3611
 30
0.0
 11
28.95465
 21
27.3611
 31
0.0
  0
LINE
  5
4C0
100
AcDbEntity
  8
BORDER
  6
CONTINUOUS
 62
     2
100
AcDbLine
 39
96.0
 10
29.42345
 20
27.3611
 30
0.0
 11
29.42345
 21
27.3611
 31
0.0
  0
LINE
  5
4C1
100
AcDbEntity
  8
BORDER
  6
CONTINUOUS
 62
     2
100
AcDbLine
 39
96.0
 10
29.89215
 20
27.3611
 30
0.0
 11
29.89215
 21
27.3611
 31
0.0
  0
LINE
  5
4C2
100
AcDbEntity
  8
BORDER
  6
CONTINUOUS
 62
     2
100
AcDbLine
 39
96.0
 10
30.36095
 20
27.3611
 30
0.0
 11
30.36095
 21
27.3611
 31
0.0
  0
LINE
  5
4C3
100
AcDbEntity
  8
BORDER
  6
CONTINUOUS
 62
     2
100
AcDbLine
 39
96.0
 10
29.18905
 20
26.8923
 30
0.0
 11
29.18905
 21
26.8923
 31
0.0
  0
LINE
  5
4C4
100
AcDbEntity
  8
BORDER
  6
CONTINUOUS
 62
     2
100
AcDbLine
 39
96.0
 10
29.65775
 20
26.8923
 30
0.0
 11
29.65775
 21
26.8923
 31
0.0
  0
LINE
  5
4C5
100
AcDbEntity
  8
BORDER
  6
CONTINUOUS
 62
     2
100
AcDbLine
 39
96.0
 10
30.12655
 20
26.8923
 30
0.0
 11
30.12655
 21
26.8923
 31
0.0
  0
LINE
  5
4C6
100
AcDbEntity
  8
BORDER
  6
CONTINUOUS
 62
     2
100
AcDbLine
 39
96.0
 10
30.59525
 20
26.8923
 30
0.0
 11
30.59525
 21
26.8923
 31
0.0
  0
LINE
  5
4C7
100
AcDbEntity
  8
BORDER
  6
CONTINUOUS
 62
     2
100
AcDbLine
 39
96.0
 10
28.95465
 20
26.4236
 30
0.0
 11
28.95465
 21
26.4236
 31
0.0
  0
LINE
  5
4C8
100
AcDbEntity
  8
BORDER
  6
CONTINUOUS
 62
     2
100
AcDbLine
 39
96.0
 10
29.42345
 20
26.4236
 30
0.0
 11
29.42345
 21
26.4236
 31
0.0
  0
LINE
  5
4C9
100
AcDbEntity
  8
BORDER
  6
CONTINUOUS
 62
     2
100
AcDbLine
 39
96.0
 10
29.89215
 20
26.4236
 30
0.0
 11
29.89215
 21
26.4236
 31
0.0
  0
LINE
  5
4CA
100
AcDbEntity
  8
BORDER
  6
CONTINUOUS
 62
     2
100
AcDbLine
 39
96.0
 10
30.36095
 20
26.4236
 30
0.0
 11
30.36095
 21
26.4236
 31
0.0
  0
LINE
  5
4CB
100
AcDbEntity
  8
BORDER
  6
CONTINUOUS
 62
     2
100
AcDbLine
 39
96.0
 10
29.18905
 20
25.9548
 30
0.0
 11
29.18905
 21
25.9548
 31
0.0
  0
LINE
  5
4CC
100
AcDbEntity
  8
BORDER
  6
CONTINUOUS
 62
     2
100
AcDbLine
 39
96.0
 10
29.65775
 20
25.9548
 30
0.0
 11
29.65775
 21
25.9548
 31
0.0
  0
LINE
  5
4CD
100
AcDbEntity
  8
BORDER
  6
CONTINUOUS
 62
     2
100
AcDbLine
 39
96.0
 10
30.12655
 20
25.9548
 30
0.0
 11
30.12655
 21
25.9548
 31
0.0
  0
LINE
  5
4CE
100
AcDbEntity
  8
BORDER
  6
CONTINUOUS
 62
     2
100
AcDbLine
 39
96.0
 10
30.59525
 20
25.9548
 30
0.0
 11
30.59525
 21
25.9548
 31
0.0
  0
LINE
  5
4CF
100
AcDbEntity
  8
BORDER
  6
CONTINUOUS
 62
     2
100
AcDbLine
 39
96.0
 10
28.95465
 20
25.4861
 30
0.0
 11
28.95465
 21
25.4861
 31
0.0
  0
LINE
  5
4D0
100
AcDbEntity
  8
BORDER
  6
CONTINUOUS
 62
     2
100
AcDbLine
 39
96.0
 10
29.42345
 20
25.4861
 30
0.0
 11
29.42345
 21
25.4861
 31
0.0
  0
LINE
  5
4D1
100
AcDbEntity
  8
BORDER
  6
CONTINUOUS
 62
     2
100
AcDbLine
 39
96.0
 10
29.89215
 20
25.4861
 30
0.0
 11
29.89215
 21
25.4861
 31
0.0
  0
LINE
  5
4D2
100
AcDbEntity
  8
BORDER
  6
CONTINUOUS
 62
     2
100
AcDbLine
 39
96.0
 10
30.36095
 20
25.4861
 30
0.0
 11
30.36095
 21
25.4861
 31
0.0
  0
LINE
  5
4D3
100
AcDbEntity
  8
BORDER
  6
CONTINUOUS
 62
     2
100
AcDbLine
 39
96.0
 10
29.18905
 20
25.0173
 30
0.0
 11
29.18905
 21
25.0173
 31
0.0
  0
LINE
  5
4D4
100
AcDbEntity
  8
BORDER
  6
CONTINUOUS
 62
     2
100
AcDbLine
 39
96.0
 10
29.65775
 20
25.0173
 30
0.0
 11
29.65775
 21
25.0173
 31
0.0
  0
LINE
  5
4D5
100
AcDbEntity
  8
BORDER
  6
CONTINUOUS
 62
     2
100
AcDbLine
 39
96.0
 10
30.12655
 20
25.0173
 30
0.0
 11
30.12655
 21
25.0173
 31
0.0
  0
LINE
  5
4D6
100
AcDbEntity
  8
BORDER
  6
CONTINUOUS
 62
     2
100
AcDbLine
 39
96.0
 10
30.59525
 20
25.0173
 30
0.0
 11
30.59525
 21
25.0173
 31
0.0
  0
LINE
  5
4D7
100
AcDbEntity
  8
BORDER
  6
CONTINUOUS
 62
     2
100
AcDbLine
 39
96.0
 10
36.92345
 20
31.1111
 30
0.0
 11
36.92345
 21
31.1111
 31
0.0
  0
LINE
  5
4D8
100
AcDbEntity
  8
BORDER
  6
CONTINUOUS
 62
     2
100
AcDbLine
 39
96.0
 10
37.39215
 20
31.1111
 30
0.0
 11
37.39215
 21
31.1111
 31
0.0
  0
LINE
  5
4D9
100
AcDbEntity
  8
BORDER
  6
CONTINUOUS
 62
     2
100
AcDbLine
 39
96.0
 10
37.86095
 20
31.1111
 30
0.0
 11
37.86095
 21
31.1111
 31
0.0
  0
LINE
  5
4DA
100
AcDbEntity
  8
BORDER
  6
CONTINUOUS
 62
     2
100
AcDbLine
 39
96.0
 10
38.32965
 20
31.1111
 30
0.0
 11
38.32965
 21
31.1111
 31
0.0
  0
LINE
  5
4DB
100
AcDbEntity
  8
BORDER
  6
CONTINUOUS
 62
     2
100
AcDbLine
 39
96.0
 10
37.15775
 20
30.6423
 30
0.0
 11
37.15775
 21
30.6423
 31
0.0
  0
LINE
  5
4DC
100
AcDbEntity
  8
BORDER
  6
CONTINUOUS
 62
     2
100
AcDbLine
 39
96.0
 10
37.62655
 20
30.6423
 30
0.0
 11
37.62655
 21
30.6423
 31
0.0
  0
LINE
  5
4DD
100
AcDbEntity
  8
BORDER
  6
CONTINUOUS
 62
     2
100
AcDbLine
 39
96.0
 10
38.09525
 20
30.6423
 30
0.0
 11
38.09525
 21
30.6423
 31
0.0
  0
LINE
  5
4DE
100
AcDbEntity
  8
BORDER
  6
CONTINUOUS
 62
     2
100
AcDbLine
 39
96.0
 10
38.56405
 20
30.6423
 30
0.0
 11
38.56405
 21
30.6423
 31
0.0
  0
LINE
  5
4DF
100
AcDbEntity
  8
BORDER
  6
CONTINUOUS
 62
     2
100
AcDbLine
 39
96.0
 10
36.92345
 20
30.1736
 30
0.0
 11
36.92345
 21
30.1736
 31
0.0
  0
LINE
  5
4E0
100
AcDbEntity
  8
BORDER
  6
CONTINUOUS
 62
     2
100
AcDbLine
 39
96.0
 10
37.39215
 20
30.1736
 30
0.0
 11
37.39215
 21
30.1736
 31
0.0
  0
LINE
  5
4E1
100
AcDbEntity
  8
BORDER
  6
CONTINUOUS
 62
     2
100
AcDbLine
 39
96.0
 10
37.86095
 20
30.1736
 30
0.0
 11
37.86095
 21
30.1736
 31
0.0
  0
LINE
  5
4E2
100
AcDbEntity
  8
BORDER
  6
CONTINUOUS
 62
     2
100
AcDbLine
 39
96.0
 10
38.32965
 20
30.1736
 30
0.0
 11
38.32965
 21
30.1736
 31
0.0
  0
LINE
  5
4E3
100
AcDbEntity
  8
BORDER
  6
CONTINUOUS
 62
     2
100
AcDbLine
 39
96.0
 10
37.15775
 20
29.7048
 30
0.0
 11
37.15775
 21
29.7048
 31
0.0
  0
LINE
  5
4E4
100
AcDbEntity
  8
BORDER
  6
CONTINUOUS
 62
     2
100
AcDbLine
 39
96.0
 10
37.62655
 20
29.7048
 30
0.0
 11
37.62655
 21
29.7048
 31
0.0
  0
LINE
  5
4E5
100
AcDbEntity
  8
BORDER
  6
CONTINUOUS
 62
     2
100
AcDbLine
 39
96.0
 10
38.09525
 20
29.7048
 30
0.0
 11
38.09525
 21
29.7048
 31
0.0
  0
LINE
  5
4E6
100
AcDbEntity
  8
BORDER
  6
CONTINUOUS
 62
     2
100
AcDbLine
 39
96.0
 10
38.56405
 20
29.7048
 30
0.0
 11
38.56405
 21
29.7048
 31
0.0
  0
LINE
  5
4E7
100
AcDbEntity
  8
BORDER
  6
CONTINUOUS
 62
     2
100
AcDbLine
 39
96.0
 10
36.92345
 20
29.2361
 30
0.0
 11
36.92345
 21
29.2361
 31
0.0
  0
LINE
  5
4E8
100
AcDbEntity
  8
BORDER
  6
CONTINUOUS
 62
     2
100
AcDbLine
 39
96.0
 10
37.39215
 20
29.2361
 30
0.0
 11
37.39215
 21
29.2361
 31
0.0
  0
LINE
  5
4E9
100
AcDbEntity
  8
BORDER
  6
CONTINUOUS
 62
     2
100
AcDbLine
 39
96.0
 10
37.86095
 20
29.2361
 30
0.0
 11
37.86095
 21
29.2361
 31
0.0
  0
LINE
  5
4EA
100
AcDbEntity
  8
BORDER
  6
CONTINUOUS
 62
     2
100
AcDbLine
 39
96.0
 10
38.32965
 20
29.2361
 30
0.0
 11
38.32965
 21
29.2361
 31
0.0
  0
LINE
  5
4EB
100
AcDbEntity
  8
BORDER
  6
CONTINUOUS
 62
     2
100
AcDbLine
 39
96.0
 10
37.15775
 20
28.7673
 30
0.0
 11
37.15775
 21
28.7673
 31
0.0
  0
LINE
  5
4EC
100
AcDbEntity
  8
BORDER
  6
CONTINUOUS
 62
     2
100
AcDbLine
 39
96.0
 10
37.62655
 20
28.7673
 30
0.0
 11
37.62655
 21
28.7673
 31
0.0
  0
LINE
  5
4ED
100
AcDbEntity
  8
BORDER
  6
CONTINUOUS
 62
     2
100
AcDbLine
 39
96.0
 10
38.09525
 20
28.7673
 30
0.0
 11
38.09525
 21
28.7673
 31
0.0
  0
LINE
  5
4EE
100
AcDbEntity
  8
BORDER
  6
CONTINUOUS
 62
     2
100
AcDbLine
 39
96.0
 10
38.56405
 20
28.7673
 30
0.0
 11
38.56405
 21
28.7673
 31
0.0
  0
LINE
  5
4EF
100
AcDbEntity
  8
BORDER
  6
CONTINUOUS
 62
     2
100
AcDbLine
 39
96.0
 10
36.92345
 20
28.2986
 30
0.0
 11
36.92345
 21
28.2986
 31
0.0
  0
LINE
  5
4F0
100
AcDbEntity
  8
BORDER
  6
CONTINUOUS
 62
     2
100
AcDbLine
 39
96.0
 10
37.39215
 20
28.2986
 30
0.0
 11
37.39215
 21
28.2986
 31
0.0
  0
LINE
  5
4F1
100
AcDbEntity
  8
BORDER
  6
CONTINUOUS
 62
     2
100
AcDbLine
 39
96.0
 10
37.86095
 20
28.2986
 30
0.0
 11
37.86095
 21
28.2986
 31
0.0
  0
LINE
  5
4F2
100
AcDbEntity
  8
BORDER
  6
CONTINUOUS
 62
     2
100
AcDbLine
 39
96.0
 10
38.32965
 20
28.2986
 30
0.0
 11
38.32965
 21
28.2986
 31
0.0
  0
LINE
  5
4F3
100
AcDbEntity
  8
BORDER
  6
CONTINUOUS
 62
     2
100
AcDbLine
 39
96.0
 10
37.15775
 20
27.8298
 30
0.0
 11
37.15775
 21
27.8298
 31
0.0
  0
LINE
  5
4F4
100
AcDbEntity
  8
BORDER
  6
CONTINUOUS
 62
     2
100
AcDbLine
 39
96.0
 10
37.62655
 20
27.8298
 30
0.0
 11
37.62655
 21
27.8298
 31
0.0
  0
LINE
  5
4F5
100
AcDbEntity
  8
BORDER
  6
CONTINUOUS
 62
     2
100
AcDbLine
 39
96.0
 10
38.09525
 20
27.8298
 30
0.0
 11
38.09525
 21
27.8298
 31
0.0
  0
LINE
  5
4F6
100
AcDbEntity
  8
BORDER
  6
CONTINUOUS
 62
     2
100
AcDbLine
 39
96.0
 10
38.56405
 20
27.8298
 30
0.0
 11
38.56405
 21
27.8298
 31
0.0
  0
LINE
  5
4F7
100
AcDbEntity
  8
BORDER
  6
CONTINUOUS
 62
     2
100
AcDbLine
 39
96.0
 10
36.92345
 20
27.3611
 30
0.0
 11
36.92345
 21
27.3611
 31
0.0
  0
LINE
  5
4F8
100
AcDbEntity
  8
BORDER
  6
CONTINUOUS
 62
     2
100
AcDbLine
 39
96.0
 10
37.39215
 20
27.3611
 30
0.0
 11
37.39215
 21
27.3611
 31
0.0
  0
LINE
  5
4F9
100
AcDbEntity
  8
BORDER
  6
CONTINUOUS
 62
     2
100
AcDbLine
 39
96.0
 10
37.86095
 20
27.3611
 30
0.0
 11
37.86095
 21
27.3611
 31
0.0
  0
LINE
  5
4FA
100
AcDbEntity
  8
BORDER
  6
CONTINUOUS
 62
     2
100
AcDbLine
 39
96.0
 10
38.32965
 20
27.3611
 30
0.0
 11
38.32965
 21
27.3611
 31
0.0
  0
LINE
  5
4FB
100
AcDbEntity
  8
BORDER
  6
CONTINUOUS
 62
     2
100
AcDbLine
 39
96.0
 10
37.15775
 20
26.8923
 30
0.0
 11
37.15775
 21
26.8923
 31
0.0
  0
LINE
  5
4FC
100
AcDbEntity
  8
BORDER
  6
CONTINUOUS
 62
     2
100
AcDbLine
 39
96.0
 10
37.62655
 20
26.8923
 30
0.0
 11
37.62655
 21
26.8923
 31
0.0
  0
LINE
  5
4FD
100
AcDbEntity
  8
BORDER
  6
CONTINUOUS
 62
     2
100
AcDbLine
 39
96.0
 10
38.09525
 20
26.8923
 30
0.0
 11
38.09525
 21
26.8923
 31
0.0
  0
LINE
  5
4FE
100
AcDbEntity
  8
BORDER
  6
CONTINUOUS
 62
     2
100
AcDbLine
 39
96.0
 10
38.56405
 20
26.8923
 30
0.0
 11
38.56405
 21
26.8923
 31
0.0
  0
LINE
  5
4FF
100
AcDbEntity
  8
BORDER
  6
CONTINUOUS
 62
     2
100
AcDbLine
 39
96.0
 10
36.92345
 20
26.4236
 30
0.0
 11
36.92345
 21
26.4236
 31
0.0
  0
LINE
  5
500
100
AcDbEntity
  8
BORDER
  6
CONTINUOUS
 62
     2
100
AcDbLine
 39
96.0
 10
37.39215
 20
26.4236
 30
0.0
 11
37.39215
 21
26.4236
 31
0.0
  0
LINE
  5
501
100
AcDbEntity
  8
BORDER
  6
CONTINUOUS
 62
     2
100
AcDbLine
 39
96.0
 10
37.86095
 20
26.4236
 30
0.0
 11
37.86095
 21
26.4236
 31
0.0
  0
LINE
  5
502
100
AcDbEntity
  8
BORDER
  6
CONTINUOUS
 62
     2
100
AcDbLine
 39
96.0
 10
38.32965
 20
26.4236
 30
0.0
 11
38.32965
 21
26.4236
 31
0.0
  0
LINE
  5
503
100
AcDbEntity
  8
BORDER
  6
CONTINUOUS
 62
     2
100
AcDbLine
 39
96.0
 10
37.15775
 20
25.9548
 30
0.0
 11
37.15775
 21
25.9548
 31
0.0
  0
LINE
  5
504
100
AcDbEntity
  8
BORDER
  6
CONTINUOUS
 62
     2
100
AcDbLine
 39
96.0
 10
37.62655
 20
25.9548
 30
0.0
 11
37.62655
 21
25.9548
 31
0.0
  0
LINE
  5
505
100
AcDbEntity
  8
BORDER
  6
CONTINUOUS
 62
     2
100
AcDbLine
 39
96.0
 10
38.09525
 20
25.9548
 30
0.0
 11
38.09525
 21
25.9548
 31
0.0
  0
LINE
  5
506
100
AcDbEntity
  8
BORDER
  6
CONTINUOUS
 62
     2
100
AcDbLine
 39
96.0
 10
38.56405
 20
25.9548
 30
0.0
 11
38.56405
 21
25.9548
 31
0.0
  0
LINE
  5
507
100
AcDbEntity
  8
BORDER
  6
CONTINUOUS
 62
     2
100
AcDbLine
 39
96.0
 10
36.92345
 20
25.4861
 30
0.0
 11
36.92345
 21
25.4861
 31
0.0
  0
LINE
  5
508
100
AcDbEntity
  8
BORDER
  6
CONTINUOUS
 62
     2
100
AcDbLine
 39
96.0
 10
37.39215
 20
25.4861
 30
0.0
 11
37.39215
 21
25.4861
 31
0.0
  0
LINE
  5
509
100
AcDbEntity
  8
BORDER
  6
CONTINUOUS
 62
     2
100
AcDbLine
 39
96.0
 10
37.86095
 20
25.4861
 30
0.0
 11
37.86095
 21
25.4861
 31
0.0
  0
LINE
  5
50A
100
AcDbEntity
  8
BORDER
  6
CONTINUOUS
 62
     2
100
AcDbLine
 39
96.0
 10
38.32965
 20
25.4861
 30
0.0
 11
38.32965
 21
25.4861
 31
0.0
  0
LINE
  5
50B
100
AcDbEntity
  8
BORDER
  6
CONTINUOUS
 62
     2
100
AcDbLine
 39
96.0
 10
37.15775
 20
25.0173
 30
0.0
 11
37.15775
 21
25.0173
 31
0.0
  0
LINE
  5
50C
100
AcDbEntity
  8
BORDER
  6
CONTINUOUS
 62
     2
100
AcDbLine
 39
96.0
 10
37.62655
 20
25.0173
 30
0.0
 11
37.62655
 21
25.0173
 31
0.0
  0
LINE
  5
50D
100
AcDbEntity
  8
BORDER
  6
CONTINUOUS
 62
     2
100
AcDbLine
 39
96.0
 10
38.09525
 20
25.0173
 30
0.0
 11
38.09525
 21
25.0173
 31
0.0
  0
LINE
  5
50E
100
AcDbEntity
  8
BORDER
  6
CONTINUOUS
 62
     2
100
AcDbLine
 39
96.0
 10
38.56405
 20
25.0173
 30
0.0
 11
38.56405
 21
25.0173
 31
0.0
  0
LINE
  5
50F
100
AcDbEntity
  8
BORDER
  6
CONTINUOUS
 62
    10
100
AcDbLine
 39
96.0
 10
31.59505
 20
26.6165
 30
0.0
 11
31.52155
 21
26.5898
 31
0.0
  0
LINE
  5
510
100
AcDbEntity
  8
BORDER
  6
CONTINUOUS
 62
    10
100
AcDbLine
 39
96.0
 10
33.73515
 20
27.132
 30
0.0
 11
33.69025
 21
27.068
 31
0.0
  0
LINE
  5
511
100
AcDbEntity
  8
BORDER
  6
CONTINUOUS
 62
    10
100
AcDbLine
 39
96.0
 10
31.94275
 20
24.5721
 30
0.0
 11
31.89775
 21
24.5082
 31
0.0
  0
LINE
  5
512
100
AcDbEntity
  8
BORDER
  6
CONTINUOUS
 62
    10
100
AcDbLine
 39
96.0
 10
34.29425
 20
27.6332
 30
0.0
 11
34.28325
 21
27.5716
 31
0.0
  0
LINE
  5
513
100
AcDbEntity
  8
BORDER
  6
CONTINUOUS
 62
     1
100
AcDbLine
 39
96.0
 10
34.35505
 20
25.0013
 30
0.0
 11
34.41385
 21
25.0226
 31
0.0
  0
LINE
  5
514
100
AcDbEntity
  8
BORDER
  6
CONTINUOUS
 62
     1
100
AcDbLine
 39
96.0
 10
34.78105
 20
25.2201
 30
0.0
 11
34.79185
 21
25.2816
 31
0.0
  0
LINE
  5
515
100
AcDbEntity
  8
BORDER
  6
CONTINUOUS
 62
     1
100
AcDbLine
 39
96.0
 10
34.06915
 20
25.6359
 30
0.0
 11
34.10505
 21
25.6871
 31
0.0
  0
LINE
  5
516
100
AcDbEntity
  8
BORDER
  6
CONTINUOUS
 62
     3
100
AcDbLine
 39
96.0
 10
38.74225
 20
9.6844
 30
0.0
 11
36.86725
 21
9.6844
 31
0.0
  0
LINE
  5
517
100
AcDbEntity
  8
BORDER
  6
CONTINUOUS
 62
     3
100
AcDbLine
 39
96.0
 10
30.61725
 20
9.6844
 30
0.0
 11
28.74225
 21
9.6844
 31
0.0
  0
LINE
  5
518
100
AcDbEntity
  8
BORDER
  6
CONTINUOUS
 62
     3
100
AcDbLine
 39
96.0
 10
28.74225
 20
9.6844
 30
0.0
 11
30.61725
 21
9.6844
 31
0.0
  0
LINE
  5
519
100
AcDbEntity
  8
BORDER
  6
CONTINUOUS
 62
     3
100
AcDbLine
 39
96.0
 10
38.74225
 20
9.6844
 30
0.0
 11
38.74225
 21
24.6844
 31
0.0
  0
LINE
  5
51A
100
AcDbEntity
  8
BORDER
  6
CONTINUOUS
 62
     3
100
AcDbLine
 39
96.0
 10
38.74225
 20
24.6844
 30
0.0
 11
36.86725
 21
24.6844
 31
0.0
  0
LINE
  5
51B
100
AcDbEntity
  8
BORDER
  6
CONTINUOUS
 62
     3
100
AcDbLine
 39
96.0
 10
28.74225
 20
24.6844
 30
0.0
 11
28.74225
 21
9.6844
 31
0.0
  0
LINE
  5
51C
100
AcDbEntity
  8
BORDER
  6
CONTINUOUS
 62
     3
100
AcDbLine
 39
96.0
 10
30.61725
 20
24.6844
 30
0.0
 11
30.61725
 21
9.6844
 31
0.0
  0
LINE
  5
51D
100
AcDbEntity
  8
BORDER
  6
CONTINUOUS
 62
     3
100
AcDbLine
 39
96.0
 10
36.86725
 20
9.6844
 30
0.0
 11
36.86725
 21
24.6844
 31
0.0
  0
ARC
  5
51E
100
AcDbEntity
  8
BORDER
  6
CONTINUOUS
 62
     3
100
AcDbCircle
 39
96.0
 10
33.74225
 20
9.6844
 30
0.0
 40
3.0
100
AcDbArc
 50
0.0
 51
180.0
  0
ARC
  5
51F
100
AcDbEntity
  8
BORDER
  6
CONTINUOUS
 62
     3
100
AcDbCircle
 39
96.0
 10
33.74225
 20
24.6844
 30
0.0
 40
3.0
100
AcDbArc
 50
180.0
 51
0.0
  0
LINE
  5
520
100
AcDbEntity
  8
BORDER
  6
CONTINUOUS
 62
     3
100
AcDbLine
 39
96.0
 10
30.61725
 20
24.6844
 30
0.0
 11
28.74225
 21
24.6844
 31
0.0
  0
LINE
  5
521
100
AcDbEntity
  8
BORDER
  6
CONTINUOUS
 62
     3
100
AcDbLine
 39
96.0
 10
36.86725
 20
9.6844
 30
0.0
 11
38.74225
 21
9.6844
 31
0.0
  0
LINE
  5
522
100
AcDbEntity
  8
BORDER
  6
CONTINUOUS
 62
     1
100
AcDbLine
 39
96.0
 10
32.64505
 20
21.3739
 30
0.0
 11
32.70395
 21
21.3952
 31
0.0
  0
LINE
  5
523
100
AcDbEntity
  8
BORDER
  6
CONTINUOUS
 62
     1
100
AcDbLine
 39
96.0
 10
31.15075
 20
18.1695
 30
0.0
 11
31.20955
 21
18.1909
 31
0.0
  0
LINE
  5
524
100
AcDbEntity
  8
BORDER
  6
CONTINUOUS
 62
     1
100
AcDbLine
 39
96.0
 10
33.50005
 20
19.0246
 30
0.0
 11
33.55895
 21
19.0459
 31
0.0
  0
LINE
  5
525
100
AcDbEntity
  8
BORDER
  6
CONTINUOUS
 62
     1
100
AcDbLine
 39
96.0
 10
35.84945
 20
19.8796
 30
0.0
 11
35.90825
 21
19.901
 31
0.0
  0
LINE
  5
526
100
AcDbEntity
  8
BORDER
  6
CONTINUOUS
 62
     1
100
AcDbLine
 39
96.0
 10
32.00565
 20
15.8203
 30
0.0
 11
32.06455
 21
15.8416
 31
0.0
  0
LINE
  5
527
100
AcDbEntity
  8
BORDER
  6
CONTINUOUS
 62
     1
100
AcDbLine
 39
96.0
 10
34.35505
 20
16.6753
 30
0.0
 11
34.41385
 21
16.6967
 31
0.0
  0
LINE
  5
528
100
AcDbEntity
  8
BORDER
  6
CONTINUOUS
 62
     1
100
AcDbLine
 39
96.0
 10
36.70445
 20
17.5304
 30
0.0
 11
36.76325
 21
17.5517
 31
0.0
  0
LINE
  5
529
100
AcDbEntity
  8
BORDER
  6
CONTINUOUS
 62
     1
100
AcDbLine
 39
96.0
 10
32.86065
 20
13.471
 30
0.0
 11
32.91955
 21
13.4924
 31
0.0
  0
LINE
  5
52A
100
AcDbEntity
  8
BORDER
  6
CONTINUOUS
 62
     1
100
AcDbLine
 39
96.0
 10
35.21005
 20
14.3261
 30
0.0
 11
35.26885
 21
14.3475
 31
0.0
  0
LINE
  5
52B
100
AcDbEntity
  8
BORDER
  6
CONTINUOUS
 62
     1
100
AcDbLine
 39
96.0
 10
36.06475
 20
11.9769
 30
0.0
 11
36.12365
 21
11.9983
 31
0.0
  0
LINE
  5
52C
100
AcDbEntity
  8
BORDER
  6
CONTINUOUS
 62
     1
100
AcDbLine
 39
96.0
 10
31.40735
 20
22.2257
 30
0.0
 11
31.44315
 21
22.2769
 31
0.0
  0
LINE
  5
52D
100
AcDbEntity
  8
BORDER
  6
CONTINUOUS
 62
     1
100
AcDbLine
 39
96.0
 10
32.02135
 20
18.7439
 30
0.0
 11
32.05725
 21
18.795
 31
0.0
  0
LINE
  5
52E
100
AcDbEntity
  8
BORDER
  6
CONTINUOUS
 62
     1
100
AcDbLine
 39
96.0
 10
33.45545
 20
20.7917
 30
0.0
 11
33.49125
 21
20.8429
 31
0.0
  0
LINE
  5
52F
100
AcDbEntity
  8
BORDER
  6
CONTINUOUS
 62
     1
100
AcDbLine
 39
96.0
 10
31.20105
 20
13.2142
 30
0.0
 11
31.23685
 21
13.2654
 31
0.0
  0
LINE
  5
530
100
AcDbEntity
  8
BORDER
  6
CONTINUOUS
 62
     1
100
AcDbLine
 39
96.0
 10
32.63505
 20
15.2621
 30
0.0
 11
32.67095
 21
15.3133
 31
0.0
  0
LINE
  5
531
100
AcDbEntity
  8
BORDER
  6
CONTINUOUS
 62
     1
100
AcDbLine
 39
96.0
 10
34.06915
 20
17.31
 30
0.0
 11
34.10505
 21
17.3612
 31
0.0
  0
LINE
  5
532
100
AcDbEntity
  8
BORDER
  6
CONTINUOUS
 62
     1
100
AcDbLine
 39
96.0
 10
35.50325
 20
19.3579
 30
0.0
 11
35.53915
 21
19.409
 31
0.0
  0
LINE
  5
533
100
AcDbEntity
  8
BORDER
  6
CONTINUOUS
 62
     1
100
AcDbLine
 39
96.0
 10
34.68295
 20
13.8282
 30
0.0
 11
34.71885
 21
13.8794
 31
0.0
  0
LINE
  5
534
100
AcDbEntity
  8
BORDER
  6
CONTINUOUS
 62
     1
100
AcDbLine
 39
96.0
 10
36.11705
 20
15.8761
 30
0.0
 11
36.15295
 21
15.9272
 31
0.0
  0
LINE
  5
535
100
AcDbEntity
  8
BORDER
  6
CONTINUOUS
 62
     1
100
AcDbLine
 39
96.0
 10
36.73055
 20
12.3944
 30
0.0
 11
36.76645
 21
12.4456
 31
0.0
  0
LINE
  5
536
100
AcDbEntity
  8
BORDER
  6
CONTINUOUS
 62
     1
100
AcDbLine
 39
96.0
 10
30.72565
 20
22.6864
 30
0.0
 11
30.73645
 21
22.7479
 31
0.0
  0
LINE
  5
537
100
AcDbEntity
  8
BORDER
  6
CONTINUOUS
 62
     1
100
AcDbLine
 39
96.0
 10
31.45125
 20
12.4041
 30
0.0
 11
31.46195
 21
12.4657
 31
0.0
  0
LINE
  5
538
100
AcDbEntity
  8
BORDER
  6
CONTINUOUS
 62
     1
100
AcDbLine
 39
96.0
 10
31.88535
 20
14.8662
 30
0.0
 11
31.89605
 21
14.9277
 31
0.0
  0
LINE
  5
539
100
AcDbEntity
  8
BORDER
  6
CONTINUOUS
 62
     1
100
AcDbLine
 39
96.0
 10
32.31945
 20
17.3282
 30
0.0
 11
32.33015
 21
17.3897
 31
0.0
  0
LINE
  5
53A
100
AcDbEntity
  8
BORDER
  6
CONTINUOUS
 62
     1
100
AcDbLine
 39
96.0
 10
32.75345
 20
19.7903
 30
0.0
 11
32.76425
 21
19.8518
 31
0.0
  0
LINE
  5
53B
100
AcDbEntity
  8
BORDER
  6
CONTINUOUS
 62
     1
100
AcDbLine
 39
96.0
 10
34.34705
 20
14.4321
 30
0.0
 11
34.35775
 21
14.4936
 31
0.0
  0
LINE
  5
53C
100
AcDbEntity
  8
BORDER
  6
CONTINUOUS
 62
     1
100
AcDbLine
 39
96.0
 10
34.78105
 20
16.8941
 30
0.0
 11
34.79185
 21
16.9557
 31
0.0
  0
LINE
  5
53D
100
AcDbEntity
  8
BORDER
  6
CONTINUOUS
 62
     1
100
AcDbLine
 39
96.0
 10
35.21515
 20
19.3562
 30
0.0
 11
35.22595
 21
19.4177
 31
0.0
  0
LINE
  5
53E
100
AcDbEntity
  8
BORDER
  6
CONTINUOUS
 62
     1
100
AcDbLine
 39
96.0
 10
35.64925
 20
21.8182
 30
0.0
 11
35.65995
 21
21.8797
 31
0.0
  0
LINE
  5
53F
100
AcDbEntity
  8
BORDER
  6
CONTINUOUS
 62
     1
100
AcDbLine
 39
96.0
 10
36.37485
 20
11.536
 30
0.0
 11
36.38555
 21
11.5975
 31
0.0
  0
LINE
  5
540
100
AcDbEntity
  8
BORDER
  6
CONTINUOUS
 62
     1
100
AcDbLine
 39
96.0
 10
36.80895
 20
13.998
 30
0.0
 11
36.81965
 21
14.0595
 31
0.0
  0
LINE
  5
541
100
AcDbEntity
  8
BORDER
  6
CONTINUOUS
 62
     2
100
AcDbLine
 39
96.0
 10
28.95465
 20
24.5486
 30
0.0
 11
28.95465
 21
24.5486
 31
0.0
  0
LINE
  5
542
100
AcDbEntity
  8
BORDER
  6
CONTINUOUS
 62
     2
100
AcDbLine
 39
96.0
 10
29.42345
 20
24.5486
 30
0.0
 11
29.42345
 21
24.5486
 31
0.0
  0
LINE
  5
543
100
AcDbEntity
  8
BORDER
  6
CONTINUOUS
 62
     2
100
AcDbLine
 39
96.0
 10
29.89215
 20
24.5486
 30
0.0
 11
29.89215
 21
24.5486
 31
0.0
  0
LINE
  5
544
100
AcDbEntity
  8
BORDER
  6
CONTINUOUS
 62
     2
100
AcDbLine
 39
96.0
 10
30.36095
 20
24.5486
 30
0.0
 11
30.36095
 21
24.5486
 31
0.0
  0
LINE
  5
545
100
AcDbEntity
  8
BORDER
  6
CONTINUOUS
 62
     2
100
AcDbLine
 39
96.0
 10
29.18905
 20
24.0798
 30
0.0
 11
29.18905
 21
24.0798
 31
0.0
  0
LINE
  5
546
100
AcDbEntity
  8
BORDER
  6
CONTINUOUS
 62
     2
100
AcDbLine
 39
96.0
 10
29.65775
 20
24.0798
 30
0.0
 11
29.65775
 21
24.0798
 31
0.0
  0
LINE
  5
547
100
AcDbEntity
  8
BORDER
  6
CONTINUOUS
 62
     2
100
AcDbLine
 39
96.0
 10
30.12655
 20
24.0798
 30
0.0
 11
30.12655
 21
24.0798
 31
0.0
  0
LINE
  5
548
100
AcDbEntity
  8
BORDER
  6
CONTINUOUS
 62
     2
100
AcDbLine
 39
96.0
 10
30.59525
 20
24.0798
 30
0.0
 11
30.59525
 21
24.0798
 31
0.0
  0
LINE
  5
549
100
AcDbEntity
  8
BORDER
  6
CONTINUOUS
 62
     2
100
AcDbLine
 39
96.0
 10
28.95465
 20
23.6111
 30
0.0
 11
28.95465
 21
23.6111
 31
0.0
  0
LINE
  5
54A
100
AcDbEntity
  8
BORDER
  6
CONTINUOUS
 62
     2
100
AcDbLine
 39
96.0
 10
29.42345
 20
23.6111
 30
0.0
 11
29.42345
 21
23.6111
 31
0.0
  0
LINE
  5
54B
100
AcDbEntity
  8
BORDER
  6
CONTINUOUS
 62
     2
100
AcDbLine
 39
96.0
 10
29.89215
 20
23.6111
 30
0.0
 11
29.89215
 21
23.6111
 31
0.0
  0
LINE
  5
54C
100
AcDbEntity
  8
BORDER
  6
CONTINUOUS
 62
     2
100
AcDbLine
 39
96.0
 10
30.36095
 20
23.6111
 30
0.0
 11
30.36095
 21
23.6111
 31
0.0
  0
LINE
  5
54D
100
AcDbEntity
  8
BORDER
  6
CONTINUOUS
 62
     2
100
AcDbLine
 39
96.0
 10
29.18905
 20
23.1423
 30
0.0
 11
29.18905
 21
23.1423
 31
0.0
  0
LINE
  5
54E
100
AcDbEntity
  8
BORDER
  6
CONTINUOUS
 62
     2
100
AcDbLine
 39
96.0
 10
29.65775
 20
23.1423
 30
0.0
 11
29.65775
 21
23.1423
 31
0.0
  0
LINE
  5
54F
100
AcDbEntity
  8
BORDER
  6
CONTINUOUS
 62
     2
100
AcDbLine
 39
96.0
 10
30.12655
 20
23.1423
 30
0.0
 11
30.12655
 21
23.1423
 31
0.0
  0
LINE
  5
550
100
AcDbEntity
  8
BORDER
  6
CONTINUOUS
 62
     2
100
AcDbLine
 39
96.0
 10
30.59525
 20
23.1423
 30
0.0
 11
30.59525
 21
23.1423
 31
0.0
  0
LINE
  5
551
100
AcDbEntity
  8
BORDER
  6
CONTINUOUS
 62
     2
100
AcDbLine
 39
96.0
 10
28.95465
 20
22.6736
 30
0.0
 11
28.95465
 21
22.6736
 31
0.0
  0
LINE
  5
552
100
AcDbEntity
  8
BORDER
  6
CONTINUOUS
 62
     2
100
AcDbLine
 39
96.0
 10
29.42345
 20
22.6736
 30
0.0
 11
29.42345
 21
22.6736
 31
0.0
  0
LINE
  5
553
100
AcDbEntity
  8
BORDER
  6
CONTINUOUS
 62
     2
100
AcDbLine
 39
96.0
 10
29.89215
 20
22.6736
 30
0.0
 11
29.89215
 21
22.6736
 31
0.0
  0
LINE
  5
554
100
AcDbEntity
  8
BORDER
  6
CONTINUOUS
 62
     2
100
AcDbLine
 39
96.0
 10
30.36095
 20
22.6736
 30
0.0
 11
30.36095
 21
22.6736
 31
0.0
  0
LINE
  5
555
100
AcDbEntity
  8
BORDER
  6
CONTINUOUS
 62
     2
100
AcDbLine
 39
96.0
 10
29.18905
 20
22.2048
 30
0.0
 11
29.18905
 21
22.2048
 31
0.0
  0
LINE
  5
556
100
AcDbEntity
  8
BORDER
  6
CONTINUOUS
 62
     2
100
AcDbLine
 39
96.0
 10
29.65775
 20
22.2048
 30
0.0
 11
29.65775
 21
22.2048
 31
0.0
  0
LINE
  5
557
100
AcDbEntity
  8
BORDER
  6
CONTINUOUS
 62
     2
100
AcDbLine
 39
96.0
 10
30.12655
 20
22.2048
 30
0.0
 11
30.12655
 21
22.2048
 31
0.0
  0
LINE
  5
558
100
AcDbEntity
  8
BORDER
  6
CONTINUOUS
 62
     2
100
AcDbLine
 39
96.0
 10
30.59525
 20
22.2048
 30
0.0
 11
30.59525
 21
22.2048
 31
0.0
  0
LINE
  5
559
100
AcDbEntity
  8
BORDER
  6
CONTINUOUS
 62
     2
100
AcDbLine
 39
96.0
 10
28.95465
 20
21.7361
 30
0.0
 11
28.95465
 21
21.7361
 31
0.0
  0
LINE
  5
55A
100
AcDbEntity
  8
BORDER
  6
CONTINUOUS
 62
     2
100
AcDbLine
 39
96.0
 10
29.42345
 20
21.7361
 30
0.0
 11
29.42345
 21
21.7361
 31
0.0
  0
LINE
  5
55B
100
AcDbEntity
  8
BORDER
  6
CONTINUOUS
 62
     2
100
AcDbLine
 39
96.0
 10
29.89215
 20
21.7361
 30
0.0
 11
29.89215
 21
21.7361
 31
0.0
  0
LINE
  5
55C
100
AcDbEntity
  8
BORDER
  6
CONTINUOUS
 62
     2
100
AcDbLine
 39
96.0
 10
30.36095
 20
21.7361
 30
0.0
 11
30.36095
 21
21.7361
 31
0.0
  0
LINE
  5
55D
100
AcDbEntity
  8
BORDER
  6
CONTINUOUS
 62
     2
100
AcDbLine
 39
96.0
 10
29.18905
 20
21.2673
 30
0.0
 11
29.18905
 21
21.2673
 31
0.0
  0
LINE
  5
55E
100
AcDbEntity
  8
BORDER
  6
CONTINUOUS
 62
     2
100
AcDbLine
 39
96.0
 10
29.65775
 20
21.2673
 30
0.0
 11
29.65775
 21
21.2673
 31
0.0
  0
LINE
  5
55F
100
AcDbEntity
  8
BORDER
  6
CONTINUOUS
 62
     2
100
AcDbLine
 39
96.0
 10
30.12655
 20
21.2673
 30
0.0
 11
30.12655
 21
21.2673
 31
0.0
  0
LINE
  5
560
100
AcDbEntity
  8
BORDER
  6
CONTINUOUS
 62
     2
100
AcDbLine
 39
96.0
 10
30.59525
 20
21.2673
 30
0.0
 11
30.59525
 21
21.2673
 31
0.0
  0
LINE
  5
561
100
AcDbEntity
  8
BORDER
  6
CONTINUOUS
 62
     2
100
AcDbLine
 39
96.0
 10
28.95465
 20
20.7986
 30
0.0
 11
28.95465
 21
20.7986
 31
0.0
  0
LINE
  5
562
100
AcDbEntity
  8
BORDER
  6
CONTINUOUS
 62
     2
100
AcDbLine
 39
96.0
 10
29.42345
 20
20.7986
 30
0.0
 11
29.42345
 21
20.7986
 31
0.0
  0
LINE
  5
563
100
AcDbEntity
  8
BORDER
  6
CONTINUOUS
 62
     2
100
AcDbLine
 39
96.0
 10
29.89215
 20
20.7986
 30
0.0
 11
29.89215
 21
20.7986
 31
0.0
  0
LINE
  5
564
100
AcDbEntity
  8
BORDER
  6
CONTINUOUS
 62
     2
100
AcDbLine
 39
96.0
 10
30.36095
 20
20.7986
 30
0.0
 11
30.36095
 21
20.7986
 31
0.0
  0
LINE
  5
565
100
AcDbEntity
  8
BORDER
  6
CONTINUOUS
 62
     2
100
AcDbLine
 39
96.0
 10
29.18905
 20
20.3298
 30
0.0
 11
29.18905
 21
20.3298
 31
0.0
  0
LINE
  5
566
100
AcDbEntity
  8
BORDER
  6
CONTINUOUS
 62
     2
100
AcDbLine
 39
96.0
 10
29.65775
 20
20.3298
 30
0.0
 11
29.65775
 21
20.3298
 31
0.0
  0
LINE
  5
567
100
AcDbEntity
  8
BORDER
  6
CONTINUOUS
 62
     2
100
AcDbLine
 39
96.0
 10
30.12655
 20
20.3298
 30
0.0
 11
30.12655
 21
20.3298
 31
0.0
  0
LINE
  5
568
100
AcDbEntity
  8
BORDER
  6
CONTINUOUS
 62
     2
100
AcDbLine
 39
96.0
 10
30.59525
 20
20.3298
 30
0.0
 11
30.59525
 21
20.3298
 31
0.0
  0
LINE
  5
569
100
AcDbEntity
  8
BORDER
  6
CONTINUOUS
 62
     2
100
AcDbLine
 39
96.0
 10
28.95465
 20
19.8611
 30
0.0
 11
28.95465
 21
19.8611
 31
0.0
  0
LINE
  5
56A
100
AcDbEntity
  8
BORDER
  6
CONTINUOUS
 62
     2
100
AcDbLine
 39
96.0
 10
29.42345
 20
19.8611
 30
0.0
 11
29.42345
 21
19.8611
 31
0.0
  0
LINE
  5
56B
100
AcDbEntity
  8
BORDER
  6
CONTINUOUS
 62
     2
100
AcDbLine
 39
96.0
 10
29.89215
 20
19.8611
 30
0.0
 11
29.89215
 21
19.8611
 31
0.0
  0
LINE
  5
56C
100
AcDbEntity
  8
BORDER
  6
CONTINUOUS
 62
     2
100
AcDbLine
 39
96.0
 10
30.36095
 20
19.8611
 30
0.0
 11
30.36095
 21
19.8611
 31
0.0
  0
LINE
  5
56D
100
AcDbEntity
  8
BORDER
  6
CONTINUOUS
 62
     2
100
AcDbLine
 39
96.0
 10
29.18905
 20
19.3923
 30
0.0
 11
29.18905
 21
19.3923
 31
0.0
  0
LINE
  5
56E
100
AcDbEntity
  8
BORDER
  6
CONTINUOUS
 62
     2
100
AcDbLine
 39
96.0
 10
29.65775
 20
19.3923
 30
0.0
 11
29.65775
 21
19.3923
 31
0.0
  0
LINE
  5
56F
100
AcDbEntity
  8
BORDER
  6
CONTINUOUS
 62
     2
100
AcDbLine
 39
96.0
 10
30.12655
 20
19.3923
 30
0.0
 11
30.12655
 21
19.3923
 31
0.0
  0
LINE
  5
570
100
AcDbEntity
  8
BORDER
  6
CONTINUOUS
 62
     2
100
AcDbLine
 39
96.0
 10
30.59525
 20
19.3923
 30
0.0
 11
30.59525
 21
19.3923
 31
0.0
  0
LINE
  5
571
100
AcDbEntity
  8
BORDER
  6
CONTINUOUS
 62
     2
100
AcDbLine
 39
96.0
 10
28.95465
 20
18.9236
 30
0.0
 11
28.95465
 21
18.9236
 31
0.0
  0
LINE
  5
572
100
AcDbEntity
  8
BORDER
  6
CONTINUOUS
 62
     2
100
AcDbLine
 39
96.0
 10
29.42345
 20
18.9236
 30
0.0
 11
29.42345
 21
18.9236
 31
0.0
  0
LINE
  5
573
100
AcDbEntity
  8
BORDER
  6
CONTINUOUS
 62
     2
100
AcDbLine
 39
96.0
 10
29.89215
 20
18.9236
 30
0.0
 11
29.89215
 21
18.9236
 31
0.0
  0
LINE
  5
574
100
AcDbEntity
  8
BORDER
  6
CONTINUOUS
 62
     2
100
AcDbLine
 39
96.0
 10
30.36095
 20
18.9236
 30
0.0
 11
30.36095
 21
18.9236
 31
0.0
  0
LINE
  5
575
100
AcDbEntity
  8
BORDER
  6
CONTINUOUS
 62
     2
100
AcDbLine
 39
96.0
 10
29.18905
 20
18.4548
 30
0.0
 11
29.18905
 21
18.4548
 31
0.0
  0
LINE
  5
576
100
AcDbEntity
  8
BORDER
  6
CONTINUOUS
 62
     2
100
AcDbLine
 39
96.0
 10
29.65775
 20
18.4548
 30
0.0
 11
29.65775
 21
18.4548
 31
0.0
  0
LINE
  5
577
100
AcDbEntity
  8
BORDER
  6
CONTINUOUS
 62
     2
100
AcDbLine
 39
96.0
 10
30.12655
 20
18.4548
 30
0.0
 11
30.12655
 21
18.4548
 31
0.0
  0
LINE
  5
578
100
AcDbEntity
  8
BORDER
  6
CONTINUOUS
 62
     2
100
AcDbLine
 39
96.0
 10
30.59525
 20
18.4548
 30
0.0
 11
30.59525
 21
18.4548
 31
0.0
  0
LINE
  5
579
100
AcDbEntity
  8
BORDER
  6
CONTINUOUS
 62
     2
100
AcDbLine
 39
96.0
 10
28.95465
 20
17.9861
 30
0.0
 11
28.95465
 21
17.9861
 31
0.0
  0
LINE
  5
57A
100
AcDbEntity
  8
BORDER
  6
CONTINUOUS
 62
     2
100
AcDbLine
 39
96.0
 10
29.42345
 20
17.9861
 30
0.0
 11
29.42345
 21
17.9861
 31
0.0
  0
LINE
  5
57B
100
AcDbEntity
  8
BORDER
  6
CONTINUOUS
 62
     2
100
AcDbLine
 39
96.0
 10
29.89215
 20
17.9861
 30
0.0
 11
29.89215
 21
17.9861
 31
0.0
  0
LINE
  5
57C
100
AcDbEntity
  8
BORDER
  6
CONTINUOUS
 62
     2
100
AcDbLine
 39
96.0
 10
30.36095
 20
17.9861
 30
0.0
 11
30.36095
 21
17.9861
 31
0.0
  0
LINE
  5
57D
100
AcDbEntity
  8
BORDER
  6
CONTINUOUS
 62
     2
100
AcDbLine
 39
96.0
 10
29.18905
 20
17.5173
 30
0.0
 11
29.18905
 21
17.5173
 31
0.0
  0
LINE
  5
57E
100
AcDbEntity
  8
BORDER
  6
CONTINUOUS
 62
     2
100
AcDbLine
 39
96.0
 10
29.65775
 20
17.5173
 30
0.0
 11
29.65775
 21
17.5173
 31
0.0
  0
LINE
  5
57F
100
AcDbEntity
  8
BORDER
  6
CONTINUOUS
 62
     2
100
AcDbLine
 39
96.0
 10
30.12655
 20
17.5173
 30
0.0
 11
30.12655
 21
17.5173
 31
0.0
  0
LINE
  5
580
100
AcDbEntity
  8
BORDER
  6
CONTINUOUS
 62
     2
100
AcDbLine
 39
96.0
 10
30.59525
 20
17.5173
 30
0.0
 11
30.59525
 21
17.5173
 31
0.0
  0
LINE
  5
581
100
AcDbEntity
  8
BORDER
  6
CONTINUOUS
 62
     2
100
AcDbLine
 39
96.0
 10
28.95465
 20
17.0486
 30
0.0
 11
28.95465
 21
17.0486
 31
0.0
  0
LINE
  5
582
100
AcDbEntity
  8
BORDER
  6
CONTINUOUS
 62
     2
100
AcDbLine
 39
96.0
 10
29.42345
 20
17.0486
 30
0.0
 11
29.42345
 21
17.0486
 31
0.0
  0
LINE
  5
583
100
AcDbEntity
  8
BORDER
  6
CONTINUOUS
 62
     2
100
AcDbLine
 39
96.0
 10
29.89215
 20
17.0486
 30
0.0
 11
29.89215
 21
17.0486
 31
0.0
  0
LINE
  5
584
100
AcDbEntity
  8
BORDER
  6
CONTINUOUS
 62
     2
100
AcDbLine
 39
96.0
 10
30.36095
 20
17.0486
 30
0.0
 11
30.36095
 21
17.0486
 31
0.0
  0
LINE
  5
585
100
AcDbEntity
  8
BORDER
  6
CONTINUOUS
 62
     2
100
AcDbLine
 39
96.0
 10
29.18905
 20
16.5798
 30
0.0
 11
29.18905
 21
16.5798
 31
0.0
  0
LINE
  5
586
100
AcDbEntity
  8
BORDER
  6
CONTINUOUS
 62
     2
100
AcDbLine
 39
96.0
 10
29.65775
 20
16.5798
 30
0.0
 11
29.65775
 21
16.5798
 31
0.0
  0
LINE
  5
587
100
AcDbEntity
  8
BORDER
  6
CONTINUOUS
 62
     2
100
AcDbLine
 39
96.0
 10
30.12655
 20
16.5798
 30
0.0
 11
30.12655
 21
16.5798
 31
0.0
  0
LINE
  5
588
100
AcDbEntity
  8
BORDER
  6
CONTINUOUS
 62
     2
100
AcDbLine
 39
96.0
 10
30.59525
 20
16.5798
 30
0.0
 11
30.59525
 21
16.5798
 31
0.0
  0
LINE
  5
589
100
AcDbEntity
  8
BORDER
  6
CONTINUOUS
 62
     2
100
AcDbLine
 39
96.0
 10
28.95465
 20
16.1111
 30
0.0
 11
28.95465
 21
16.1111
 31
0.0
  0
LINE
  5
58A
100
AcDbEntity
  8
BORDER
  6
CONTINUOUS
 62
     2
100
AcDbLine
 39
96.0
 10
29.42345
 20
16.1111
 30
0.0
 11
29.42345
 21
16.1111
 31
0.0
  0
LINE
  5
58B
100
AcDbEntity
  8
BORDER
  6
CONTINUOUS
 62
     2
100
AcDbLine
 39
96.0
 10
29.89215
 20
16.1111
 30
0.0
 11
29.89215
 21
16.1111
 31
0.0
  0
LINE
  5
58C
100
AcDbEntity
  8
BORDER
  6
CONTINUOUS
 62
     2
100
AcDbLine
 39
96.0
 10
30.36095
 20
16.1111
 30
0.0
 11
30.36095
 21
16.1111
 31
0.0
  0
LINE
  5
58D
100
AcDbEntity
  8
BORDER
  6
CONTINUOUS
 62
     2
100
AcDbLine
 39
96.0
 10
29.18905
 20
15.6423
 30
0.0
 11
29.18905
 21
15.6423
 31
0.0
  0
LINE
  5
58E
100
AcDbEntity
  8
BORDER
  6
CONTINUOUS
 62
     2
100
AcDbLine
 39
96.0
 10
29.65775
 20
15.6423
 30
0.0
 11
29.65775
 21
15.6423
 31
0.0
  0
LINE
  5
58F
100
AcDbEntity
  8
BORDER
  6
CONTINUOUS
 62
     2
100
AcDbLine
 39
96.0
 10
30.12655
 20
15.6423
 30
0.0
 11
30.12655
 21
15.6423
 31
0.0
  0
LINE
  5
590
100
AcDbEntity
  8
BORDER
  6
CONTINUOUS
 62
     2
100
AcDbLine
 39
96.0
 10
30.59525
 20
15.6423
 30
0.0
 11
30.59525
 21
15.6423
 31
0.0
  0
LINE
  5
591
100
AcDbEntity
  8
BORDER
  6
CONTINUOUS
 62
     2
100
AcDbLine
 39
96.0
 10
28.95465
 20
15.1736
 30
0.0
 11
28.95465
 21
15.1736
 31
0.0
  0
LINE
  5
592
100
AcDbEntity
  8
BORDER
  6
CONTINUOUS
 62
     2
100
AcDbLine
 39
96.0
 10
29.42345
 20
15.1736
 30
0.0
 11
29.42345
 21
15.1736
 31
0.0
  0
LINE
  5
593
100
AcDbEntity
  8
BORDER
  6
CONTINUOUS
 62
     2
100
AcDbLine
 39
96.0
 10
29.89215
 20
15.1736
 30
0.0
 11
29.89215
 21
15.1736
 31
0.0
  0
LINE
  5
594
100
AcDbEntity
  8
BORDER
  6
CONTINUOUS
 62
     2
100
AcDbLine
 39
96.0
 10
30.36095
 20
15.1736
 30
0.0
 11
30.36095
 21
15.1736
 31
0.0
  0
LINE
  5
595
100
AcDbEntity
  8
BORDER
  6
CONTINUOUS
 62
     2
100
AcDbLine
 39
96.0
 10
29.18905
 20
14.7048
 30
0.0
 11
29.18905
 21
14.7048
 31
0.0
  0
LINE
  5
596
100
AcDbEntity
  8
BORDER
  6
CONTINUOUS
 62
     2
100
AcDbLine
 39
96.0
 10
29.65775
 20
14.7048
 30
0.0
 11
29.65775
 21
14.7048
 31
0.0
  0
LINE
  5
597
100
AcDbEntity
  8
BORDER
  6
CONTINUOUS
 62
     2
100
AcDbLine
 39
96.0
 10
30.12655
 20
14.7048
 30
0.0
 11
30.12655
 21
14.7048
 31
0.0
  0
LINE
  5
598
100
AcDbEntity
  8
BORDER
  6
CONTINUOUS
 62
     2
100
AcDbLine
 39
96.0
 10
30.59525
 20
14.7048
 30
0.0
 11
30.59525
 21
14.7048
 31
0.0
  0
LINE
  5
599
100
AcDbEntity
  8
BORDER
  6
CONTINUOUS
 62
     2
100
AcDbLine
 39
96.0
 10
28.95465
 20
14.2361
 30
0.0
 11
28.95465
 21
14.2361
 31
0.0
  0
LINE
  5
59A
100
AcDbEntity
  8
BORDER
  6
CONTINUOUS
 62
     2
100
AcDbLine
 39
96.0
 10
29.42345
 20
14.2361
 30
0.0
 11
29.42345
 21
14.2361
 31
0.0
  0
LINE
  5
59B
100
AcDbEntity
  8
BORDER
  6
CONTINUOUS
 62
     2
100
AcDbLine
 39
96.0
 10
29.89215
 20
14.2361
 30
0.0
 11
29.89215
 21
14.2361
 31
0.0
  0
LINE
  5
59C
100
AcDbEntity
  8
BORDER
  6
CONTINUOUS
 62
     2
100
AcDbLine
 39
96.0
 10
30.36095
 20
14.2361
 30
0.0
 11
30.36095
 21
14.2361
 31
0.0
  0
LINE
  5
59D
100
AcDbEntity
  8
BORDER
  6
CONTINUOUS
 62
     2
100
AcDbLine
 39
96.0
 10
29.18905
 20
13.7673
 30
0.0
 11
29.18905
 21
13.7673
 31
0.0
  0
LINE
  5
59E
100
AcDbEntity
  8
BORDER
  6
CONTINUOUS
 62
     2
100
AcDbLine
 39
96.0
 10
29.65775
 20
13.7673
 30
0.0
 11
29.65775
 21
13.7673
 31
0.0
  0
LINE
  5
59F
100
AcDbEntity
  8
BORDER
  6
CONTINUOUS
 62
     2
100
AcDbLine
 39
96.0
 10
30.12655
 20
13.7673
 30
0.0
 11
30.12655
 21
13.7673
 31
0.0
  0
LINE
  5
5A0
100
AcDbEntity
  8
BORDER
  6
CONTINUOUS
 62
     2
100
AcDbLine
 39
96.0
 10
30.59525
 20
13.7673
 30
0.0
 11
30.59525
 21
13.7673
 31
0.0
  0
LINE
  5
5A1
100
AcDbEntity
  8
BORDER
  6
CONTINUOUS
 62
     2
100
AcDbLine
 39
96.0
 10
28.95465
 20
13.2986
 30
0.0
 11
28.95465
 21
13.2986
 31
0.0
  0
LINE
  5
5A2
100
AcDbEntity
  8
BORDER
  6
CONTINUOUS
 62
     2
100
AcDbLine
 39
96.0
 10
29.42345
 20
13.2986
 30
0.0
 11
29.42345
 21
13.2986
 31
0.0
  0
LINE
  5
5A3
100
AcDbEntity
  8
BORDER
  6
CONTINUOUS
 62
     2
100
AcDbLine
 39
96.0
 10
29.89215
 20
13.2986
 30
0.0
 11
29.89215
 21
13.2986
 31
0.0
  0
LINE
  5
5A4
100
AcDbEntity
  8
BORDER
  6
CONTINUOUS
 62
     2
100
AcDbLine
 39
96.0
 10
30.36095
 20
13.2986
 30
0.0
 11
30.36095
 21
13.2986
 31
0.0
  0
LINE
  5
5A5
100
AcDbEntity
  8
BORDER
  6
CONTINUOUS
 62
     2
100
AcDbLine
 39
96.0
 10
29.18905
 20
12.8298
 30
0.0
 11
29.18905
 21
12.8298
 31
0.0
  0
LINE
  5
5A6
100
AcDbEntity
  8
BORDER
  6
CONTINUOUS
 62
     2
100
AcDbLine
 39
96.0
 10
29.65775
 20
12.8298
 30
0.0
 11
29.65775
 21
12.8298
 31
0.0
  0
LINE
  5
5A7
100
AcDbEntity
  8
BORDER
  6
CONTINUOUS
 62
     2
100
AcDbLine
 39
96.0
 10
30.12655
 20
12.8298
 30
0.0
 11
30.12655
 21
12.8298
 31
0.0
  0
LINE
  5
5A8
100
AcDbEntity
  8
BORDER
  6
CONTINUOUS
 62
     2
100
AcDbLine
 39
96.0
 10
30.59525
 20
12.8298
 30
0.0
 11
30.59525
 21
12.8298
 31
0.0
  0
LINE
  5
5A9
100
AcDbEntity
  8
BORDER
  6
CONTINUOUS
 62
     2
100
AcDbLine
 39
96.0
 10
28.95465
 20
12.3611
 30
0.0
 11
28.95465
 21
12.3611
 31
0.0
  0
LINE
  5
5AA
100
AcDbEntity
  8
BORDER
  6
CONTINUOUS
 62
     2
100
AcDbLine
 39
96.0
 10
29.42345
 20
12.3611
 30
0.0
 11
29.42345
 21
12.3611
 31
0.0
  0
LINE
  5
5AB
100
AcDbEntity
  8
BORDER
  6
CONTINUOUS
 62
     2
100
AcDbLine
 39
96.0
 10
29.89215
 20
12.3611
 30
0.0
 11
29.89215
 21
12.3611
 31
0.0
  0
LINE
  5
5AC
100
AcDbEntity
  8
BORDER
  6
CONTINUOUS
 62
     2
100
AcDbLine
 39
96.0
 10
30.36095
 20
12.3611
 30
0.0
 11
30.36095
 21
12.3611
 31
0.0
  0
LINE
  5
5AD
100
AcDbEntity
  8
BORDER
  6
CONTINUOUS
 62
     2
100
AcDbLine
 39
96.0
 10
29.18905
 20
11.8923
 30
0.0
 11
29.18905
 21
11.8923
 31
0.0
  0
LINE
  5
5AE
100
AcDbEntity
  8
BORDER
  6
CONTINUOUS
 62
     2
100
AcDbLine
 39
96.0
 10
29.65775
 20
11.8923
 30
0.0
 11
29.65775
 21
11.8923
 31
0.0
  0
LINE
  5
5AF
100
AcDbEntity
  8
BORDER
  6
CONTINUOUS
 62
     2
100
AcDbLine
 39
96.0
 10
30.12655
 20
11.8923
 30
0.0
 11
30.12655
 21
11.8923
 31
0.0
  0
LINE
  5
5B0
100
AcDbEntity
  8
BORDER
  6
CONTINUOUS
 62
     2
100
AcDbLine
 39
96.0
 10
30.59525
 20
11.8923
 30
0.0
 11
30.59525
 21
11.8923
 31
0.0
  0
LINE
  5
5B1
100
AcDbEntity
  8
BORDER
  6
CONTINUOUS
 62
     2
100
AcDbLine
 39
96.0
 10
28.95465
 20
11.4236
 30
0.0
 11
28.95465
 21
11.4236
 31
0.0
  0
LINE
  5
5B2
100
AcDbEntity
  8
BORDER
  6
CONTINUOUS
 62
     2
100
AcDbLine
 39
96.0
 10
29.42345
 20
11.4236
 30
0.0
 11
29.42345
 21
11.4236
 31
0.0
  0
LINE
  5
5B3
100
AcDbEntity
  8
BORDER
  6
CONTINUOUS
 62
     2
100
AcDbLine
 39
96.0
 10
29.89215
 20
11.4236
 30
0.0
 11
29.89215
 21
11.4236
 31
0.0
  0
LINE
  5
5B4
100
AcDbEntity
  8
BORDER
  6
CONTINUOUS
 62
     2
100
AcDbLine
 39
96.0
 10
30.36095
 20
11.4236
 30
0.0
 11
30.36095
 21
11.4236
 31
0.0
  0
LINE
  5
5B5
100
AcDbEntity
  8
BORDER
  6
CONTINUOUS
 62
     2
100
AcDbLine
 39
96.0
 10
29.18905
 20
10.9548
 30
0.0
 11
29.18905
 21
10.9548
 31
0.0
  0
LINE
  5
5B6
100
AcDbEntity
  8
BORDER
  6
CONTINUOUS
 62
     2
100
AcDbLine
 39
96.0
 10
29.65775
 20
10.9548
 30
0.0
 11
29.65775
 21
10.9548
 31
0.0
  0
LINE
  5
5B7
100
AcDbEntity
  8
BORDER
  6
CONTINUOUS
 62
     2
100
AcDbLine
 39
96.0
 10
30.12655
 20
10.9548
 30
0.0
 11
30.12655
 21
10.9548
 31
0.0
  0
LINE
  5
5B8
100
AcDbEntity
  8
BORDER
  6
CONTINUOUS
 62
     2
100
AcDbLine
 39
96.0
 10
30.59525
 20
10.9548
 30
0.0
 11
30.59525
 21
10.9548
 31
0.0
  0
LINE
  5
5B9
100
AcDbEntity
  8
BORDER
  6
CONTINUOUS
 62
     2
100
AcDbLine
 39
96.0
 10
28.95465
 20
10.4861
 30
0.0
 11
28.95465
 21
10.4861
 31
0.0
  0
LINE
  5
5BA
100
AcDbEntity
  8
BORDER
  6
CONTINUOUS
 62
     2
100
AcDbLine
 39
96.0
 10
29.42345
 20
10.4861
 30
0.0
 11
29.42345
 21
10.4861
 31
0.0
  0
LINE
  5
5BB
100
AcDbEntity
  8
BORDER
  6
CONTINUOUS
 62
     2
100
AcDbLine
 39
96.0
 10
29.89215
 20
10.4861
 30
0.0
 11
29.89215
 21
10.4861
 31
0.0
  0
LINE
  5
5BC
100
AcDbEntity
  8
BORDER
  6
CONTINUOUS
 62
     2
100
AcDbLine
 39
96.0
 10
30.36095
 20
10.4861
 30
0.0
 11
30.36095
 21
10.4861
 31
0.0
  0
LINE
  5
5BD
100
AcDbEntity
  8
BORDER
  6
CONTINUOUS
 62
     2
100
AcDbLine
 39
96.0
 10
29.18905
 20
10.0173
 30
0.0
 11
29.18905
 21
10.0173
 31
0.0
  0
LINE
  5
5BE
100
AcDbEntity
  8
BORDER
  6
CONTINUOUS
 62
     2
100
AcDbLine
 39
96.0
 10
29.65775
 20
10.0173
 30
0.0
 11
29.65775
 21
10.0173
 31
0.0
  0
LINE
  5
5BF
100
AcDbEntity
  8
BORDER
  6
CONTINUOUS
 62
     2
100
AcDbLine
 39
96.0
 10
30.12655
 20
10.0173
 30
0.0
 11
30.12655
 21
10.0173
 31
0.0
  0
LINE
  5
5C0
100
AcDbEntity
  8
BORDER
  6
CONTINUOUS
 62
     2
100
AcDbLine
 39
96.0
 10
30.59525
 20
10.0173
 30
0.0
 11
30.59525
 21
10.0173
 31
0.0
  0
LINE
  5
5C1
100
AcDbEntity
  8
BORDER
  6
CONTINUOUS
 62
     2
100
AcDbLine
 39
96.0
 10
36.92345
 20
24.5486
 30
0.0
 11
36.92345
 21
24.5486
 31
0.0
  0
LINE
  5
5C2
100
AcDbEntity
  8
BORDER
  6
CONTINUOUS
 62
     2
100
AcDbLine
 39
96.0
 10
37.39215
 20
24.5486
 30
0.0
 11
37.39215
 21
24.5486
 31
0.0
  0
LINE
  5
5C3
100
AcDbEntity
  8
BORDER
  6
CONTINUOUS
 62
     2
100
AcDbLine
 39
96.0
 10
37.86095
 20
24.5486
 30
0.0
 11
37.86095
 21
24.5486
 31
0.0
  0
LINE
  5
5C4
100
AcDbEntity
  8
BORDER
  6
CONTINUOUS
 62
     2
100
AcDbLine
 39
96.0
 10
38.32965
 20
24.5486
 30
0.0
 11
38.32965
 21
24.5486
 31
0.0
  0
LINE
  5
5C5
100
AcDbEntity
  8
BORDER
  6
CONTINUOUS
 62
     2
100
AcDbLine
 39
96.0
 10
37.15775
 20
24.0798
 30
0.0
 11
37.15775
 21
24.0798
 31
0.0
  0
LINE
  5
5C6
100
AcDbEntity
  8
BORDER
  6
CONTINUOUS
 62
     2
100
AcDbLine
 39
96.0
 10
37.62655
 20
24.0798
 30
0.0
 11
37.62655
 21
24.0798
 31
0.0
  0
LINE
  5
5C7
100
AcDbEntity
  8
BORDER
  6
CONTINUOUS
 62
     2
100
AcDbLine
 39
96.0
 10
38.09525
 20
24.0798
 30
0.0
 11
38.09525
 21
24.0798
 31
0.0
  0
LINE
  5
5C8
100
AcDbEntity
  8
BORDER
  6
CONTINUOUS
 62
     2
100
AcDbLine
 39
96.0
 10
38.56405
 20
24.0798
 30
0.0
 11
38.56405
 21
24.0798
 31
0.0
  0
LINE
  5
5C9
100
AcDbEntity
  8
BORDER
  6
CONTINUOUS
 62
     2
100
AcDbLine
 39
96.0
 10
36.92345
 20
23.6111
 30
0.0
 11
36.92345
 21
23.6111
 31
0.0
  0
LINE
  5
5CA
100
AcDbEntity
  8
BORDER
  6
CONTINUOUS
 62
     2
100
AcDbLine
 39
96.0
 10
37.39215
 20
23.6111
 30
0.0
 11
37.39215
 21
23.6111
 31
0.0
  0
LINE
  5
5CB
100
AcDbEntity
  8
BORDER
  6
CONTINUOUS
 62
     2
100
AcDbLine
 39
96.0
 10
37.86095
 20
23.6111
 30
0.0
 11
37.86095
 21
23.6111
 31
0.0
  0
LINE
  5
5CC
100
AcDbEntity
  8
BORDER
  6
CONTINUOUS
 62
     2
100
AcDbLine
 39
96.0
 10
38.32965
 20
23.6111
 30
0.0
 11
38.32965
 21
23.6111
 31
0.0
  0
LINE
  5
5CD
100
AcDbEntity
  8
BORDER
  6
CONTINUOUS
 62
     2
100
AcDbLine
 39
96.0
 10
37.15775
 20
23.1423
 30
0.0
 11
37.15775
 21
23.1423
 31
0.0
  0
LINE
  5
5CE
100
AcDbEntity
  8
BORDER
  6
CONTINUOUS
 62
     2
100
AcDbLine
 39
96.0
 10
37.62655
 20
23.1423
 30
0.0
 11
37.62655
 21
23.1423
 31
0.0
  0
LINE
  5
5CF
100
AcDbEntity
  8
BORDER
  6
CONTINUOUS
 62
     2
100
AcDbLine
 39
96.0
 10
38.09525
 20
23.1423
 30
0.0
 11
38.09525
 21
23.1423
 31
0.0
  0
LINE
  5
5D0
100
AcDbEntity
  8
BORDER
  6
CONTINUOUS
 62
     2
100
AcDbLine
 39
96.0
 10
38.56405
 20
23.1423
 30
0.0
 11
38.56405
 21
23.1423
 31
0.0
  0
LINE
  5
5D1
100
AcDbEntity
  8
BORDER
  6
CONTINUOUS
 62
     2
100
AcDbLine
 39
96.0
 10
36.92345
 20
22.6736
 30
0.0
 11
36.92345
 21
22.6736
 31
0.0
  0
LINE
  5
5D2
100
AcDbEntity
  8
BORDER
  6
CONTINUOUS
 62
     2
100
AcDbLine
 39
96.0
 10
37.39215
 20
22.6736
 30
0.0
 11
37.39215
 21
22.6736
 31
0.0
  0
LINE
  5
5D3
100
AcDbEntity
  8
BORDER
  6
CONTINUOUS
 62
     2
100
AcDbLine
 39
96.0
 10
37.86095
 20
22.6736
 30
0.0
 11
37.86095
 21
22.6736
 31
0.0
  0
LINE
  5
5D4
100
AcDbEntity
  8
BORDER
  6
CONTINUOUS
 62
     2
100
AcDbLine
 39
96.0
 10
38.32965
 20
22.6736
 30
0.0
 11
38.32965
 21
22.6736
 31
0.0
  0
LINE
  5
5D5
100
AcDbEntity
  8
BORDER
  6
CONTINUOUS
 62
     2
100
AcDbLine
 39
96.0
 10
37.15775
 20
22.2048
 30
0.0
 11
37.15775
 21
22.2048
 31
0.0
  0
LINE
  5
5D6
100
AcDbEntity
  8
BORDER
  6
CONTINUOUS
 62
     2
100
AcDbLine
 39
96.0
 10
37.62655
 20
22.2048
 30
0.0
 11
37.62655
 21
22.2048
 31
0.0
  0
LINE
  5
5D7
100
AcDbEntity
  8
BORDER
  6
CONTINUOUS
 62
     2
100
AcDbLine
 39
96.0
 10
38.09525
 20
22.2048
 30
0.0
 11
38.09525
 21
22.2048
 31
0.0
  0
LINE
  5
5D8
100
AcDbEntity
  8
BORDER
  6
CONTINUOUS
 62
     2
100
AcDbLine
 39
96.0
 10
38.56405
 20
22.2048
 30
0.0
 11
38.56405
 21
22.2048
 31
0.0
  0
LINE
  5
5D9
100
AcDbEntity
  8
BORDER
  6
CONTINUOUS
 62
     2
100
AcDbLine
 39
96.0
 10
36.92345
 20
21.7361
 30
0.0
 11
36.92345
 21
21.7361
 31
0.0
  0
LINE
  5
5DA
100
AcDbEntity
  8
BORDER
  6
CONTINUOUS
 62
     2
100
AcDbLine
 39
96.0
 10
37.39215
 20
21.7361
 30
0.0
 11
37.39215
 21
21.7361
 31
0.0
  0
LINE
  5
5DB
100
AcDbEntity
  8
BORDER
  6
CONTINUOUS
 62
     2
100
AcDbLine
 39
96.0
 10
37.86095
 20
21.7361
 30
0.0
 11
37.86095
 21
21.7361
 31
0.0
  0
LINE
  5
5DC
100
AcDbEntity
  8
BORDER
  6
CONTINUOUS
 62
     2
100
AcDbLine
 39
96.0
 10
38.32965
 20
21.7361
 30
0.0
 11
38.32965
 21
21.7361
 31
0.0
  0
LINE
  5
5DD
100
AcDbEntity
  8
BORDER
  6
CONTINUOUS
 62
     2
100
AcDbLine
 39
96.0
 10
37.15775
 20
21.2673
 30
0.0
 11
37.15775
 21
21.2673
 31
0.0
  0
LINE
  5
5DE
100
AcDbEntity
  8
BORDER
  6
CONTINUOUS
 62
     2
100
AcDbLine
 39
96.0
 10
37.62655
 20
21.2673
 30
0.0
 11
37.62655
 21
21.2673
 31
0.0
  0
LINE
  5
5DF
100
AcDbEntity
  8
BORDER
  6
CONTINUOUS
 62
     2
100
AcDbLine
 39
96.0
 10
38.09525
 20
21.2673
 30
0.0
 11
38.09525
 21
21.2673
 31
0.0
  0
LINE
  5
5E0
100
AcDbEntity
  8
BORDER
  6
CONTINUOUS
 62
     2
100
AcDbLine
 39
96.0
 10
38.56405
 20
21.2673
 30
0.0
 11
38.56405
 21
21.2673
 31
0.0
  0
LINE
  5
5E1
100
AcDbEntity
  8
BORDER
  6
CONTINUOUS
 62
     2
100
AcDbLine
 39
96.0
 10
36.92345
 20
20.7986
 30
0.0
 11
36.92345
 21
20.7986
 31
0.0
  0
LINE
  5
5E2
100
AcDbEntity
  8
BORDER
  6
CONTINUOUS
 62
     2
100
AcDbLine
 39
96.0
 10
37.39215
 20
20.7986
 30
0.0
 11
37.39215
 21
20.7986
 31
0.0
  0
LINE
  5
5E3
100
AcDbEntity
  8
BORDER
  6
CONTINUOUS
 62
     2
100
AcDbLine
 39
96.0
 10
37.86095
 20
20.7986
 30
0.0
 11
37.86095
 21
20.7986
 31
0.0
  0
LINE
  5
5E4
100
AcDbEntity
  8
BORDER
  6
CONTINUOUS
 62
     2
100
AcDbLine
 39
96.0
 10
38.32965
 20
20.7986
 30
0.0
 11
38.32965
 21
20.7986
 31
0.0
  0
LINE
  5
5E5
100
AcDbEntity
  8
BORDER
  6
CONTINUOUS
 62
     2
100
AcDbLine
 39
96.0
 10
37.15775
 20
20.3298
 30
0.0
 11
37.15775
 21
20.3298
 31
0.0
  0
LINE
  5
5E6
100
AcDbEntity
  8
BORDER
  6
CONTINUOUS
 62
     2
100
AcDbLine
 39
96.0
 10
37.62655
 20
20.3298
 30
0.0
 11
37.62655
 21
20.3298
 31
0.0
  0
LINE
  5
5E7
100
AcDbEntity
  8
BORDER
  6
CONTINUOUS
 62
     2
100
AcDbLine
 39
96.0
 10
38.09525
 20
20.3298
 30
0.0
 11
38.09525
 21
20.3298
 31
0.0
  0
LINE
  5
5E8
100
AcDbEntity
  8
BORDER
  6
CONTINUOUS
 62
     2
100
AcDbLine
 39
96.0
 10
38.56405
 20
20.3298
 30
0.0
 11
38.56405
 21
20.3298
 31
0.0
  0
LINE
  5
5E9
100
AcDbEntity
  8
BORDER
  6
CONTINUOUS
 62
     2
100
AcDbLine
 39
96.0
 10
36.92345
 20
19.8611
 30
0.0
 11
36.92345
 21
19.8611
 31
0.0
  0
LINE
  5
5EA
100
AcDbEntity
  8
BORDER
  6
CONTINUOUS
 62
     2
100
AcDbLine
 39
96.0
 10
37.39215
 20
19.8611
 30
0.0
 11
37.39215
 21
19.8611
 31
0.0
  0
LINE
  5
5EB
100
AcDbEntity
  8
BORDER
  6
CONTINUOUS
 62
     2
100
AcDbLine
 39
96.0
 10
37.86095
 20
19.8611
 30
0.0
 11
37.86095
 21
19.8611
 31
0.0
  0
LINE
  5
5EC
100
AcDbEntity
  8
BORDER
  6
CONTINUOUS
 62
     2
100
AcDbLine
 39
96.0
 10
38.32965
 20
19.8611
 30
0.0
 11
38.32965
 21
19.8611
 31
0.0
  0
LINE
  5
5ED
100
AcDbEntity
  8
BORDER
  6
CONTINUOUS
 62
     2
100
AcDbLine
 39
96.0
 10
37.15775
 20
19.3923
 30
0.0
 11
37.15775
 21
19.3923
 31
0.0
  0
LINE
  5
5EE
100
AcDbEntity
  8
BORDER
  6
CONTINUOUS
 62
     2
100
AcDbLine
 39
96.0
 10
37.62655
 20
19.3923
 30
0.0
 11
37.62655
 21
19.3923
 31
0.0
  0
LINE
  5
5EF
100
AcDbEntity
  8
BORDER
  6
CONTINUOUS
 62
     2
100
AcDbLine
 39
96.0
 10
38.09525
 20
19.3923
 30
0.0
 11
38.09525
 21
19.3923
 31
0.0
  0
LINE
  5
5F0
100
AcDbEntity
  8
BORDER
  6
CONTINUOUS
 62
     2
100
AcDbLine
 39
96.0
 10
38.56405
 20
19.3923
 30
0.0
 11
38.56405
 21
19.3923
 31
0.0
  0
LINE
  5
5F1
100
AcDbEntity
  8
BORDER
  6
CONTINUOUS
 62
     2
100
AcDbLine
 39
96.0
 10
36.92345
 20
18.9236
 30
0.0
 11
36.92345
 21
18.9236
 31
0.0
  0
LINE
  5
5F2
100
AcDbEntity
  8
BORDER
  6
CONTINUOUS
 62
     2
100
AcDbLine
 39
96.0
 10
37.39215
 20
18.9236
 30
0.0
 11
37.39215
 21
18.9236
 31
0.0
  0
LINE
  5
5F3
100
AcDbEntity
  8
BORDER
  6
CONTINUOUS
 62
     2
100
AcDbLine
 39
96.0
 10
37.86095
 20
18.9236
 30
0.0
 11
37.86095
 21
18.9236
 31
0.0
  0
LINE
  5
5F4
100
AcDbEntity
  8
BORDER
  6
CONTINUOUS
 62
     2
100
AcDbLine
 39
96.0
 10
38.32965
 20
18.9236
 30
0.0
 11
38.32965
 21
18.9236
 31
0.0
  0
LINE
  5
5F5
100
AcDbEntity
  8
BORDER
  6
CONTINUOUS
 62
     2
100
AcDbLine
 39
96.0
 10
37.15775
 20
18.4548
 30
0.0
 11
37.15775
 21
18.4548
 31
0.0
  0
LINE
  5
5F6
100
AcDbEntity
  8
BORDER
  6
CONTINUOUS
 62
     2
100
AcDbLine
 39
96.0
 10
37.62655
 20
18.4548
 30
0.0
 11
37.62655
 21
18.4548
 31
0.0
  0
LINE
  5
5F7
100
AcDbEntity
  8
BORDER
  6
CONTINUOUS
 62
     2
100
AcDbLine
 39
96.0
 10
38.09525
 20
18.4548
 30
0.0
 11
38.09525
 21
18.4548
 31
0.0
  0
LINE
  5
5F8
100
AcDbEntity
  8
BORDER
  6
CONTINUOUS
 62
     2
100
AcDbLine
 39
96.0
 10
38.56405
 20
18.4548
 30
0.0
 11
38.56405
 21
18.4548
 31
0.0
  0
LINE
  5
5F9
100
AcDbEntity
  8
BORDER
  6
CONTINUOUS
 62
     2
100
AcDbLine
 39
96.0
 10
36.92345
 20
17.9861
 30
0.0
 11
36.92345
 21
17.9861
 31
0.0
  0
LINE
  5
5FA
100
AcDbEntity
  8
BORDER
  6
CONTINUOUS
 62
     2
100
AcDbLine
 39
96.0
 10
37.39215
 20
17.9861
 30
0.0
 11
37.39215
 21
17.9861
 31
0.0
  0
LINE
  5
5FB
100
AcDbEntity
  8
BORDER
  6
CONTINUOUS
 62
     2
100
AcDbLine
 39
96.0
 10
37.86095
 20
17.9861
 30
0.0
 11
37.86095
 21
17.9861
 31
0.0
  0
LINE
  5
5FC
100
AcDbEntity
  8
BORDER
  6
CONTINUOUS
 62
     2
100
AcDbLine
 39
96.0
 10
38.32965
 20
17.9861
 30
0.0
 11
38.32965
 21
17.9861
 31
0.0
  0
LINE
  5
5FD
100
AcDbEntity
  8
BORDER
  6
CONTINUOUS
 62
     2
100
AcDbLine
 39
96.0
 10
37.15775
 20
17.5173
 30
0.0
 11
37.15775
 21
17.5173
 31
0.0
  0
LINE
  5
5FE
100
AcDbEntity
  8
BORDER
  6
CONTINUOUS
 62
     2
100
AcDbLine
 39
96.0
 10
37.62655
 20
17.5173
 30
0.0
 11
37.62655
 21
17.5173
 31
0.0
  0
LINE
  5
5FF
100
AcDbEntity
  8
BORDER
  6
CONTINUOUS
 62
     2
100
AcDbLine
 39
96.0
 10
38.09525
 20
17.5173
 30
0.0
 11
38.09525
 21
17.5173
 31
0.0
  0
LINE
  5
600
100
AcDbEntity
  8
BORDER
  6
CONTINUOUS
 62
     2
100
AcDbLine
 39
96.0
 10
38.56405
 20
17.5173
 30
0.0
 11
38.56405
 21
17.5173
 31
0.0
  0
LINE
  5
601
100
AcDbEntity
  8
BORDER
  6
CONTINUOUS
 62
     2
100
AcDbLine
 39
96.0
 10
36.92345
 20
17.0486
 30
0.0
 11
36.92345
 21
17.0486
 31
0.0
  0
LINE
  5
602
100
AcDbEntity
  8
BORDER
  6
CONTINUOUS
 62
     2
100
AcDbLine
 39
96.0
 10
37.39215
 20
17.0486
 30
0.0
 11
37.39215
 21
17.0486
 31
0.0
  0
LINE
  5
603
100
AcDbEntity
  8
BORDER
  6
CONTINUOUS
 62
     2
100
AcDbLine
 39
96.0
 10
37.86095
 20
17.0486
 30
0.0
 11
37.86095
 21
17.0486
 31
0.0
  0
LINE
  5
604
100
AcDbEntity
  8
BORDER
  6
CONTINUOUS
 62
     2
100
AcDbLine
 39
96.0
 10
38.32965
 20
17.0486
 30
0.0
 11
38.32965
 21
17.0486
 31
0.0
  0
LINE
  5
605
100
AcDbEntity
  8
BORDER
  6
CONTINUOUS
 62
     2
100
AcDbLine
 39
96.0
 10
37.15775
 20
16.5798
 30
0.0
 11
37.15775
 21
16.5798
 31
0.0
  0
LINE
  5
606
100
AcDbEntity
  8
BORDER
  6
CONTINUOUS
 62
     2
100
AcDbLine
 39
96.0
 10
37.62655
 20
16.5798
 30
0.0
 11
37.62655
 21
16.5798
 31
0.0
  0
LINE
  5
607
100
AcDbEntity
  8
BORDER
  6
CONTINUOUS
 62
     2
100
AcDbLine
 39
96.0
 10
38.09525
 20
16.5798
 30
0.0
 11
38.09525
 21
16.5798
 31
0.0
  0
LINE
  5
608
100
AcDbEntity
  8
BORDER
  6
CONTINUOUS
 62
     2
100
AcDbLine
 39
96.0
 10
38.56405
 20
16.5798
 30
0.0
 11
38.56405
 21
16.5798
 31
0.0
  0
LINE
  5
609
100
AcDbEntity
  8
BORDER
  6
CONTINUOUS
 62
     2
100
AcDbLine
 39
96.0
 10
36.92345
 20
16.1111
 30
0.0
 11
36.92345
 21
16.1111
 31
0.0
  0
LINE
  5
60A
100
AcDbEntity
  8
BORDER
  6
CONTINUOUS
 62
     2
100
AcDbLine
 39
96.0
 10
37.39215
 20
16.1111
 30
0.0
 11
37.39215
 21
16.1111
 31
0.0
  0
LINE
  5
60B
100
AcDbEntity
  8
BORDER
  6
CONTINUOUS
 62
     2
100
AcDbLine
 39
96.0
 10
37.86095
 20
16.1111
 30
0.0
 11
37.86095
 21
16.1111
 31
0.0
  0
LINE
  5
60C
100
AcDbEntity
  8
BORDER
  6
CONTINUOUS
 62
     2
100
AcDbLine
 39
96.0
 10
38.32965
 20
16.1111
 30
0.0
 11
38.32965
 21
16.1111
 31
0.0
  0
LINE
  5
60D
100
AcDbEntity
  8
BORDER
  6
CONTINUOUS
 62
     2
100
AcDbLine
 39
96.0
 10
37.15775
 20
15.6423
 30
0.0
 11
37.15775
 21
15.6423
 31
0.0
  0
LINE
  5
60E
100
AcDbEntity
  8
BORDER
  6
CONTINUOUS
 62
     2
100
AcDbLine
 39
96.0
 10
37.62655
 20
15.6423
 30
0.0
 11
37.62655
 21
15.6423
 31
0.0
  0
LINE
  5
60F
100
AcDbEntity
  8
BORDER
  6
CONTINUOUS
 62
     2
100
AcDbLine
 39
96.0
 10
38.09525
 20
15.6423
 30
0.0
 11
38.09525
 21
15.6423
 31
0.0
  0
LINE
  5
610
100
AcDbEntity
  8
BORDER
  6
CONTINUOUS
 62
     2
100
AcDbLine
 39
96.0
 10
38.56405
 20
15.6423
 30
0.0
 11
38.56405
 21
15.6423
 31
0.0
  0
LINE
  5
611
100
AcDbEntity
  8
BORDER
  6
CONTINUOUS
 62
     2
100
AcDbLine
 39
96.0
 10
36.92345
 20
15.1736
 30
0.0
 11
36.92345
 21
15.1736
 31
0.0
  0
LINE
  5
612
100
AcDbEntity
  8
BORDER
  6
CONTINUOUS
 62
     2
100
AcDbLine
 39
96.0
 10
37.39215
 20
15.1736
 30
0.0
 11
37.39215
 21
15.1736
 31
0.0
  0
LINE
  5
613
100
AcDbEntity
  8
BORDER
  6
CONTINUOUS
 62
     2
100
AcDbLine
 39
96.0
 10
37.86095
 20
15.1736
 30
0.0
 11
37.86095
 21
15.1736
 31
0.0
  0
LINE
  5
614
100
AcDbEntity
  8
BORDER
  6
CONTINUOUS
 62
     2
100
AcDbLine
 39
96.0
 10
38.32965
 20
15.1736
 30
0.0
 11
38.32965
 21
15.1736
 31
0.0
  0
LINE
  5
615
100
AcDbEntity
  8
BORDER
  6
CONTINUOUS
 62
     2
100
AcDbLine
 39
96.0
 10
37.15775
 20
14.7048
 30
0.0
 11
37.15775
 21
14.7048
 31
0.0
  0
LINE
  5
616
100
AcDbEntity
  8
BORDER
  6
CONTINUOUS
 62
     2
100
AcDbLine
 39
96.0
 10
37.62655
 20
14.7048
 30
0.0
 11
37.62655
 21
14.7048
 31
0.0
  0
LINE
  5
617
100
AcDbEntity
  8
BORDER
  6
CONTINUOUS
 62
     2
100
AcDbLine
 39
96.0
 10
38.09525
 20
14.7048
 30
0.0
 11
38.09525
 21
14.7048
 31
0.0
  0
LINE
  5
618
100
AcDbEntity
  8
BORDER
  6
CONTINUOUS
 62
     2
100
AcDbLine
 39
96.0
 10
38.56405
 20
14.7048
 30
0.0
 11
38.56405
 21
14.7048
 31
0.0
  0
LINE
  5
619
100
AcDbEntity
  8
BORDER
  6
CONTINUOUS
 62
     2
100
AcDbLine
 39
96.0
 10
36.92345
 20
14.2361
 30
0.0
 11
36.92345
 21
14.2361
 31
0.0
  0
LINE
  5
61A
100
AcDbEntity
  8
BORDER
  6
CONTINUOUS
 62
     2
100
AcDbLine
 39
96.0
 10
37.39215
 20
14.2361
 30
0.0
 11
37.39215
 21
14.2361
 31
0.0
  0
LINE
  5
61B
100
AcDbEntity
  8
BORDER
  6
CONTINUOUS
 62
     2
100
AcDbLine
 39
96.0
 10
37.86095
 20
14.2361
 30
0.0
 11
37.86095
 21
14.2361
 31
0.0
  0
LINE
  5
61C
100
AcDbEntity
  8
BORDER
  6
CONTINUOUS
 62
     2
100
AcDbLine
 39
96.0
 10
38.32965
 20
14.2361
 30
0.0
 11
38.32965
 21
14.2361
 31
0.0
  0
LINE
  5
61D
100
AcDbEntity
  8
BORDER
  6
CONTINUOUS
 62
     2
100
AcDbLine
 39
96.0
 10
37.15775
 20
13.7673
 30
0.0
 11
37.15775
 21
13.7673
 31
0.0
  0
LINE
  5
61E
100
AcDbEntity
  8
BORDER
  6
CONTINUOUS
 62
     2
100
AcDbLine
 39
96.0
 10
37.62655
 20
13.7673
 30
0.0
 11
37.62655
 21
13.7673
 31
0.0
  0
LINE
  5
61F
100
AcDbEntity
  8
BORDER
  6
CONTINUOUS
 62
     2
100
AcDbLine
 39
96.0
 10
38.09525
 20
13.7673
 30
0.0
 11
38.09525
 21
13.7673
 31
0.0
  0
LINE
  5
620
100
AcDbEntity
  8
BORDER
  6
CONTINUOUS
 62
     2
100
AcDbLine
 39
96.0
 10
38.56405
 20
13.7673
 30
0.0
 11
38.56405
 21
13.7673
 31
0.0
  0
LINE
  5
621
100
AcDbEntity
  8
BORDER
  6
CONTINUOUS
 62
     2
100
AcDbLine
 39
96.0
 10
36.92345
 20
13.2986
 30
0.0
 11
36.92345
 21
13.2986
 31
0.0
  0
LINE
  5
622
100
AcDbEntity
  8
BORDER
  6
CONTINUOUS
 62
     2
100
AcDbLine
 39
96.0
 10
37.39215
 20
13.2986
 30
0.0
 11
37.39215
 21
13.2986
 31
0.0
  0
LINE
  5
623
100
AcDbEntity
  8
BORDER
  6
CONTINUOUS
 62
     2
100
AcDbLine
 39
96.0
 10
37.86095
 20
13.2986
 30
0.0
 11
37.86095
 21
13.2986
 31
0.0
  0
LINE
  5
624
100
AcDbEntity
  8
BORDER
  6
CONTINUOUS
 62
     2
100
AcDbLine
 39
96.0
 10
38.32965
 20
13.2986
 30
0.0
 11
38.32965
 21
13.2986
 31
0.0
  0
LINE
  5
625
100
AcDbEntity
  8
BORDER
  6
CONTINUOUS
 62
     2
100
AcDbLine
 39
96.0
 10
37.15775
 20
12.8298
 30
0.0
 11
37.15775
 21
12.8298
 31
0.0
  0
LINE
  5
626
100
AcDbEntity
  8
BORDER
  6
CONTINUOUS
 62
     2
100
AcDbLine
 39
96.0
 10
37.62655
 20
12.8298
 30
0.0
 11
37.62655
 21
12.8298
 31
0.0
  0
LINE
  5
627
100
AcDbEntity
  8
BORDER
  6
CONTINUOUS
 62
     2
100
AcDbLine
 39
96.0
 10
38.09525
 20
12.8298
 30
0.0
 11
38.09525
 21
12.8298
 31
0.0
  0
LINE
  5
628
100
AcDbEntity
  8
BORDER
  6
CONTINUOUS
 62
     2
100
AcDbLine
 39
96.0
 10
38.56405
 20
12.8298
 30
0.0
 11
38.56405
 21
12.8298
 31
0.0
  0
LINE
  5
629
100
AcDbEntity
  8
BORDER
  6
CONTINUOUS
 62
     2
100
AcDbLine
 39
96.0
 10
36.92345
 20
12.3611
 30
0.0
 11
36.92345
 21
12.3611
 31
0.0
  0
LINE
  5
62A
100
AcDbEntity
  8
BORDER
  6
CONTINUOUS
 62
     2
100
AcDbLine
 39
96.0
 10
37.39215
 20
12.3611
 30
0.0
 11
37.39215
 21
12.3611
 31
0.0
  0
LINE
  5
62B
100
AcDbEntity
  8
BORDER
  6
CONTINUOUS
 62
     2
100
AcDbLine
 39
96.0
 10
37.86095
 20
12.3611
 30
0.0
 11
37.86095
 21
12.3611
 31
0.0
  0
LINE
  5
62C
100
AcDbEntity
  8
BORDER
  6
CONTINUOUS
 62
     2
100
AcDbLine
 39
96.0
 10
38.32965
 20
12.3611
 30
0.0
 11
38.32965
 21
12.3611
 31
0.0
  0
LINE
  5
62D
100
AcDbEntity
  8
BORDER
  6
CONTINUOUS
 62
     2
100
AcDbLine
 39
96.0
 10
37.15775
 20
11.8923
 30
0.0
 11
37.15775
 21
11.8923
 31
0.0
  0
LINE
  5
62E
100
AcDbEntity
  8
BORDER
  6
CONTINUOUS
 62
     2
100
AcDbLine
 39
96.0
 10
37.62655
 20
11.8923
 30
0.0
 11
37.62655
 21
11.8923
 31
0.0
  0
LINE
  5
62F
100
AcDbEntity
  8
BORDER
  6
CONTINUOUS
 62
     2
100
AcDbLine
 39
96.0
 10
38.09525
 20
11.8923
 30
0.0
 11
38.09525
 21
11.8923
 31
0.0
  0
LINE
  5
630
100
AcDbEntity
  8
BORDER
  6
CONTINUOUS
 62
     2
100
AcDbLine
 39
96.0
 10
38.56405
 20
11.8923
 30
0.0
 11
38.56405
 21
11.8923
 31
0.0
  0
LINE
  5
631
100
AcDbEntity
  8
BORDER
  6
CONTINUOUS
 62
     2
100
AcDbLine
 39
96.0
 10
36.92345
 20
11.4236
 30
0.0
 11
36.92345
 21
11.4236
 31
0.0
  0
LINE
  5
632
100
AcDbEntity
  8
BORDER
  6
CONTINUOUS
 62
     2
100
AcDbLine
 39
96.0
 10
37.39215
 20
11.4236
 30
0.0
 11
37.39215
 21
11.4236
 31
0.0
  0
LINE
  5
633
100
AcDbEntity
  8
BORDER
  6
CONTINUOUS
 62
     2
100
AcDbLine
 39
96.0
 10
37.86095
 20
11.4236
 30
0.0
 11
37.86095
 21
11.4236
 31
0.0
  0
LINE
  5
634
100
AcDbEntity
  8
BORDER
  6
CONTINUOUS
 62
     2
100
AcDbLine
 39
96.0
 10
38.32965
 20
11.4236
 30
0.0
 11
38.32965
 21
11.4236
 31
0.0
  0
LINE
  5
635
100
AcDbEntity
  8
BORDER
  6
CONTINUOUS
 62
     2
100
AcDbLine
 39
96.0
 10
37.15775
 20
10.9548
 30
0.0
 11
37.15775
 21
10.9548
 31
0.0
  0
LINE
  5
636
100
AcDbEntity
  8
BORDER
  6
CONTINUOUS
 62
     2
100
AcDbLine
 39
96.0
 10
37.62655
 20
10.9548
 30
0.0
 11
37.62655
 21
10.9548
 31
0.0
  0
LINE
  5
637
100
AcDbEntity
  8
BORDER
  6
CONTINUOUS
 62
     2
100
AcDbLine
 39
96.0
 10
38.09525
 20
10.9548
 30
0.0
 11
38.09525
 21
10.9548
 31
0.0
  0
LINE
  5
638
100
AcDbEntity
  8
BORDER
  6
CONTINUOUS
 62
     2
100
AcDbLine
 39
96.0
 10
38.56405
 20
10.9548
 30
0.0
 11
38.56405
 21
10.9548
 31
0.0
  0
LINE
  5
639
100
AcDbEntity
  8
BORDER
  6
CONTINUOUS
 62
     2
100
AcDbLine
 39
96.0
 10
36.92345
 20
10.4861
 30
0.0
 11
36.92345
 21
10.4861
 31
0.0
  0
LINE
  5
63A
100
AcDbEntity
  8
BORDER
  6
CONTINUOUS
 62
     2
100
AcDbLine
 39
96.0
 10
37.39215
 20
10.4861
 30
0.0
 11
37.39215
 21
10.4861
 31
0.0
  0
LINE
  5
63B
100
AcDbEntity
  8
BORDER
  6
CONTINUOUS
 62
     2
100
AcDbLine
 39
96.0
 10
37.86095
 20
10.4861
 30
0.0
 11
37.86095
 21
10.4861
 31
0.0
  0
LINE
  5
63C
100
AcDbEntity
  8
BORDER
  6
CONTINUOUS
 62
     2
100
AcDbLine
 39
96.0
 10
38.32965
 20
10.4861
 30
0.0
 11
38.32965
 21
10.4861
 31
0.0
  0
LINE
  5
63D
100
AcDbEntity
  8
BORDER
  6
CONTINUOUS
 62
     2
100
AcDbLine
 39
96.0
 10
37.15775
 20
10.0173
 30
0.0
 11
37.15775
 21
10.0173
 31
0.0
  0
LINE
  5
63E
100
AcDbEntity
  8
BORDER
  6
CONTINUOUS
 62
     2
100
AcDbLine
 39
96.0
 10
37.62655
 20
10.0173
 30
0.0
 11
37.62655
 21
10.0173
 31
0.0
  0
LINE
  5
63F
100
AcDbEntity
  8
BORDER
  6
CONTINUOUS
 62
     2
100
AcDbLine
 39
96.0
 10
38.09525
 20
10.0173
 30
0.0
 11
38.09525
 21
10.0173
 31
0.0
  0
LINE
  5
640
100
AcDbEntity
  8
BORDER
  6
CONTINUOUS
 62
     2
100
AcDbLine
 39
96.0
 10
38.56405
 20
10.0173
 30
0.0
 11
38.56405
 21
10.0173
 31
0.0
  0
LINE
  5
641
100
AcDbEntity
  8
BORDER
  6
CONTINUOUS
 62
     3
100
AcDbLine
 39
96.0
 10
28.74225
 20
24.6844
 30
0.0
 11
30.61725
 21
24.6844
 31
0.0
  0
LINE
  5
642
100
AcDbEntity
  8
BORDER
  6
CONTINUOUS
 62
     3
100
AcDbLine
 39
96.0
 10
36.86725
 20
24.6844
 30
0.0
 11
38.74225
 21
24.6844
 31
0.0
  0
LINE
  5
643
100
AcDbEntity
  8
BORDER
  6
CONTINUOUS
 62
    10
100
AcDbLine
 39
96.0
 10
31.59505
 20
11.6165
 30
0.0
 11
31.52155
 21
11.5898
 31
0.0
  0
LINE
  5
644
100
AcDbEntity
  8
BORDER
  6
CONTINUOUS
 62
    10
100
AcDbLine
 39
96.0
 10
33.73515
 20
12.132
 30
0.0
 11
33.69025
 21
12.068
 31
0.0
  0
LINE
  5
645
100
AcDbEntity
  8
BORDER
  6
CONTINUOUS
 62
    10
100
AcDbLine
 39
96.0
 10
31.94275
 20
9.5721
 30
0.0
 11
31.89775
 21
9.5082
 31
0.0
  0
LINE
  5
646
100
AcDbEntity
  8
BORDER
  6
CONTINUOUS
 62
    10
100
AcDbLine
 39
96.0
 10
34.29425
 20
12.6332
 30
0.0
 11
34.28325
 21
12.5716
 31
0.0
  0
LINE
  5
647
100
AcDbEntity
  8
BORDER
  6
CONTINUOUS
 62
    10
100
AcDbLine
 39
96.0
 10
34.26155
 20
22.5638
 30
0.0
 11
34.18805
 21
22.5371
 31
0.0
  0
LINE
  5
648
100
AcDbEntity
  8
BORDER
  6
CONTINUOUS
 62
    10
100
AcDbLine
 39
96.0
 10
33.99275
 20
23.3965
 30
0.0
 11
33.94785
 21
23.3325
 31
0.0
  0
LINE
  5
649
100
AcDbEntity
  8
BORDER
  6
CONTINUOUS
 62
    10
100
AcDbLine
 39
96.0
 10
32.84745
 20
22.4237
 30
0.0
 11
32.83385
 21
22.3468
 31
0.0
  0
LINE
  5
64A
100
AcDbEntity
  8
BORDER
  6
CONTINUOUS
 62
     1
100
AcDbLine
 39
96.0
 10
34.35505
 20
10.0013
 30
0.0
 11
34.41385
 21
10.0226
 31
0.0
  0
LINE
  5
64B
100
AcDbEntity
  8
BORDER
  6
CONTINUOUS
 62
     1
100
AcDbLine
 39
96.0
 10
34.78105
 20
10.2201
 30
0.0
 11
34.79185
 21
10.2816
 31
0.0
  0
LINE
  5
64C
100
AcDbEntity
  8
BORDER
  6
CONTINUOUS
 62
     1
100
AcDbLine
 39
96.0
 10
34.06915
 20
10.6359
 30
0.0
 11
34.10505
 21
10.6871
 31
0.0
  0
LINE
  5
64D
100
AcDbEntity
  8
BORDER
  6
CONTINUOUS
 62
     3
100
AcDbLine
 39
96.0
 10
38.74225
 20
1.6537
 30
0.0
 11
38.74225
 21
9.6844
 31
0.0
  0
LINE
  5
64E
100
AcDbEntity
  8
BORDER
  6
CONTINUOUS
 62
     3
100
AcDbLine
 39
96.0
 10
38.74225
 20
9.6844
 30
0.0
 11
36.86725
 21
9.6844
 31
0.0
  0
LINE
  5
64F
100
AcDbEntity
  8
BORDER
  6
CONTINUOUS
 62
     3
100
AcDbLine
 39
96.0
 10
28.74225
 20
9.6844
 30
0.0
 11
28.74225
 21
1.6537
 31
0.0
  0
LINE
  5
650
100
AcDbEntity
  8
BORDER
  6
CONTINUOUS
 62
     3
100
AcDbLine
 39
96.0
 10
30.61725
 20
9.6844
 30
0.0
 11
30.61725
 21
1.6537
 31
0.0
  0
LINE
  5
651
100
AcDbEntity
  8
BORDER
  6
CONTINUOUS
 62
     3
100
AcDbLine
 39
96.0
 10
36.86725
 20
1.6537
 30
0.0
 11
36.86725
 21
9.6844
 31
0.0
  0
ARC
  5
652
100
AcDbEntity
  8
BORDER
  6
CONTINUOUS
 62
     3
100
AcDbCircle
 39
96.0
 10
33.74225
 20
9.6844
 30
0.0
 40
3.0
100
AcDbArc
 50
180.0
 51
0.0
  0
LINE
  5
653
100
AcDbEntity
  8
BORDER
  6
CONTINUOUS
 62
     3
100
AcDbLine
 39
96.0
 10
30.61725
 20
9.6844
 30
0.0
 11
28.74225
 21
9.6844
 31
0.0
  0
LINE
  5
654
100
AcDbEntity
  8
BORDER
  6
CONTINUOUS
 62
     1
100
AcDbLine
 39
96.0
 10
32.64505
 20
6.3738
 30
0.0
 11
32.70395
 21
6.3952
 31
0.0
  0
LINE
  5
655
100
AcDbEntity
  8
BORDER
  6
CONTINUOUS
 62
     1
100
AcDbLine
 39
96.0
 10
31.15075
 20
3.1695
 30
0.0
 11
31.20955
 21
3.1909
 31
0.0
  0
LINE
  5
656
100
AcDbEntity
  8
BORDER
  6
CONTINUOUS
 62
     1
100
AcDbLine
 39
96.0
 10
33.50005
 20
4.0246
 30
0.0
 11
33.55895
 21
4.0459
 31
0.0
  0
LINE
  5
657
100
AcDbEntity
  8
BORDER
  6
CONTINUOUS
 62
     1
100
AcDbLine
 39
96.0
 10
35.84945
 20
4.8796
 30
0.0
 11
35.90825
 21
4.901
 31
0.0
  0
LINE
  5
658
100
AcDbEntity
  8
BORDER
  6
CONTINUOUS
 62
     1
100
AcDbLine
 39
96.0
 10
34.35505
 20
1.6753
 30
0.0
 11
34.41385
 21
1.6967
 31
0.0
  0
LINE
  5
659
100
AcDbEntity
  8
BORDER
  6
CONTINUOUS
 62
     1
100
AcDbLine
 39
96.0
 10
36.70445
 20
2.5304
 30
0.0
 11
36.76325
 21
2.5517
 31
0.0
  0
LINE
  5
65A
100
AcDbEntity
  8
BORDER
  6
CONTINUOUS
 62
     1
100
AcDbLine
 39
96.0
 10
31.40735
 20
7.2257
 30
0.0
 11
31.44315
 21
7.2769
 31
0.0
  0
LINE
  5
65B
100
AcDbEntity
  8
BORDER
  6
CONTINUOUS
 62
     1
100
AcDbLine
 39
96.0
 10
32.02135
 20
3.7438
 30
0.0
 11
32.05725
 21
3.7951
 31
0.0
  0
LINE
  5
65C
100
AcDbEntity
  8
BORDER
  6
CONTINUOUS
 62
     1
100
AcDbLine
 39
96.0
 10
33.45545
 20
5.7917
 30
0.0
 11
33.49125
 21
5.8429
 31
0.0
  0
LINE
  5
65D
100
AcDbEntity
  8
BORDER
  6
CONTINUOUS
 62
     1
100
AcDbLine
 39
96.0
 10
34.06915
 20
2.31
 30
0.0
 11
34.10505
 21
2.3612
 31
0.0
  0
LINE
  5
65E
100
AcDbEntity
  8
BORDER
  6
CONTINUOUS
 62
     1
100
AcDbLine
 39
96.0
 10
35.50325
 20
4.3578
 30
0.0
 11
35.53915
 21
4.4091
 31
0.0
  0
LINE
  5
65F
100
AcDbEntity
  8
BORDER
  6
CONTINUOUS
 62
     1
100
AcDbLine
 39
96.0
 10
30.72565
 20
7.6863
 30
0.0
 11
30.73645
 21
7.7479
 31
0.0
  0
LINE
  5
660
100
AcDbEntity
  8
BORDER
  6
CONTINUOUS
 62
     1
100
AcDbLine
 39
96.0
 10
32.31945
 20
2.3282
 30
0.0
 11
32.33015
 21
2.3898
 31
0.0
  0
LINE
  5
661
100
AcDbEntity
  8
BORDER
  6
CONTINUOUS
 62
     1
100
AcDbLine
 39
96.0
 10
32.75345
 20
4.7903
 30
0.0
 11
32.76425
 21
4.8518
 31
0.0
  0
LINE
  5
662
100
AcDbEntity
  8
BORDER
  6
CONTINUOUS
 62
     1
100
AcDbLine
 39
96.0
 10
34.78105
 20
1.8941
 30
0.0
 11
34.79185
 21
1.9557
 31
0.0
  0
LINE
  5
663
100
AcDbEntity
  8
BORDER
  6
CONTINUOUS
 62
     1
100
AcDbLine
 39
96.0
 10
35.21515
 20
4.3562
 30
0.0
 11
35.22595
 21
4.4178
 31
0.0
  0
LINE
  5
664
100
AcDbEntity
  8
BORDER
  6
CONTINUOUS
 62
     1
100
AcDbLine
 39
96.0
 10
35.64925
 20
6.8182
 30
0.0
 11
35.65995
 21
6.8798
 31
0.0
  0
LINE
  5
665
100
AcDbEntity
  8
BORDER
  6
CONTINUOUS
 62
     2
100
AcDbLine
 39
96.0
 10
28.95465
 20
9.5486
 30
0.0
 11
28.95465
 21
9.5486
 31
0.0
  0
LINE
  5
666
100
AcDbEntity
  8
BORDER
  6
CONTINUOUS
 62
     2
100
AcDbLine
 39
96.0
 10
29.42345
 20
9.5486
 30
0.0
 11
29.42345
 21
9.5486
 31
0.0
  0
LINE
  5
667
100
AcDbEntity
  8
BORDER
  6
CONTINUOUS
 62
     2
100
AcDbLine
 39
96.0
 10
29.89215
 20
9.5486
 30
0.0
 11
29.89215
 21
9.5486
 31
0.0
  0
LINE
  5
668
100
AcDbEntity
  8
BORDER
  6
CONTINUOUS
 62
     2
100
AcDbLine
 39
96.0
 10
30.36095
 20
9.5486
 30
0.0
 11
30.36095
 21
9.5486
 31
0.0
  0
LINE
  5
669
100
AcDbEntity
  8
BORDER
  6
CONTINUOUS
 62
     2
100
AcDbLine
 39
96.0
 10
29.18905
 20
9.0799
 30
0.0
 11
29.18905
 21
9.0799
 31
0.0
  0
LINE
  5
66A
100
AcDbEntity
  8
BORDER
  6
CONTINUOUS
 62
     2
100
AcDbLine
 39
96.0
 10
29.65775
 20
9.0799
 30
0.0
 11
29.65775
 21
9.0799
 31
0.0
  0
LINE
  5
66B
100
AcDbEntity
  8
BORDER
  6
CONTINUOUS
 62
     2
100
AcDbLine
 39
96.0
 10
30.12655
 20
9.0799
 30
0.0
 11
30.12655
 21
9.0799
 31
0.0
  0
LINE
  5
66C
100
AcDbEntity
  8
BORDER
  6
CONTINUOUS
 62
     2
100
AcDbLine
 39
96.0
 10
30.59525
 20
9.0799
 30
0.0
 11
30.59525
 21
9.0799
 31
0.0
  0
LINE
  5
66D
100
AcDbEntity
  8
BORDER
  6
CONTINUOUS
 62
     2
100
AcDbLine
 39
96.0
 10
28.95465
 20
8.6111
 30
0.0
 11
28.95465
 21
8.6111
 31
0.0
  0
LINE
  5
66E
100
AcDbEntity
  8
BORDER
  6
CONTINUOUS
 62
     2
100
AcDbLine
 39
96.0
 10
29.42345
 20
8.6111
 30
0.0
 11
29.42345
 21
8.6111
 31
0.0
  0
LINE
  5
66F
100
AcDbEntity
  8
BORDER
  6
CONTINUOUS
 62
     2
100
AcDbLine
 39
96.0
 10
29.89215
 20
8.6111
 30
0.0
 11
29.89215
 21
8.6111
 31
0.0
  0
LINE
  5
670
100
AcDbEntity
  8
BORDER
  6
CONTINUOUS
 62
     2
100
AcDbLine
 39
96.0
 10
30.36095
 20
8.6111
 30
0.0
 11
30.36095
 21
8.6111
 31
0.0
  0
LINE
  5
671
100
AcDbEntity
  8
BORDER
  6
CONTINUOUS
 62
     2
100
AcDbLine
 39
96.0
 10
29.18905
 20
8.1424
 30
0.0
 11
29.18905
 21
8.1424
 31
0.0
  0
LINE
  5
672
100
AcDbEntity
  8
BORDER
  6
CONTINUOUS
 62
     2
100
AcDbLine
 39
96.0
 10
29.65775
 20
8.1424
 30
0.0
 11
29.65775
 21
8.1424
 31
0.0
  0
LINE
  5
673
100
AcDbEntity
  8
BORDER
  6
CONTINUOUS
 62
     2
100
AcDbLine
 39
96.0
 10
30.12655
 20
8.1424
 30
0.0
 11
30.12655
 21
8.1424
 31
0.0
  0
LINE
  5
674
100
AcDbEntity
  8
BORDER
  6
CONTINUOUS
 62
     2
100
AcDbLine
 39
96.0
 10
30.59525
 20
8.1424
 30
0.0
 11
30.59525
 21
8.1424
 31
0.0
  0
LINE
  5
675
100
AcDbEntity
  8
BORDER
  6
CONTINUOUS
 62
     2
100
AcDbLine
 39
96.0
 10
28.95465
 20
7.6736
 30
0.0
 11
28.95465
 21
7.6736
 31
0.0
  0
LINE
  5
676
100
AcDbEntity
  8
BORDER
  6
CONTINUOUS
 62
     2
100
AcDbLine
 39
96.0
 10
29.42345
 20
7.6736
 30
0.0
 11
29.42345
 21
7.6736
 31
0.0
  0
LINE
  5
677
100
AcDbEntity
  8
BORDER
  6
CONTINUOUS
 62
     2
100
AcDbLine
 39
96.0
 10
29.89215
 20
7.6736
 30
0.0
 11
29.89215
 21
7.6736
 31
0.0
  0
LINE
  5
678
100
AcDbEntity
  8
BORDER
  6
CONTINUOUS
 62
     2
100
AcDbLine
 39
96.0
 10
30.36095
 20
7.6736
 30
0.0
 11
30.36095
 21
7.6736
 31
0.0
  0
LINE
  5
679
100
AcDbEntity
  8
BORDER
  6
CONTINUOUS
 62
     2
100
AcDbLine
 39
96.0
 10
29.18905
 20
7.2049
 30
0.0
 11
29.18905
 21
7.2049
 31
0.0
  0
LINE
  5
67A
100
AcDbEntity
  8
BORDER
  6
CONTINUOUS
 62
     2
100
AcDbLine
 39
96.0
 10
29.65775
 20
7.2049
 30
0.0
 11
29.65775
 21
7.2049
 31
0.0
  0
LINE
  5
67B
100
AcDbEntity
  8
BORDER
  6
CONTINUOUS
 62
     2
100
AcDbLine
 39
96.0
 10
30.12655
 20
7.2049
 30
0.0
 11
30.12655
 21
7.2049
 31
0.0
  0
LINE
  5
67C
100
AcDbEntity
  8
BORDER
  6
CONTINUOUS
 62
     2
100
AcDbLine
 39
96.0
 10
30.59525
 20
7.2049
 30
0.0
 11
30.59525
 21
7.2049
 31
0.0
  0
LINE
  5
67D
100
AcDbEntity
  8
BORDER
  6
CONTINUOUS
 62
     2
100
AcDbLine
 39
96.0
 10
28.95465
 20
6.7361
 30
0.0
 11
28.95465
 21
6.7361
 31
0.0
  0
LINE
  5
67E
100
AcDbEntity
  8
BORDER
  6
CONTINUOUS
 62
     2
100
AcDbLine
 39
96.0
 10
29.42345
 20
6.7361
 30
0.0
 11
29.42345
 21
6.7361
 31
0.0
  0
LINE
  5
67F
100
AcDbEntity
  8
BORDER
  6
CONTINUOUS
 62
     2
100
AcDbLine
 39
96.0
 10
29.89215
 20
6.7361
 30
0.0
 11
29.89215
 21
6.7361
 31
0.0
  0
LINE
  5
680
100
AcDbEntity
  8
BORDER
  6
CONTINUOUS
 62
     2
100
AcDbLine
 39
96.0
 10
30.36095
 20
6.7361
 30
0.0
 11
30.36095
 21
6.7361
 31
0.0
  0
LINE
  5
681
100
AcDbEntity
  8
BORDER
  6
CONTINUOUS
 62
     2
100
AcDbLine
 39
96.0
 10
29.18905
 20
6.2674
 30
0.0
 11
29.18905
 21
6.2674
 31
0.0
  0
LINE
  5
682
100
AcDbEntity
  8
BORDER
  6
CONTINUOUS
 62
     2
100
AcDbLine
 39
96.0
 10
29.65775
 20
6.2674
 30
0.0
 11
29.65775
 21
6.2674
 31
0.0
  0
LINE
  5
683
100
AcDbEntity
  8
BORDER
  6
CONTINUOUS
 62
     2
100
AcDbLine
 39
96.0
 10
30.12655
 20
6.2674
 30
0.0
 11
30.12655
 21
6.2674
 31
0.0
  0
LINE
  5
684
100
AcDbEntity
  8
BORDER
  6
CONTINUOUS
 62
     2
100
AcDbLine
 39
96.0
 10
30.59525
 20
6.2674
 30
0.0
 11
30.59525
 21
6.2674
 31
0.0
  0
LINE
  5
685
100
AcDbEntity
  8
BORDER
  6
CONTINUOUS
 62
     2
100
AcDbLine
 39
96.0
 10
28.95465
 20
5.7986
 30
0.0
 11
28.95465
 21
5.7986
 31
0.0
  0
LINE
  5
686
100
AcDbEntity
  8
BORDER
  6
CONTINUOUS
 62
     2
100
AcDbLine
 39
96.0
 10
29.42345
 20
5.7986
 30
0.0
 11
29.42345
 21
5.7986
 31
0.0
  0
LINE
  5
687
100
AcDbEntity
  8
BORDER
  6
CONTINUOUS
 62
     2
100
AcDbLine
 39
96.0
 10
29.89215
 20
5.7986
 30
0.0
 11
29.89215
 21
5.7986
 31
0.0
  0
LINE
  5
688
100
AcDbEntity
  8
BORDER
  6
CONTINUOUS
 62
     2
100
AcDbLine
 39
96.0
 10
30.36095
 20
5.7986
 30
0.0
 11
30.36095
 21
5.7986
 31
0.0
  0
LINE
  5
689
100
AcDbEntity
  8
BORDER
  6
CONTINUOUS
 62
     2
100
AcDbLine
 39
96.0
 10
29.18905
 20
5.3299
 30
0.0
 11
29.18905
 21
5.3299
 31
0.0
  0
LINE
  5
68A
100
AcDbEntity
  8
BORDER
  6
CONTINUOUS
 62
     2
100
AcDbLine
 39
96.0
 10
29.65775
 20
5.3299
 30
0.0
 11
29.65775
 21
5.3299
 31
0.0
  0
LINE
  5
68B
100
AcDbEntity
  8
BORDER
  6
CONTINUOUS
 62
     2
100
AcDbLine
 39
96.0
 10
30.12655
 20
5.3299
 30
0.0
 11
30.12655
 21
5.3299
 31
0.0
  0
LINE
  5
68C
100
AcDbEntity
  8
BORDER
  6
CONTINUOUS
 62
     2
100
AcDbLine
 39
96.0
 10
30.59525
 20
5.3299
 30
0.0
 11
30.59525
 21
5.3299
 31
0.0
  0
LINE
  5
68D
100
AcDbEntity
  8
BORDER
  6
CONTINUOUS
 62
     2
100
AcDbLine
 39
96.0
 10
28.95465
 20
4.8611
 30
0.0
 11
28.95465
 21
4.8611
 31
0.0
  0
LINE
  5
68E
100
AcDbEntity
  8
BORDER
  6
CONTINUOUS
 62
     2
100
AcDbLine
 39
96.0
 10
29.42345
 20
4.8611
 30
0.0
 11
29.42345
 21
4.8611
 31
0.0
  0
LINE
  5
68F
100
AcDbEntity
  8
BORDER
  6
CONTINUOUS
 62
     2
100
AcDbLine
 39
96.0
 10
29.89215
 20
4.8611
 30
0.0
 11
29.89215
 21
4.8611
 31
0.0
  0
LINE
  5
690
100
AcDbEntity
  8
BORDER
  6
CONTINUOUS
 62
     2
100
AcDbLine
 39
96.0
 10
30.36095
 20
4.8611
 30
0.0
 11
30.36095
 21
4.8611
 31
0.0
  0
LINE
  5
691
100
AcDbEntity
  8
BORDER
  6
CONTINUOUS
 62
     2
100
AcDbLine
 39
96.0
 10
29.18905
 20
4.3924
 30
0.0
 11
29.18905
 21
4.3924
 31
0.0
  0
LINE
  5
692
100
AcDbEntity
  8
BORDER
  6
CONTINUOUS
 62
     2
100
AcDbLine
 39
96.0
 10
29.65775
 20
4.3924
 30
0.0
 11
29.65775
 21
4.3924
 31
0.0
  0
LINE
  5
693
100
AcDbEntity
  8
BORDER
  6
CONTINUOUS
 62
     2
100
AcDbLine
 39
96.0
 10
30.12655
 20
4.3924
 30
0.0
 11
30.12655
 21
4.3924
 31
0.0
  0
LINE
  5
694
100
AcDbEntity
  8
BORDER
  6
CONTINUOUS
 62
     2
100
AcDbLine
 39
96.0
 10
30.59525
 20
4.3924
 30
0.0
 11
30.59525
 21
4.3924
 31
0.0
  0
LINE
  5
695
100
AcDbEntity
  8
BORDER
  6
CONTINUOUS
 62
     2
100
AcDbLine
 39
96.0
 10
28.95465
 20
3.9236
 30
0.0
 11
28.95465
 21
3.9236
 31
0.0
  0
LINE
  5
696
100
AcDbEntity
  8
BORDER
  6
CONTINUOUS
 62
     2
100
AcDbLine
 39
96.0
 10
29.42345
 20
3.9236
 30
0.0
 11
29.42345
 21
3.9236
 31
0.0
  0
LINE
  5
697
100
AcDbEntity
  8
BORDER
  6
CONTINUOUS
 62
     2
100
AcDbLine
 39
96.0
 10
29.89215
 20
3.9236
 30
0.0
 11
29.89215
 21
3.9236
 31
0.0
  0
LINE
  5
698
100
AcDbEntity
  8
BORDER
  6
CONTINUOUS
 62
     2
100
AcDbLine
 39
96.0
 10
30.36095
 20
3.9236
 30
0.0
 11
30.36095
 21
3.9236
 31
0.0
  0
LINE
  5
699
100
AcDbEntity
  8
BORDER
  6
CONTINUOUS
 62
     2
100
AcDbLine
 39
96.0
 10
29.18905
 20
3.4549
 30
0.0
 11
29.18905
 21
3.4549
 31
0.0
  0
LINE
  5
69A
100
AcDbEntity
  8
BORDER
  6
CONTINUOUS
 62
     2
100
AcDbLine
 39
96.0
 10
29.65775
 20
3.4549
 30
0.0
 11
29.65775
 21
3.4549
 31
0.0
  0
LINE
  5
69B
100
AcDbEntity
  8
BORDER
  6
CONTINUOUS
 62
     2
100
AcDbLine
 39
96.0
 10
30.12655
 20
3.4549
 30
0.0
 11
30.12655
 21
3.4549
 31
0.0
  0
LINE
  5
69C
100
AcDbEntity
  8
BORDER
  6
CONTINUOUS
 62
     2
100
AcDbLine
 39
96.0
 10
30.59525
 20
3.4549
 30
0.0
 11
30.59525
 21
3.4549
 31
0.0
  0
LINE
  5
69D
100
AcDbEntity
  8
BORDER
  6
CONTINUOUS
 62
     2
100
AcDbLine
 39
96.0
 10
28.95465
 20
2.9861
 30
0.0
 11
28.95465
 21
2.9861
 31
0.0
  0
LINE
  5
69E
100
AcDbEntity
  8
BORDER
  6
CONTINUOUS
 62
     2
100
AcDbLine
 39
96.0
 10
29.42345
 20
2.9861
 30
0.0
 11
29.42345
 21
2.9861
 31
0.0
  0
LINE
  5
69F
100
AcDbEntity
  8
BORDER
  6
CONTINUOUS
 62
     2
100
AcDbLine
 39
96.0
 10
29.89215
 20
2.9861
 30
0.0
 11
29.89215
 21
2.9861
 31
0.0
  0
LINE
  5
6A0
100
AcDbEntity
  8
BORDER
  6
CONTINUOUS
 62
     2
100
AcDbLine
 39
96.0
 10
30.36095
 20
2.9861
 30
0.0
 11
30.36095
 21
2.9861
 31
0.0
  0
LINE
  5
6A1
100
AcDbEntity
  8
BORDER
  6
CONTINUOUS
 62
     2
100
AcDbLine
 39
96.0
 10
29.18905
 20
2.5174
 30
0.0
 11
29.18905
 21
2.5174
 31
0.0
  0
LINE
  5
6A2
100
AcDbEntity
  8
BORDER
  6
CONTINUOUS
 62
     2
100
AcDbLine
 39
96.0
 10
29.65775
 20
2.5174
 30
0.0
 11
29.65775
 21
2.5174
 31
0.0
  0
LINE
  5
6A3
100
AcDbEntity
  8
BORDER
  6
CONTINUOUS
 62
     2
100
AcDbLine
 39
96.0
 10
30.12655
 20
2.5174
 30
0.0
 11
30.12655
 21
2.5174
 31
0.0
  0
LINE
  5
6A4
100
AcDbEntity
  8
BORDER
  6
CONTINUOUS
 62
     2
100
AcDbLine
 39
96.0
 10
30.59525
 20
2.5174
 30
0.0
 11
30.59525
 21
2.5174
 31
0.0
  0
LINE
  5
6A5
100
AcDbEntity
  8
BORDER
  6
CONTINUOUS
 62
     2
100
AcDbLine
 39
96.0
 10
28.95465
 20
2.0486
 30
0.0
 11
28.95465
 21
2.0486
 31
0.0
  0
LINE
  5
6A6
100
AcDbEntity
  8
BORDER
  6
CONTINUOUS
 62
     2
100
AcDbLine
 39
96.0
 10
29.42345
 20
2.0486
 30
0.0
 11
29.42345
 21
2.0486
 31
0.0
  0
LINE
  5
6A7
100
AcDbEntity
  8
BORDER
  6
CONTINUOUS
 62
     2
100
AcDbLine
 39
96.0
 10
29.89215
 20
2.0486
 30
0.0
 11
29.89215
 21
2.0486
 31
0.0
  0
LINE
  5
6A8
100
AcDbEntity
  8
BORDER
  6
CONTINUOUS
 62
     2
100
AcDbLine
 39
96.0
 10
30.36095
 20
2.0486
 30
0.0
 11
30.36095
 21
2.0486
 31
0.0
  0
LINE
  5
6A9
100
AcDbEntity
  8
BORDER
  6
CONTINUOUS
 62
     2
100
AcDbLine
 39
96.0
 10
36.92345
 20
9.5486
 30
0.0
 11
36.92345
 21
9.5486
 31
0.0
  0
LINE
  5
6AA
100
AcDbEntity
  8
BORDER
  6
CONTINUOUS
 62
     2
100
AcDbLine
 39
96.0
 10
37.39215
 20
9.5486
 30
0.0
 11
37.39215
 21
9.5486
 31
0.0
  0
LINE
  5
6AB
100
AcDbEntity
  8
BORDER
  6
CONTINUOUS
 62
     2
100
AcDbLine
 39
96.0
 10
37.86095
 20
9.5486
 30
0.0
 11
37.86095
 21
9.5486
 31
0.0
  0
LINE
  5
6AC
100
AcDbEntity
  8
BORDER
  6
CONTINUOUS
 62
     2
100
AcDbLine
 39
96.0
 10
38.32965
 20
9.5486
 30
0.0
 11
38.32965
 21
9.5486
 31
0.0
  0
LINE
  5
6AD
100
AcDbEntity
  8
BORDER
  6
CONTINUOUS
 62
     2
100
AcDbLine
 39
96.0
 10
37.15775
 20
9.0799
 30
0.0
 11
37.15775
 21
9.0799
 31
0.0
  0
LINE
  5
6AE
100
AcDbEntity
  8
BORDER
  6
CONTINUOUS
 62
     2
100
AcDbLine
 39
96.0
 10
37.62655
 20
9.0799
 30
0.0
 11
37.62655
 21
9.0799
 31
0.0
  0
LINE
  5
6AF
100
AcDbEntity
  8
BORDER
  6
CONTINUOUS
 62
     2
100
AcDbLine
 39
96.0
 10
38.09525
 20
9.0799
 30
0.0
 11
38.09525
 21
9.0799
 31
0.0
  0
LINE
  5
6B0
100
AcDbEntity
  8
BORDER
  6
CONTINUOUS
 62
     2
100
AcDbLine
 39
96.0
 10
38.56405
 20
9.0799
 30
0.0
 11
38.56405
 21
9.0799
 31
0.0
  0
LINE
  5
6B1
100
AcDbEntity
  8
BORDER
  6
CONTINUOUS
 62
     2
100
AcDbLine
 39
96.0
 10
36.92345
 20
8.6111
 30
0.0
 11
36.92345
 21
8.6111
 31
0.0
  0
LINE
  5
6B2
100
AcDbEntity
  8
BORDER
  6
CONTINUOUS
 62
     2
100
AcDbLine
 39
96.0
 10
37.39215
 20
8.6111
 30
0.0
 11
37.39215
 21
8.6111
 31
0.0
  0
LINE
  5
6B3
100
AcDbEntity
  8
BORDER
  6
CONTINUOUS
 62
     2
100
AcDbLine
 39
96.0
 10
37.86095
 20
8.6111
 30
0.0
 11
37.86095
 21
8.6111
 31
0.0
  0
LINE
  5
6B4
100
AcDbEntity
  8
BORDER
  6
CONTINUOUS
 62
     2
100
AcDbLine
 39
96.0
 10
38.32965
 20
8.6111
 30
0.0
 11
38.32965
 21
8.6111
 31
0.0
  0
LINE
  5
6B5
100
AcDbEntity
  8
BORDER
  6
CONTINUOUS
 62
     2
100
AcDbLine
 39
96.0
 10
37.15775
 20
8.1424
 30
0.0
 11
37.15775
 21
8.1424
 31
0.0
  0
LINE
  5
6B6
100
AcDbEntity
  8
BORDER
  6
CONTINUOUS
 62
     2
100
AcDbLine
 39
96.0
 10
37.62655
 20
8.1424
 30
0.0
 11
37.62655
 21
8.1424
 31
0.0
  0
LINE
  5
6B7
100
AcDbEntity
  8
BORDER
  6
CONTINUOUS
 62
     2
100
AcDbLine
 39
96.0
 10
38.09525
 20
8.1424
 30
0.0
 11
38.09525
 21
8.1424
 31
0.0
  0
LINE
  5
6B8
100
AcDbEntity
  8
BORDER
  6
CONTINUOUS
 62
     2
100
AcDbLine
 39
96.0
 10
38.56405
 20
8.1424
 30
0.0
 11
38.56405
 21
8.1424
 31
0.0
  0
LINE
  5
6B9
100
AcDbEntity
  8
BORDER
  6
CONTINUOUS
 62
     2
100
AcDbLine
 39
96.0
 10
36.92345
 20
7.6736
 30
0.0
 11
36.92345
 21
7.6736
 31
0.0
  0
LINE
  5
6BA
100
AcDbEntity
  8
BORDER
  6
CONTINUOUS
 62
     2
100
AcDbLine
 39
96.0
 10
37.39215
 20
7.6736
 30
0.0
 11
37.39215
 21
7.6736
 31
0.0
  0
LINE
  5
6BB
100
AcDbEntity
  8
BORDER
  6
CONTINUOUS
 62
     2
100
AcDbLine
 39
96.0
 10
37.86095
 20
7.6736
 30
0.0
 11
37.86095
 21
7.6736
 31
0.0
  0
LINE
  5
6BC
100
AcDbEntity
  8
BORDER
  6
CONTINUOUS
 62
     2
100
AcDbLine
 39
96.0
 10
38.32965
 20
7.6736
 30
0.0
 11
38.32965
 21
7.6736
 31
0.0
  0
LINE
  5
6BD
100
AcDbEntity
  8
BORDER
  6
CONTINUOUS
 62
     2
100
AcDbLine
 39
96.0
 10
37.15775
 20
7.2049
 30
0.0
 11
37.15775
 21
7.2049
 31
0.0
  0
LINE
  5
6BE
100
AcDbEntity
  8
BORDER
  6
CONTINUOUS
 62
     2
100
AcDbLine
 39
96.0
 10
37.62655
 20
7.2049
 30
0.0
 11
37.62655
 21
7.2049
 31
0.0
  0
LINE
  5
6BF
100
AcDbEntity
  8
BORDER
  6
CONTINUOUS
 62
     2
100
AcDbLine
 39
96.0
 10
38.09525
 20
7.2049
 30
0.0
 11
38.09525
 21
7.2049
 31
0.0
  0
LINE
  5
6C0
100
AcDbEntity
  8
BORDER
  6
CONTINUOUS
 62
     2
100
AcDbLine
 39
96.0
 10
38.56405
 20
7.2049
 30
0.0
 11
38.56405
 21
7.2049
 31
0.0
  0
LINE
  5
6C1
100
AcDbEntity
  8
BORDER
  6
CONTINUOUS
 62
     2
100
AcDbLine
 39
96.0
 10
36.92345
 20
6.7361
 30
0.0
 11
36.92345
 21
6.7361
 31
0.0
  0
LINE
  5
6C2
100
AcDbEntity
  8
BORDER
  6
CONTINUOUS
 62
     2
100
AcDbLine
 39
96.0
 10
37.39215
 20
6.7361
 30
0.0
 11
37.39215
 21
6.7361
 31
0.0
  0
LINE
  5
6C3
100
AcDbEntity
  8
BORDER
  6
CONTINUOUS
 62
     2
100
AcDbLine
 39
96.0
 10
37.86095
 20
6.7361
 30
0.0
 11
37.86095
 21
6.7361
 31
0.0
  0
LINE
  5
6C4
100
AcDbEntity
  8
BORDER
  6
CONTINUOUS
 62
     2
100
AcDbLine
 39
96.0
 10
38.32965
 20
6.7361
 30
0.0
 11
38.32965
 21
6.7361
 31
0.0
  0
LINE
  5
6C5
100
AcDbEntity
  8
BORDER
  6
CONTINUOUS
 62
     2
100
AcDbLine
 39
96.0
 10
37.15775
 20
6.2674
 30
0.0
 11
37.15775
 21
6.2674
 31
0.0
  0
LINE
  5
6C6
100
AcDbEntity
  8
BORDER
  6
CONTINUOUS
 62
     2
100
AcDbLine
 39
96.0
 10
37.62655
 20
6.2674
 30
0.0
 11
37.62655
 21
6.2674
 31
0.0
  0
LINE
  5
6C7
100
AcDbEntity
  8
BORDER
  6
CONTINUOUS
 62
     2
100
AcDbLine
 39
96.0
 10
38.09525
 20
6.2674
 30
0.0
 11
38.09525
 21
6.2674
 31
0.0
  0
LINE
  5
6C8
100
AcDbEntity
  8
BORDER
  6
CONTINUOUS
 62
     2
100
AcDbLine
 39
96.0
 10
38.56405
 20
6.2674
 30
0.0
 11
38.56405
 21
6.2674
 31
0.0
  0
LINE
  5
6C9
100
AcDbEntity
  8
BORDER
  6
CONTINUOUS
 62
     2
100
AcDbLine
 39
96.0
 10
36.92345
 20
5.7986
 30
0.0
 11
36.92345
 21
5.7986
 31
0.0
  0
LINE
  5
6CA
100
AcDbEntity
  8
BORDER
  6
CONTINUOUS
 62
     2
100
AcDbLine
 39
96.0
 10
37.39215
 20
5.7986
 30
0.0
 11
37.39215
 21
5.7986
 31
0.0
  0
LINE
  5
6CB
100
AcDbEntity
  8
BORDER
  6
CONTINUOUS
 62
     2
100
AcDbLine
 39
96.0
 10
37.86095
 20
5.7986
 30
0.0
 11
37.86095
 21
5.7986
 31
0.0
  0
LINE
  5
6CC
100
AcDbEntity
  8
BORDER
  6
CONTINUOUS
 62
     2
100
AcDbLine
 39
96.0
 10
38.32965
 20
5.7986
 30
0.0
 11
38.32965
 21
5.7986
 31
0.0
  0
LINE
  5
6CD
100
AcDbEntity
  8
BORDER
  6
CONTINUOUS
 62
     2
100
AcDbLine
 39
96.0
 10
37.15775
 20
5.3299
 30
0.0
 11
37.15775
 21
5.3299
 31
0.0
  0
LINE
  5
6CE
100
AcDbEntity
  8
BORDER
  6
CONTINUOUS
 62
     2
100
AcDbLine
 39
96.0
 10
37.62655
 20
5.3299
 30
0.0
 11
37.62655
 21
5.3299
 31
0.0
  0
LINE
  5
6CF
100
AcDbEntity
  8
BORDER
  6
CONTINUOUS
 62
     2
100
AcDbLine
 39
96.0
 10
38.09525
 20
5.3299
 30
0.0
 11
38.09525
 21
5.3299
 31
0.0
  0
LINE
  5
6D0
100
AcDbEntity
  8
BORDER
  6
CONTINUOUS
 62
     2
100
AcDbLine
 39
96.0
 10
38.56405
 20
5.3299
 30
0.0
 11
38.56405
 21
5.3299
 31
0.0
  0
LINE
  5
6D1
100
AcDbEntity
  8
BORDER
  6
CONTINUOUS
 62
     2
100
AcDbLine
 39
96.0
 10
36.92345
 20
4.8611
 30
0.0
 11
36.92345
 21
4.8611
 31
0.0
  0
LINE
  5
6D2
100
AcDbEntity
  8
BORDER
  6
CONTINUOUS
 62
     2
100
AcDbLine
 39
96.0
 10
37.39215
 20
4.8611
 30
0.0
 11
37.39215
 21
4.8611
 31
0.0
  0
LINE
  5
6D3
100
AcDbEntity
  8
BORDER
  6
CONTINUOUS
 62
     2
100
AcDbLine
 39
96.0
 10
37.86095
 20
4.8611
 30
0.0
 11
37.86095
 21
4.8611
 31
0.0
  0
LINE
  5
6D4
100
AcDbEntity
  8
BORDER
  6
CONTINUOUS
 62
     2
100
AcDbLine
 39
96.0
 10
38.32965
 20
4.8611
 30
0.0
 11
38.32965
 21
4.8611
 31
0.0
  0
LINE
  5
6D5
100
AcDbEntity
  8
BORDER
  6
CONTINUOUS
 62
     2
100
AcDbLine
 39
96.0
 10
37.15775
 20
4.3924
 30
0.0
 11
37.15775
 21
4.3924
 31
0.0
  0
LINE
  5
6D6
100
AcDbEntity
  8
BORDER
  6
CONTINUOUS
 62
     2
100
AcDbLine
 39
96.0
 10
37.62655
 20
4.3924
 30
0.0
 11
37.62655
 21
4.3924
 31
0.0
  0
LINE
  5
6D7
100
AcDbEntity
  8
BORDER
  6
CONTINUOUS
 62
     2
100
AcDbLine
 39
96.0
 10
38.09525
 20
4.3924
 30
0.0
 11
38.09525
 21
4.3924
 31
0.0
  0
LINE
  5
6D8
100
AcDbEntity
  8
BORDER
  6
CONTINUOUS
 62
     2
100
AcDbLine
 39
96.0
 10
38.56405
 20
4.3924
 30
0.0
 11
38.56405
 21
4.3924
 31
0.0
  0
LINE
  5
6D9
100
AcDbEntity
  8
BORDER
  6
CONTINUOUS
 62
     2
100
AcDbLine
 39
96.0
 10
36.92345
 20
3.9236
 30
0.0
 11
36.92345
 21
3.9236
 31
0.0
  0
LINE
  5
6DA
100
AcDbEntity
  8
BORDER
  6
CONTINUOUS
 62
     2
100
AcDbLine
 39
96.0
 10
37.39215
 20
3.9236
 30
0.0
 11
37.39215
 21
3.9236
 31
0.0
  0
LINE
  5
6DB
100
AcDbEntity
  8
BORDER
  6
CONTINUOUS
 62
     2
100
AcDbLine
 39
96.0
 10
37.86095
 20
3.9236
 30
0.0
 11
37.86095
 21
3.9236
 31
0.0
  0
LINE
  5
6DC
100
AcDbEntity
  8
BORDER
  6
CONTINUOUS
 62
     2
100
AcDbLine
 39
96.0
 10
38.32965
 20
3.9236
 30
0.0
 11
38.32965
 21
3.9236
 31
0.0
  0
LINE
  5
6DD
100
AcDbEntity
  8
BORDER
  6
CONTINUOUS
 62
     2
100
AcDbLine
 39
96.0
 10
37.15775
 20
3.4549
 30
0.0
 11
37.15775
 21
3.4549
 31
0.0
  0
LINE
  5
6DE
100
AcDbEntity
  8
BORDER
  6
CONTINUOUS
 62
     2
100
AcDbLine
 39
96.0
 10
37.62655
 20
3.4549
 30
0.0
 11
37.62655
 21
3.4549
 31
0.0
  0
LINE
  5
6DF
100
AcDbEntity
  8
BORDER
  6
CONTINUOUS
 62
     2
100
AcDbLine
 39
96.0
 10
38.09525
 20
3.4549
 30
0.0
 11
38.09525
 21
3.4549
 31
0.0
  0
LINE
  5
6E0
100
AcDbEntity
  8
BORDER
  6
CONTINUOUS
 62
     2
100
AcDbLine
 39
96.0
 10
38.56405
 20
3.4549
 30
0.0
 11
38.56405
 21
3.4549
 31
0.0
  0
LINE
  5
6E1
100
AcDbEntity
  8
BORDER
  6
CONTINUOUS
 62
     2
100
AcDbLine
 39
96.0
 10
36.92345
 20
2.9861
 30
0.0
 11
36.92345
 21
2.9861
 31
0.0
  0
LINE
  5
6E2
100
AcDbEntity
  8
BORDER
  6
CONTINUOUS
 62
     2
100
AcDbLine
 39
96.0
 10
37.39215
 20
2.9861
 30
0.0
 11
37.39215
 21
2.9861
 31
0.0
  0
LINE
  5
6E3
100
AcDbEntity
  8
BORDER
  6
CONTINUOUS
 62
     2
100
AcDbLine
 39
96.0
 10
37.86095
 20
2.9861
 30
0.0
 11
37.86095
 21
2.9861
 31
0.0
  0
LINE
  5
6E4
100
AcDbEntity
  8
BORDER
  6
CONTINUOUS
 62
     2
100
AcDbLine
 39
96.0
 10
38.32965
 20
2.9861
 30
0.0
 11
38.32965
 21
2.9861
 31
0.0
  0
LINE
  5
6E5
100
AcDbEntity
  8
BORDER
  6
CONTINUOUS
 62
     2
100
AcDbLine
 39
96.0
 10
37.15775
 20
2.5174
 30
0.0
 11
37.15775
 21
2.5174
 31
0.0
  0
LINE
  5
6E6
100
AcDbEntity
  8
BORDER
  6
CONTINUOUS
 62
     2
100
AcDbLine
 39
96.0
 10
37.62655
 20
2.5174
 30
0.0
 11
37.62655
 21
2.5174
 31
0.0
  0
LINE
  5
6E7
100
AcDbEntity
  8
BORDER
  6
CONTINUOUS
 62
     2
100
AcDbLine
 39
96.0
 10
38.09525
 20
2.5174
 30
0.0
 11
38.09525
 21
2.5174
 31
0.0
  0
LINE
  5
6E8
100
AcDbEntity
  8
BORDER
  6
CONTINUOUS
 62
     2
100
AcDbLine
 39
96.0
 10
38.56405
 20
2.5174
 30
0.0
 11
38.56405
 21
2.5174
 31
0.0
  0
LINE
  5
6E9
100
AcDbEntity
  8
BORDER
  6
CONTINUOUS
 62
     2
100
AcDbLine
 39
96.0
 10
36.92345
 20
2.0486
 30
0.0
 11
36.92345
 21
2.0486
 31
0.0
  0
LINE
  5
6EA
100
AcDbEntity
  8
BORDER
  6
CONTINUOUS
 62
     2
100
AcDbLine
 39
96.0
 10
37.39215
 20
2.0486
 30
0.0
 11
37.39215
 21
2.0486
 31
0.0
  0
LINE
  5
6EB
100
AcDbEntity
  8
BORDER
  6
CONTINUOUS
 62
     2
100
AcDbLine
 39
96.0
 10
37.86095
 20
2.0486
 30
0.0
 11
37.86095
 21
2.0486
 31
0.0
  0
LINE
  5
6EC
100
AcDbEntity
  8
BORDER
  6
CONTINUOUS
 62
     2
100
AcDbLine
 39
96.0
 10
38.32965
 20
2.0486
 30
0.0
 11
38.32965
 21
2.0486
 31
0.0
  0
LINE
  5
6ED
100
AcDbEntity
  8
BORDER
  6
CONTINUOUS
 62
     3
100
AcDbLine
 39
96.0
 10
28.74225
 20
9.6844
 30
0.0
 11
30.61725
 21
9.6844
 31
0.0
  0
LINE
  5
6EE
100
AcDbEntity
  8
BORDER
  6
CONTINUOUS
 62
     3
100
AcDbLine
 39
96.0
 10
36.86725
 20
9.6844
 30
0.0
 11
38.74225
 21
9.6844
 31
0.0
  0
LINE
  5
6EF
100
AcDbEntity
  8
BORDER
  6
CONTINUOUS
 62
    10
100
AcDbLine
 39
96.0
 10
34.26155
 20
7.5638
 30
0.0
 11
34.18805
 21
7.537
 31
0.0
  0
LINE
  5
6F0
100
AcDbEntity
  8
BORDER
  6
CONTINUOUS
 62
    10
100
AcDbLine
 39
96.0
 10
33.99275
 20
8.3965
 30
0.0
 11
33.94785
 21
8.3325
 31
0.0
  0
LINE
  5
6F1
100
AcDbEntity
  8
BORDER
  6
CONTINUOUS
 62
    10
100
AcDbLine
 39
96.0
 10
32.84745
 20
7.4237
 30
0.0
 11
32.83385
 21
7.3468
 31
0.0
  0
LINE
  5
6F2
100
AcDbEntity
  8
BORDER
  6
CONTINUOUS
 62
    15
100
AcDbLine
 39
96.0
 10
39.87535
 20
1.6537
 30
0.0
 11
35.44565
 21
1.6537
 31
0.0
  0
LINE
  5
6F3
100
AcDbEntity
  8
BORDER
  6
CONTINUOUS
 62
    15
100
AcDbLine
 39
96.0
 10
32.01985
 20
1.6537
 30
0.0
 11
27.59015
 21
1.6537
 31
0.0
  0
LINE
  5
6F4
100
AcDbEntity
  8
BORDER
  6
CONTINUOUS
 62
    15
100
AcDbLine
 39
96.0
 10
32.01985
 20
1.6537
 30
0.0
 11
32.84675
 21
3.3075
 31
0.0
  0
LINE
  5
6F5
100
AcDbEntity
  8
BORDER
  6
CONTINUOUS
 62
    15
100
AcDbLine
 39
96.0
 10
32.84675
 20
3.3075
 30
0.0
 11
34.79575
 21
0.0
 31
0.0
  0
LINE
  5
6F6
100
AcDbEntity
  8
BORDER
  6
CONTINUOUS
 62
    15
100
AcDbLine
 39
96.0
 10
34.79575
 20
0.0
 30
0.0
 11
35.44565
 21
1.6537
 31
0.0
  0
LINE
  5
6F7
100
AcDbEntity
  8
BORDER
  6
CONTINUOUS
 62
     1
100
AcDbLine
 39
96.0
 10
38.80985
 20
38.4796
 30
0.0
 11
38.74835
 21
38.4904
 31
0.0
  0
LINE
  5
6F8
100
AcDbEntity
  8
BORDER
  6
CONTINUOUS
 62
    10
100
AcDbLine
 39
96.0
 10
36.17655
 20
38.5736
 30
0.0
 11
36.25345
 21
38.56
 31
0.0
  0
CIRCLE
  5
6F9
100
AcDbEntity
  8
BORDER
  6
CONTINUOUS
 62
    15
100
AcDbCircle
 39
96.0
 10
33.099113
 20
38.296916
 30
0.0
 40
0.375
  0
CIRCLE
  5
6FA
100
AcDbEntity
  8
BORDER
  6
CONTINUOUS
 62
    15
100
AcDbCircle
 39
96.0
 10
34.20495
 20
22.6782
 30
0.0
 40
0.375
  0
CIRCLE
  5
6FB
100
AcDbEntity
  8
BORDER
  6
CONTINUOUS
 62
    15
100
AcDbCircle
 39
96.0
 10
34.20495
 20
7.6782
 30
0.0
 40
0.375
  0
LINE
  5
6FC
100
AcDbEntity
  8
BORDER
  6
CONTINUOUS
 62
     2
100
AcDbLine
 39
96.0
 10
37.15775
 20
31.5798
 30
0.0
 11
37.15775
 21
31.5798
 31
0.0
  0
LINE
  5
6FD
100
AcDbEntity
  8
BORDER
  6
CONTINUOUS
 62
     2
100
AcDbLine
 39
96.0
 10
37.62655
 20
31.5798
 30
0.0
 11
37.62655
 21
31.5798
 31
0.0
  0
LINE
  5
6FE
100
AcDbEntity
  8
BORDER
  6
CONTINUOUS
 62
     2
100
AcDbLine
 39
96.0
 10
38.09525
 20
31.5798
 30
0.0
 11
38.09525
 21
31.5798
 31
0.0
  0
LINE
  5
6FF
100
AcDbEntity
  8
BORDER
  6
CONTINUOUS
 62
     2
100
AcDbLine
 39
96.0
 10
38.56405
 20
31.5798
 30
0.0
 11
38.56405
 21
31.5798
 31
0.0
  0
LINE
  5
700
100
AcDbEntity
  8
BORDER
  6
CONTINUOUS
 62
     1
100
AcDbLine
 39
96.0
 10
36.37455
 20
37.1335
 30
0.0
 11
36.32335
 21
37.1693
 31
0.0
  0
LINE
  5
701
100
AcDbEntity
  8
BORDER
  6
CONTINUOUS
 62
     2
100
AcDbLine
 39
96.0
 10
37.80155
 20
36.0871
 30
0.0
 11
37.80155
 21
36.0871
 31
0.0
  0
LINE
  5
702
100
AcDbEntity
  8
BORDER
  6
CONTINUOUS
 62
     2
100
AcDbLine
 39
96.0
 10
38.27035
 20
35.3839
 30
0.0
 11
38.27035
 21
35.3839
 31
0.0
  0
LINE
  5
703
100
AcDbEntity
  8
BORDER
  6
CONTINUOUS
 62
     2
100
AcDbLine
 39
96.0
 10
38.27035
 20
35.8527
 30
0.0
 11
38.27035
 21
35.8527
 31
0.0
  0
LINE
  5
704
100
AcDbEntity
  8
BORDER
  6
CONTINUOUS
 62
     2
100
AcDbLine
 39
96.0
 10
38.73905
 20
34.6808
 30
0.0
 11
38.73905
 21
34.6808
 31
0.0
  0
LINE
  5
705
100
AcDbEntity
  8
BORDER
  6
CONTINUOUS
 62
     2
100
AcDbLine
 39
96.0
 10
38.73905
 20
35.1496
 30
0.0
 11
38.73905
 21
35.1496
 31
0.0
  0
LINE
  5
706
100
AcDbEntity
  8
BORDER
  6
CONTINUOUS
 62
     2
100
AcDbLine
 39
96.0
 10
38.73905
 20
35.6183
 30
0.0
 11
38.73905
 21
35.6183
 31
0.0
  0
LINE
  5
707
100
AcDbEntity
  8
BORDER
  6
CONTINUOUS
 62
     2
100
AcDbLine
 39
96.0
 10
38.73905
 20
36.0871
 30
0.0
 11
38.73905
 21
36.0871
 31
0.0
  0
LINE
  5
708
100
AcDbEntity
  8
BORDER
  6
CONTINUOUS
 62
     2
100
AcDbLine
 39
96.0
 10
37.15775
 20
32.5173
 30
0.0
 11
37.15775
 21
32.5173
 31
0.0
  0
LINE
  5
709
100
AcDbEntity
  8
BORDER
  6
CONTINUOUS
 62
     2
100
AcDbLine
 39
96.0
 10
37.62655
 20
32.5173
 30
0.0
 11
37.62655
 21
32.5173
 31
0.0
  0
LINE
  5
70A
100
AcDbEntity
  8
BORDER
  6
CONTINUOUS
 62
     2
100
AcDbLine
 39
96.0
 10
38.09525
 20
32.5173
 30
0.0
 11
38.09525
 21
32.5173
 31
0.0
  0
LINE
  5
70B
100
AcDbEntity
  8
BORDER
  6
CONTINUOUS
 62
     2
100
AcDbLine
 39
96.0
 10
38.56405
 20
32.5173
 30
0.0
 11
38.56405
 21
32.5173
 31
0.0
  0
LINE
  5
70C
100
AcDbEntity
  8
BORDER
  6
CONTINUOUS
 62
     2
100
AcDbLine
 39
96.0
 10
37.39215
 20
32.0486
 30
0.0
 11
37.39215
 21
32.0486
 31
0.0
  0
LINE
  5
70D
100
AcDbEntity
  8
BORDER
  6
CONTINUOUS
 62
     2
100
AcDbLine
 39
96.0
 10
37.86095
 20
32.0486
 30
0.0
 11
37.86095
 21
32.0486
 31
0.0
  0
LINE
  5
70E
100
AcDbEntity
  8
BORDER
  6
CONTINUOUS
 62
     2
100
AcDbLine
 39
96.0
 10
38.32965
 20
32.0486
 30
0.0
 11
38.32965
 21
32.0486
 31
0.0
  0
LINE
  5
70F
100
AcDbEntity
  8
BORDER
  6
CONTINUOUS
 62
     2
100
AcDbLine
 39
96.0
 10
37.15775
 20
33.4548
 30
0.0
 11
37.15775
 21
33.4548
 31
0.0
  0
LINE
  5
710
100
AcDbEntity
  8
BORDER
  6
CONTINUOUS
 62
     2
100
AcDbLine
 39
96.0
 10
37.62655
 20
33.4548
 30
0.0
 11
37.62655
 21
33.4548
 31
0.0
  0
LINE
  5
711
100
AcDbEntity
  8
BORDER
  6
CONTINUOUS
 62
     2
100
AcDbLine
 39
96.0
 10
38.09525
 20
33.4548
 30
0.0
 11
38.09525
 21
33.4548
 31
0.0
  0
LINE
  5
712
100
AcDbEntity
  8
BORDER
  6
CONTINUOUS
 62
     2
100
AcDbLine
 39
96.0
 10
38.56405
 20
33.4548
 30
0.0
 11
38.56405
 21
33.4548
 31
0.0
  0
LINE
  5
713
100
AcDbEntity
  8
BORDER
  6
CONTINUOUS
 62
     2
100
AcDbLine
 39
96.0
 10
37.39215
 20
32.9861
 30
0.0
 11
37.39215
 21
32.9861
 31
0.0
  0
LINE
  5
714
100
AcDbEntity
  8
BORDER
  6
CONTINUOUS
 62
     2
100
AcDbLine
 39
96.0
 10
37.86095
 20
32.9861
 30
0.0
 11
37.86095
 21
32.9861
 31
0.0
  0
LINE
  5
715
100
AcDbEntity
  8
BORDER
  6
CONTINUOUS
 62
     2
100
AcDbLine
 39
96.0
 10
38.32965
 20
32.9861
 30
0.0
 11
38.32965
 21
32.9861
 31
0.0
  0
LINE
  5
716
100
AcDbEntity
  8
BORDER
  6
CONTINUOUS
 62
     2
100
AcDbLine
 39
96.0
 10
37.15775
 20
34.3923
 30
0.0
 11
37.15775
 21
34.3923
 31
0.0
  0
LINE
  5
717
100
AcDbEntity
  8
BORDER
  6
CONTINUOUS
 62
     2
100
AcDbLine
 39
96.0
 10
37.62655
 20
34.3923
 30
0.0
 11
37.62655
 21
34.3923
 31
0.0
  0
LINE
  5
718
100
AcDbEntity
  8
BORDER
  6
CONTINUOUS
 62
     2
100
AcDbLine
 39
96.0
 10
38.09525
 20
34.3923
 30
0.0
 11
38.09525
 21
34.3923
 31
0.0
  0
LINE
  5
719
100
AcDbEntity
  8
BORDER
  6
CONTINUOUS
 62
     2
100
AcDbLine
 39
96.0
 10
38.56405
 20
34.3923
 30
0.0
 11
38.56405
 21
34.3923
 31
0.0
  0
LINE
  5
71A
100
AcDbEntity
  8
BORDER
  6
CONTINUOUS
 62
     2
100
AcDbLine
 39
96.0
 10
37.39215
 20
33.9236
 30
0.0
 11
37.39215
 21
33.9236
 31
0.0
  0
LINE
  5
71B
100
AcDbEntity
  8
BORDER
  6
CONTINUOUS
 62
     2
100
AcDbLine
 39
96.0
 10
37.86095
 20
33.9236
 30
0.0
 11
37.86095
 21
33.9236
 31
0.0
  0
LINE
  5
71C
100
AcDbEntity
  8
BORDER
  6
CONTINUOUS
 62
     2
100
AcDbLine
 39
96.0
 10
38.32965
 20
33.9236
 30
0.0
 11
38.32965
 21
33.9236
 31
0.0
  0
LINE
  5
71D
100
AcDbEntity
  8
BORDER
  6
CONTINUOUS
 62
     2
100
AcDbLine
 39
96.0
 10
37.15775
 20
35.3298
 30
0.0
 11
37.15775
 21
35.3298
 31
0.0
  0
LINE
  5
71E
100
AcDbEntity
  8
BORDER
  6
CONTINUOUS
 62
     2
100
AcDbLine
 39
96.0
 10
37.62655
 20
35.3298
 30
0.0
 11
37.62655
 21
35.3298
 31
0.0
  0
LINE
  5
71F
100
AcDbEntity
  8
BORDER
  6
CONTINUOUS
 62
     2
100
AcDbLine
 39
96.0
 10
37.39215
 20
34.8611
 30
0.0
 11
37.39215
 21
34.8611
 31
0.0
  0
LINE
  5
720
100
AcDbEntity
  8
BORDER
  6
CONTINUOUS
 62
     2
100
AcDbLine
 39
96.0
 10
37.86095
 20
34.8611
 30
0.0
 11
37.86095
 21
34.8611
 31
0.0
  0
LINE
  5
721
100
AcDbEntity
  8
BORDER
  6
CONTINUOUS
 62
     2
100
AcDbLine
 39
96.0
 10
38.32965
 20
34.8611
 30
0.0
 11
38.32965
 21
34.8611
 31
0.0
  0
LINE
  5
722
100
AcDbEntity
  8
BORDER
  6
CONTINUOUS
 62
     1
100
AcDbLine
 39
96.0
 10
32.64505
 20
36.3739
 30
0.0
 11
32.70395
 21
36.3952
 31
0.0
  0
LINE
  5
723
100
AcDbEntity
  8
BORDER
  6
CONTINUOUS
 62
     1
100
AcDbLine
 39
96.0
 10
31.15075
 20
33.1695
 30
0.0
 11
31.20955
 21
33.1909
 31
0.0
  0
LINE
  5
724
100
AcDbEntity
  8
BORDER
  6
CONTINUOUS
 62
     1
100
AcDbLine
 39
96.0
 10
33.50005
 20
34.0246
 30
0.0
 11
33.55895
 21
34.0459
 31
0.0
  0
LINE
  5
725
100
AcDbEntity
  8
BORDER
  6
CONTINUOUS
 62
     1
100
AcDbLine
 39
96.0
 10
34.35505
 20
31.6753
 30
0.0
 11
34.41385
 21
31.6967
 31
0.0
  0
LINE
  5
726
100
AcDbEntity
  8
BORDER
  6
CONTINUOUS
 62
     1
100
AcDbLine
 39
96.0
 10
31.40735
 20
37.2257
 30
0.0
 11
31.44315
 21
37.2769
 31
0.0
  0
LINE
  5
727
100
AcDbEntity
  8
BORDER
  6
CONTINUOUS
 62
     1
100
AcDbLine
 39
96.0
 10
32.02135
 20
33.7439
 30
0.0
 11
32.05725
 21
33.795
 31
0.0
  0
LINE
  5
728
100
AcDbEntity
  8
BORDER
  6
CONTINUOUS
 62
     1
100
AcDbLine
 39
96.0
 10
33.45545
 20
35.7917
 30
0.0
 11
33.49125
 21
35.8429
 31
0.0
  0
LINE
  5
729
100
AcDbEntity
  8
BORDER
  6
CONTINUOUS
 62
     1
100
AcDbLine
 39
96.0
 10
34.06915
 20
32.31
 30
0.0
 11
34.10505
 21
32.3612
 31
0.0
  0
LINE
  5
72A
100
AcDbEntity
  8
BORDER
  6
CONTINUOUS
 62
     1
100
AcDbLine
 39
96.0
 10
32.31945
 20
32.3282
 30
0.0
 11
32.33015
 21
32.3897
 31
0.0
  0
LINE
  5
72B
100
AcDbEntity
  8
BORDER
  6
CONTINUOUS
 62
     1
100
AcDbLine
 39
96.0
 10
32.75345
 20
34.7903
 30
0.0
 11
32.76425
 21
34.8518
 31
0.0
  0
LINE
  5
72C
100
AcDbEntity
  8
BORDER
  6
CONTINUOUS
 62
     1
100
AcDbLine
 39
96.0
 10
34.78105
 20
31.8941
 30
0.0
 11
34.79185
 21
31.9557
 31
0.0
  0
LINE
  5
72D
100
AcDbEntity
  8
BORDER
  6
CONTINUOUS
 62
    10
100
AcDbLine
 39
96.0
 10
34.26155
 20
37.5638
 30
0.0
 11
34.18805
 21
37.5371
 31
0.0
  0
LINE
  5
72E
100
AcDbEntity
  8
BORDER
  6
CONTINUOUS
 62
    10
100
AcDbLine
 39
96.0
 10
33.99275
 20
38.3965
 30
0.0
 11
33.94785
 21
38.3325
 31
0.0
  0
LINE
  5
72F
100
AcDbEntity
  8
BORDER
  6
CONTINUOUS
 62
    10
100
AcDbLine
 39
96.0
 10
32.84745
 20
37.4237
 30
0.0
 11
32.83385
 21
37.3468
 31
0.0
  0
LINE
  5
730
100
AcDbEntity
  8
BORDER
  6
CONTINUOUS
 62
     1
100
AcDbLine
 39
96.0
 10
30.72565
 20
37.6864
 30
0.0
 11
30.73645
 21
37.7479
 31
0.0
  0
LINE
  5
731
100
AcDbEntity
  8
BORDER
  6
CONTINUOUS
 62
     2
100
AcDbLine
 39
96.0
 10
28.95465
 20
39.5486
 30
0.0
 11
28.95465
 21
39.5486
 31
0.0
  0
LINE
  5
732
100
AcDbEntity
  8
BORDER
  6
CONTINUOUS
 62
     2
100
AcDbLine
 39
96.0
 10
29.42345
 20
39.5486
 30
0.0
 11
29.42345
 21
39.5486
 31
0.0
  0
LINE
  5
733
100
AcDbEntity
  8
BORDER
  6
CONTINUOUS
 62
     2
100
AcDbLine
 39
96.0
 10
29.89215
 20
39.5486
 30
0.0
 11
29.89215
 21
39.5486
 31
0.0
  0
LINE
  5
734
100
AcDbEntity
  8
BORDER
  6
CONTINUOUS
 62
     2
100
AcDbLine
 39
96.0
 10
30.36095
 20
39.5486
 30
0.0
 11
30.36095
 21
39.5486
 31
0.0
  0
LINE
  5
735
100
AcDbEntity
  8
BORDER
  6
CONTINUOUS
 62
     2
100
AcDbLine
 39
96.0
 10
29.18905
 20
39.0798
 30
0.0
 11
29.18905
 21
39.0798
 31
0.0
  0
LINE
  5
736
100
AcDbEntity
  8
BORDER
  6
CONTINUOUS
 62
     2
100
AcDbLine
 39
96.0
 10
29.65775
 20
39.0798
 30
0.0
 11
29.65775
 21
39.0798
 31
0.0
  0
LINE
  5
737
100
AcDbEntity
  8
BORDER
  6
CONTINUOUS
 62
     2
100
AcDbLine
 39
96.0
 10
30.12655
 20
39.0798
 30
0.0
 11
30.12655
 21
39.0798
 31
0.0
  0
LINE
  5
738
100
AcDbEntity
  8
BORDER
  6
CONTINUOUS
 62
     2
100
AcDbLine
 39
96.0
 10
30.59525
 20
39.0798
 30
0.0
 11
30.59525
 21
39.0798
 31
0.0
  0
LINE
  5
739
100
AcDbEntity
  8
BORDER
  6
CONTINUOUS
 62
     2
100
AcDbLine
 39
96.0
 10
28.95465
 20
38.6111
 30
0.0
 11
28.95465
 21
38.6111
 31
0.0
  0
LINE
  5
73A
100
AcDbEntity
  8
BORDER
  6
CONTINUOUS
 62
     2
100
AcDbLine
 39
96.0
 10
29.42345
 20
38.6111
 30
0.0
 11
29.42345
 21
38.6111
 31
0.0
  0
LINE
  5
73B
100
AcDbEntity
  8
BORDER
  6
CONTINUOUS
 62
     2
100
AcDbLine
 39
96.0
 10
29.89215
 20
38.6111
 30
0.0
 11
29.89215
 21
38.6111
 31
0.0
  0
LINE
  5
73C
100
AcDbEntity
  8
BORDER
  6
CONTINUOUS
 62
     2
100
AcDbLine
 39
96.0
 10
30.36095
 20
38.6111
 30
0.0
 11
30.36095
 21
38.6111
 31
0.0
  0
LINE
  5
73D
100
AcDbEntity
  8
BORDER
  6
CONTINUOUS
 62
     2
100
AcDbLine
 39
96.0
 10
29.18905
 20
38.1423
 30
0.0
 11
29.18905
 21
38.1423
 31
0.0
  0
LINE
  5
73E
100
AcDbEntity
  8
BORDER
  6
CONTINUOUS
 62
     2
100
AcDbLine
 39
96.0
 10
29.65775
 20
38.1423
 30
0.0
 11
29.65775
 21
38.1423
 31
0.0
  0
LINE
  5
73F
100
AcDbEntity
  8
BORDER
  6
CONTINUOUS
 62
     2
100
AcDbLine
 39
96.0
 10
30.12655
 20
38.1423
 30
0.0
 11
30.12655
 21
38.1423
 31
0.0
  0
LINE
  5
740
100
AcDbEntity
  8
BORDER
  6
CONTINUOUS
 62
     2
100
AcDbLine
 39
96.0
 10
30.59525
 20
38.1423
 30
0.0
 11
30.59525
 21
38.1423
 31
0.0
  0
LINE
  5
741
100
AcDbEntity
  8
BORDER
  6
CONTINUOUS
 62
     2
100
AcDbLine
 39
96.0
 10
28.95465
 20
37.6736
 30
0.0
 11
28.95465
 21
37.6736
 31
0.0
  0
LINE
  5
742
100
AcDbEntity
  8
BORDER
  6
CONTINUOUS
 62
     2
100
AcDbLine
 39
96.0
 10
29.42345
 20
37.6736
 30
0.0
 11
29.42345
 21
37.6736
 31
0.0
  0
LINE
  5
743
100
AcDbEntity
  8
BORDER
  6
CONTINUOUS
 62
     2
100
AcDbLine
 39
96.0
 10
29.89215
 20
37.6736
 30
0.0
 11
29.89215
 21
37.6736
 31
0.0
  0
LINE
  5
744
100
AcDbEntity
  8
BORDER
  6
CONTINUOUS
 62
     2
100
AcDbLine
 39
96.0
 10
30.36095
 20
37.6736
 30
0.0
 11
30.36095
 21
37.6736
 31
0.0
  0
LINE
  5
745
100
AcDbEntity
  8
BORDER
  6
CONTINUOUS
 62
     2
100
AcDbLine
 39
96.0
 10
29.18905
 20
37.2048
 30
0.0
 11
29.18905
 21
37.2048
 31
0.0
  0
LINE
  5
746
100
AcDbEntity
  8
BORDER
  6
CONTINUOUS
 62
     2
100
AcDbLine
 39
96.0
 10
29.65775
 20
37.2048
 30
0.0
 11
29.65775
 21
37.2048
 31
0.0
  0
LINE
  5
747
100
AcDbEntity
  8
BORDER
  6
CONTINUOUS
 62
     2
100
AcDbLine
 39
96.0
 10
30.12655
 20
37.2048
 30
0.0
 11
30.12655
 21
37.2048
 31
0.0
  0
LINE
  5
748
100
AcDbEntity
  8
BORDER
  6
CONTINUOUS
 62
     2
100
AcDbLine
 39
96.0
 10
30.59525
 20
37.2048
 30
0.0
 11
30.59525
 21
37.2048
 31
0.0
  0
LINE
  5
749
100
AcDbEntity
  8
BORDER
  6
CONTINUOUS
 62
     2
100
AcDbLine
 39
96.0
 10
28.95465
 20
36.7361
 30
0.0
 11
28.95465
 21
36.7361
 31
0.0
  0
LINE
  5
74A
100
AcDbEntity
  8
BORDER
  6
CONTINUOUS
 62
     2
100
AcDbLine
 39
96.0
 10
29.42345
 20
36.7361
 30
0.0
 11
29.42345
 21
36.7361
 31
0.0
  0
LINE
  5
74B
100
AcDbEntity
  8
BORDER
  6
CONTINUOUS
 62
     2
100
AcDbLine
 39
96.0
 10
29.89215
 20
36.7361
 30
0.0
 11
29.89215
 21
36.7361
 31
0.0
  0
LINE
  5
74C
100
AcDbEntity
  8
BORDER
  6
CONTINUOUS
 62
     2
100
AcDbLine
 39
96.0
 10
30.36095
 20
36.7361
 30
0.0
 11
30.36095
 21
36.7361
 31
0.0
  0
LINE
  5
74D
100
AcDbEntity
  8
BORDER
  6
CONTINUOUS
 62
     2
100
AcDbLine
 39
96.0
 10
29.18905
 20
36.2673
 30
0.0
 11
29.18905
 21
36.2673
 31
0.0
  0
LINE
  5
74E
100
AcDbEntity
  8
BORDER
  6
CONTINUOUS
 62
     2
100
AcDbLine
 39
96.0
 10
29.65775
 20
36.2673
 30
0.0
 11
29.65775
 21
36.2673
 31
0.0
  0
LINE
  5
74F
100
AcDbEntity
  8
BORDER
  6
CONTINUOUS
 62
     2
100
AcDbLine
 39
96.0
 10
30.12655
 20
36.2673
 30
0.0
 11
30.12655
 21
36.2673
 31
0.0
  0
LINE
  5
750
100
AcDbEntity
  8
BORDER
  6
CONTINUOUS
 62
     2
100
AcDbLine
 39
96.0
 10
30.59525
 20
36.2673
 30
0.0
 11
30.59525
 21
36.2673
 31
0.0
  0
LINE
  5
751
100
AcDbEntity
  8
BORDER
  6
CONTINUOUS
 62
     2
100
AcDbLine
 39
96.0
 10
28.95465
 20
35.7986
 30
0.0
 11
28.95465
 21
35.7986
 31
0.0
  0
LINE
  5
752
100
AcDbEntity
  8
BORDER
  6
CONTINUOUS
 62
     2
100
AcDbLine
 39
96.0
 10
29.42345
 20
35.7986
 30
0.0
 11
29.42345
 21
35.7986
 31
0.0
  0
LINE
  5
753
100
AcDbEntity
  8
BORDER
  6
CONTINUOUS
 62
     2
100
AcDbLine
 39
96.0
 10
29.89215
 20
35.7986
 30
0.0
 11
29.89215
 21
35.7986
 31
0.0
  0
LINE
  5
754
100
AcDbEntity
  8
BORDER
  6
CONTINUOUS
 62
     2
100
AcDbLine
 39
96.0
 10
30.36095
 20
35.7986
 30
0.0
 11
30.36095
 21
35.7986
 31
0.0
  0
LINE
  5
755
100
AcDbEntity
  8
BORDER
  6
CONTINUOUS
 62
     2
100
AcDbLine
 39
96.0
 10
29.18905
 20
35.3298
 30
0.0
 11
29.18905
 21
35.3298
 31
0.0
  0
LINE
  5
756
100
AcDbEntity
  8
BORDER
  6
CONTINUOUS
 62
     2
100
AcDbLine
 39
96.0
 10
29.65775
 20
35.3298
 30
0.0
 11
29.65775
 21
35.3298
 31
0.0
  0
LINE
  5
757
100
AcDbEntity
  8
BORDER
  6
CONTINUOUS
 62
     2
100
AcDbLine
 39
96.0
 10
30.12655
 20
35.3298
 30
0.0
 11
30.12655
 21
35.3298
 31
0.0
  0
LINE
  5
758
100
AcDbEntity
  8
BORDER
  6
CONTINUOUS
 62
     2
100
AcDbLine
 39
96.0
 10
30.59525
 20
35.3298
 30
0.0
 11
30.59525
 21
35.3298
 31
0.0
  0
LINE
  5
759
100
AcDbEntity
  8
BORDER
  6
CONTINUOUS
 62
     2
100
AcDbLine
 39
96.0
 10
28.95465
 20
34.8611
 30
0.0
 11
28.95465
 21
34.8611
 31
0.0
  0
LINE
  5
75A
100
AcDbEntity
  8
BORDER
  6
CONTINUOUS
 62
     2
100
AcDbLine
 39
96.0
 10
29.42345
 20
34.8611
 30
0.0
 11
29.42345
 21
34.8611
 31
0.0
  0
LINE
  5
75B
100
AcDbEntity
  8
BORDER
  6
CONTINUOUS
 62
     2
100
AcDbLine
 39
96.0
 10
29.89215
 20
34.8611
 30
0.0
 11
29.89215
 21
34.8611
 31
0.0
  0
LINE
  5
75C
100
AcDbEntity
  8
BORDER
  6
CONTINUOUS
 62
     2
100
AcDbLine
 39
96.0
 10
30.36095
 20
34.8611
 30
0.0
 11
30.36095
 21
34.8611
 31
0.0
  0
LINE
  5
75D
100
AcDbEntity
  8
BORDER
  6
CONTINUOUS
 62
     2
100
AcDbLine
 39
96.0
 10
29.18905
 20
34.3923
 30
0.0
 11
29.18905
 21
34.3923
 31
0.0
  0
LINE
  5
75E
100
AcDbEntity
  8
BORDER
  6
CONTINUOUS
 62
     2
100
AcDbLine
 39
96.0
 10
29.65775
 20
34.3923
 30
0.0
 11
29.65775
 21
34.3923
 31
0.0
  0
LINE
  5
75F
100
AcDbEntity
  8
BORDER
  6
CONTINUOUS
 62
     2
100
AcDbLine
 39
96.0
 10
30.12655
 20
34.3923
 30
0.0
 11
30.12655
 21
34.3923
 31
0.0
  0
LINE
  5
760
100
AcDbEntity
  8
BORDER
  6
CONTINUOUS
 62
     2
100
AcDbLine
 39
96.0
 10
30.59525
 20
34.3923
 30
0.0
 11
30.59525
 21
34.3923
 31
0.0
  0
LINE
  5
761
100
AcDbEntity
  8
BORDER
  6
CONTINUOUS
 62
     2
100
AcDbLine
 39
96.0
 10
28.95465
 20
33.9236
 30
0.0
 11
28.95465
 21
33.9236
 31
0.0
  0
LINE
  5
762
100
AcDbEntity
  8
BORDER
  6
CONTINUOUS
 62
     2
100
AcDbLine
 39
96.0
 10
29.42345
 20
33.9236
 30
0.0
 11
29.42345
 21
33.9236
 31
0.0
  0
LINE
  5
763
100
AcDbEntity
  8
BORDER
  6
CONTINUOUS
 62
     2
100
AcDbLine
 39
96.0
 10
29.89215
 20
33.9236
 30
0.0
 11
29.89215
 21
33.9236
 31
0.0
  0
LINE
  5
764
100
AcDbEntity
  8
BORDER
  6
CONTINUOUS
 62
     2
100
AcDbLine
 39
96.0
 10
30.36095
 20
33.9236
 30
0.0
 11
30.36095
 21
33.9236
 31
0.0
  0
LINE
  5
765
100
AcDbEntity
  8
BORDER
  6
CONTINUOUS
 62
     2
100
AcDbLine
 39
96.0
 10
29.18905
 20
33.4548
 30
0.0
 11
29.18905
 21
33.4548
 31
0.0
  0
LINE
  5
766
100
AcDbEntity
  8
BORDER
  6
CONTINUOUS
 62
     2
100
AcDbLine
 39
96.0
 10
29.65775
 20
33.4548
 30
0.0
 11
29.65775
 21
33.4548
 31
0.0
  0
LINE
  5
767
100
AcDbEntity
  8
BORDER
  6
CONTINUOUS
 62
     2
100
AcDbLine
 39
96.0
 10
30.12655
 20
33.4548
 30
0.0
 11
30.12655
 21
33.4548
 31
0.0
  0
LINE
  5
768
100
AcDbEntity
  8
BORDER
  6
CONTINUOUS
 62
     2
100
AcDbLine
 39
96.0
 10
30.59525
 20
33.4548
 30
0.0
 11
30.59525
 21
33.4548
 31
0.0
  0
LINE
  5
769
100
AcDbEntity
  8
BORDER
  6
CONTINUOUS
 62
     2
100
AcDbLine
 39
96.0
 10
28.95465
 20
32.9861
 30
0.0
 11
28.95465
 21
32.9861
 31
0.0
  0
LINE
  5
76A
100
AcDbEntity
  8
BORDER
  6
CONTINUOUS
 62
     2
100
AcDbLine
 39
96.0
 10
29.42345
 20
32.9861
 30
0.0
 11
29.42345
 21
32.9861
 31
0.0
  0
LINE
  5
76B
100
AcDbEntity
  8
BORDER
  6
CONTINUOUS
 62
     2
100
AcDbLine
 39
96.0
 10
29.89215
 20
32.9861
 30
0.0
 11
29.89215
 21
32.9861
 31
0.0
  0
LINE
  5
76C
100
AcDbEntity
  8
BORDER
  6
CONTINUOUS
 62
     2
100
AcDbLine
 39
96.0
 10
30.36095
 20
32.9861
 30
0.0
 11
30.36095
 21
32.9861
 31
0.0
  0
LINE
  5
76D
100
AcDbEntity
  8
BORDER
  6
CONTINUOUS
 62
     2
100
AcDbLine
 39
96.0
 10
29.18905
 20
32.5173
 30
0.0
 11
29.18905
 21
32.5173
 31
0.0
  0
LINE
  5
76E
100
AcDbEntity
  8
BORDER
  6
CONTINUOUS
 62
     2
100
AcDbLine
 39
96.0
 10
29.65775
 20
32.5173
 30
0.0
 11
29.65775
 21
32.5173
 31
0.0
  0
LINE
  5
76F
100
AcDbEntity
  8
BORDER
  6
CONTINUOUS
 62
     2
100
AcDbLine
 39
96.0
 10
30.12655
 20
32.5173
 30
0.0
 11
30.12655
 21
32.5173
 31
0.0
  0
LINE
  5
770
100
AcDbEntity
  8
BORDER
  6
CONTINUOUS
 62
     2
100
AcDbLine
 39
96.0
 10
30.59525
 20
32.5173
 30
0.0
 11
30.59525
 21
32.5173
 31
0.0
  0
LINE
  5
771
100
AcDbEntity
  8
BORDER
  6
CONTINUOUS
 62
     2
100
AcDbLine
 39
96.0
 10
28.95465
 20
32.0486
 30
0.0
 11
28.95465
 21
32.0486
 31
0.0
  0
LINE
  5
772
100
AcDbEntity
  8
BORDER
  6
CONTINUOUS
 62
     2
100
AcDbLine
 39
96.0
 10
29.42345
 20
32.0486
 30
0.0
 11
29.42345
 21
32.0486
 31
0.0
  0
LINE
  5
773
100
AcDbEntity
  8
BORDER
  6
CONTINUOUS
 62
     2
100
AcDbLine
 39
96.0
 10
29.89215
 20
32.0486
 30
0.0
 11
29.89215
 21
32.0486
 31
0.0
  0
LINE
  5
774
100
AcDbEntity
  8
BORDER
  6
CONTINUOUS
 62
     2
100
AcDbLine
 39
96.0
 10
30.36095
 20
32.0486
 30
0.0
 11
30.36095
 21
32.0486
 31
0.0
  0
LINE
  5
775
100
AcDbEntity
  8
BORDER
  6
CONTINUOUS
 62
     2
100
AcDbLine
 39
96.0
 10
29.18905
 20
31.5798
 30
0.0
 11
29.18905
 21
31.5798
 31
0.0
  0
LINE
  5
776
100
AcDbEntity
  8
BORDER
  6
CONTINUOUS
 62
     2
100
AcDbLine
 39
96.0
 10
29.65775
 20
31.5798
 30
0.0
 11
29.65775
 21
31.5798
 31
0.0
  0
LINE
  5
777
100
AcDbEntity
  8
BORDER
  6
CONTINUOUS
 62
     2
100
AcDbLine
 39
96.0
 10
30.12655
 20
31.5798
 30
0.0
 11
30.12655
 21
31.5798
 31
0.0
  0
LINE
  5
778
100
AcDbEntity
  8
BORDER
  6
CONTINUOUS
 62
     2
100
AcDbLine
 39
96.0
 10
30.59525
 20
31.5798
 30
0.0
 11
30.59525
 21
31.5798
 31
0.0
  0
ARC
  5
779
100
AcDbEntity
  8
BORDER
  6
CONTINUOUS
 62
     3
100
AcDbCircle
 39
96.0
 10
33.74225
 20
39.5681
 30
0.0
 40
3.0
100
AcDbArc
 50
180.0
 51
0.0
  0
LINE
  5
77A
100
AcDbEntity
  8
BORDER
  6
CONTINUOUS
 62
     3
100
AcDbLine
 39
96.0
 10
28.74225
 20
39.571708
 30
0.0
 11
28.74225
 21
24.6844
 31
0.0
  0
LINE
  5
77B
100
AcDbEntity
  8
BORDER
  6
CONTINUOUS
 62
     3
100
AcDbLine
 39
96.0
 10
30.61725
 20
39.571708
 30
0.0
 11
30.61725
 21
24.6844
 31
0.0
  0
LINE
  5
77C
100
AcDbEntity
  8
BORDER
  6
CONTINUOUS
 62
    15
100
AcDbLine
 39
96.0
 10
34.526648
 20
1.8272
 30
0.0
 11
34.526648
 21
39.161285
 31
0.0
  0
LINE
  5
77D
100
AcDbEntity
  8
BORDER
  6
CONTINUOUS
 62
     3
100
AcDbLine
 39
96.0
 10
36.86725
 20
24.6844
 30
0.0
 11
36.86725
 21
39.571708
 31
0.0
  0
LINE
  5
77E
100
AcDbEntity
  8
BORDER
  6
CONTINUOUS
 62
     3
100
AcDbLine
 39
96.0
 10
38.74225
 20
24.5457
 30
0.0
 11
38.742852
 21
39.571708
 31
0.0
  0
LEADER
  5
77F
100
AcDbEntity
  8
0
  6
CONTINUOUS
 62
    13
100
AcDbLeader
  3
STANDARD
 76
     3
 10
31.780221
 20
41.071708
 30
0.0
 10
36.357298
 20
53.708927
 30
0.0
 10
39.236449
 20
53.708927
 30
0.0
 77
   256
1001
ACAD
1000
DSTYLE
1002
{
1070
    78
1070
     1
1070
   140
1040
6.0
1070
    73
1070
     0
1070
    77
1070
     1
1070
    40
1040
12.0
1070
    42
1040
6.0
1070
    44
1040
0.0
1070
    43
1040
24.0
1070
   176
1070
    13
1070
   141
1040
3.0
1070
    41
1040
0.125
1002
}
  0
LEADER
  5
780
100
AcDbEntity
  8
0
  6
CONTINUOUS
 62
    13
100
AcDbLeader
  3
STANDARD
 76
     3
 10
33.857528
 20
42.041676
 30
0.0
 10
36.781716
 20
46.920353
 30
0.0
 10
39.660867
 20
46.920353
 30
0.0
 77
   256
1001
ACAD
1000
DSTYLE
1002
{
1070
    78
1070
     1
1070
   140
1040
6.0
1070
    73
1070
     0
1070
    77
1070
     1
1070
    40
1040
12.0
1070
    42
1040
6.0
1070
    44
1040
0.0
1070
    43
1040
24.0
1070
   176
1070
    13
1070
   141
1040
3.0
1070
    41
1040
0.125
1002
}
  0
LEADER
  5
781
100
AcDbEntity
  8
0
  6
CONTINUOUS
 62
    13
100
AcDbLeader
  3
STANDARD
 76
     3
 10
34.534474
 20
15.005894
 30
0.0
 10
23.932446
 20
19.798207
 30
0.0
 10
21.053295
 20
19.798207
 30
0.0
 77
   256
211
-1.0
221
0.0
231
0.0
1001
ACAD
1000
DSTYLE
1002
{
1070
    78
1070
     1
1070
   140
1040
6.0
1070
    73
1070
     0
1070
    77
1070
     1
1070
    40
1040
12.0
1070
    42
1040
6.0
1070
    44
1040
0.0
1070
    43
1040
24.0
1070
   176
1070
    13
1070
   141
1040
3.0
1070
    41
1040
0.125
1002
}
  0
TEXT
  5
782
100
AcDbEntity
  8
0
  6
CONTINUOUS
100
AcDbText
 10
2.719176
 20
17.369151
 30
0.0
 40
1.125
  1
(MIN #4 @ 30" O.C.
  7
ROMANS
100
AcDbText
  0
TEXT
  5
783
100
AcDbEntity
  8
0
  6
CONTINUOUS
100
AcDbText
 10
0.255528
 20
15.295769
 30
0.0
 40
1.125
  1
REQUIRED, PER DESIGN)
  7
ROMANS
100
AcDbText
  0
TEXT
  5
784
100
AcDbEntity
  8
0
  6
CONTINUOUS
100
AcDbText
 10
-0.214286
 20
27.143937
 30
0.0
 40
1.125
  1
REQUIRED, PER DESIGN)
  7
ROMANS
100
AcDbText
  0
TEXT
  5
785
100
AcDbEntity
  8
0
  6
CONTINUOUS
100
AcDbText
 10
2.249363
 20
29.217318
 30
0.0
 40
1.125
  1
(MIN #4 @ 30" O.C.
  7
ROMANS
100
AcDbText
  0
TEXT
  5
786
100
AcDbEntity
  8
0
  6
CONTINUOUS
100
AcDbText
 10
8.785976
 20
31.276512
 30
0.0
 40
1.125
  1
HORIZ. REINF. 
  7
ROMANS
100
AcDbText
  0
TEXT
  5
787
100
AcDbEntity
  8
0
  6
CONTINUOUS
100
AcDbText
 10
10.001139
 20
19.428344
 30
0.0
 40
1.125
  1
VERT. REINF. 
  7
ROMANS
100
AcDbText
  0
LEADER
  5
788
100
AcDbEntity
  8
0
  6
CONTINUOUS
 62
    13
100
AcDbLeader
  3
STANDARD
 76
     3
 10
33.099113
 20
38.296916
 30
0.0
 10
23.462633
 20
31.646375
 30
0.0
 10
20.583481
 20
31.646375
 30
0.0
 77
   256
211
-1.0
221
0.0
231
0.0
1001
ACAD
1000
DSTYLE
1002
{
1070
    78
1070
     1
1070
   140
1040
6.0
1070
    73
1070
     0
1070
    77
1070
     1
1070
    40
1040
12.0
1070
    42
1040
6.0
1070
    44
1040
0.0
1070
    43
1040
24.0
1070
   176
1070
    13
1070
   141
1040
3.0
1070
    41
1040
0.125
1002
}
  0
TEXT
  5
789
100
AcDbEntity
  8
0
  6
CONTINUOUS
100
AcDbText
 10
39.437476
 20
53.371568
 30
0.0
 40
1.125
  1
2 X 6 PL. WITH ANCHOR BOLTS
  7
ROMANS
100
AcDbText
  0
TEXT
  5
78A
100
AcDbEntity
  8
0
  6
CONTINUOUS
100
AcDbText
 10
39.437476
 20
51.580298
 30
0.0
 40
1.125
  1
(MIN.-1/2"%%C A.B. @ 45" O.C.)
  7
ROMANS
100
AcDbText
  0
TEXT
  5
78B
100
AcDbEntity
  8
0
  6
CONTINUOUS
100
AcDbText
 10
39.845956
 20
44.67549
 30
0.0
 40
1.125
  1
PLACED IN VERTICAL CELL
  7
ROMANS
100
AcDbText
  0
TEXT
  5
78C
100
AcDbEntity
  8
0
  6
CONTINUOUS
100
AcDbText
 10
46.132839
 20
35.776718
 30
0.0
 40
1.125
  1
RASTA WALL
  7
ROMANS
100
AcDbText
  0
LEADER
  5
78D
100
AcDbEntity
  8
0
  6
CONTINUOUS
 62
    13
100
AcDbLeader
  3
STANDARD
 76
     3
 10
38.491523
 20
30.220995
 30
0.0
 10
43.0686
 20
36.146581
 30
0.0
 10
45.947751
 20
36.146581
 30
0.0
 77
   256
1001
ACAD
1000
DSTYLE
1002
{
1070
    78
1070
     1
1070
   140
1040
6.0
1070
    73
1070
     0
1070
    77
1070
     1
1070
    40
1040
12.0
1070
    42
1040
6.0
1070
    44
1040
0.0
1070
    43
1040
24.0
1070
   176
1070
    13
1070
   141
1040
3.0
1070
    41
1040
0.125
1002
}
  0
TEXT
  5
78E
100
AcDbEntity
  8
0
  6
CONTINUOUS
100
AcDbText
 10
39.845956
 20
46.55049
 30
0.0
 40
1.125
  1
ANCHOR BOLT SHALL BE
  7
ROMANS
100
AcDbText
  0
ENDBLK
  5
790
100
AcDbEntity
  8
0
100
AcDbBlockEnd
  0
BLOCK
  5
AD7
100
AcDbEntity
  8
0
100
AcDbBlockBegin
  2
_CLOSEDBLANK
 70
     0
 10
0.0
 20
0.0
 30
0.0
  3
_CLOSEDBLANK
  1

  0
LINE
  5
AD8
100
AcDbEntity
  8
0
  6
BYBLOCK
 62
     0
100
AcDbLine
 10
-1.0
 20
0.166667
 30
0.0
 11
0.0
 21
0.0
 31
0.0
  0
LINE
  5
AD9
100
AcDbEntity
  8
0
  6
BYBLOCK
 62
     0
100
AcDbLine
 10
0.0
 20
0.0
 30
0.0
 11
-1.0
 21
-0.166667
 31
0.0
  0
LINE
  5
ADA
100
AcDbEntity
  8
0
  6
BYBLOCK
 62
     0
100
AcDbLine
 10
-1.0
 20
0.166667
 30
0.0
 11
-1.0
 21
-0.166667
 31
0.0
  0
ENDBLK
  5
ADB
100
AcDbEntity
  8
0
100
AcDbBlockEnd
  0
ENDSEC
  0
SECTION
  2
ENTITIES
  0
TEXT
  5
366
100
AcDbEntity
  8
DRAWING
100
AcDbText
 10
9.051697
 20
10.086431
 30
0.0
 40
2.5
  1
PLACEMENT OF ANCHOR BOLT
  7
TITLE
 72
     1
 11
39.289792
 21
10.086431
 31
0.0
100
AcDbText
  0
TEXT
  5
440
100
AcDbEntity
  8
DRAWING
100
AcDbText
 10
23.337411
 20
5.086431
 30
0.0
 40
2.5
  1
FOR TOP PLATE
  7
TITLE
 72
     1
 11
39.289792
 21
5.086431
 31
0.0
100
AcDbText
  0
LINE
  5
793
100
AcDbEntity
  8
0
  6
CONTINUOUS
100
AcDbLine
 39
96.0
 10
43.076232
 20
67.332061
 30
0.0
 11
43.076232
 21
65.832061
 31
0.0
  0
LINE
  5
794
100
AcDbEntity
  8
0
  6
CONTINUOUS
100
AcDbLine
 39
96.0
 10
36.826232
 20
65.832061
 30
0.0
 11
43.076232
 21
67.332061
 31
0.0
  0
LINE
  5
795
100
AcDbEntity
  8
0
  6
CONTINUOUS
100
AcDbLine
 39
96.0
 10
36.826232
 20
67.332061
 30
0.0
 11
36.826232
 21
65.832061
 31
0.0
  0
LINE
  5
796
100
AcDbEntity
  8
0
  6
CONTINUOUS
 62
     1
100
AcDbLine
 39
96.0
 10
38.729598
 20
59.926357
 30
0.0
 11
38.718855
 21
59.987942
 31
0.0
  0
LINE
  5
797
100
AcDbEntity
  8
0
  6
CONTINUOUS
 62
     1
100
AcDbLine
 39
96.0
 10
38.441511
 20
59.928005
 30
0.0
 11
38.405623
 21
59.979275
 31
0.0
  0
LINE
  5
798
100
AcDbEntity
  8
0
  6
CONTINUOUS
 62
     1
100
AcDbLine
 39
96.0
 10
40.444686
 20
59.594754
 30
0.0
 11
40.385848
 21
59.616116
 31
0.0
  0
LINE
  5
799
100
AcDbEntity
  8
0
  6
CONTINUOUS
 62
     1
100
AcDbLine
 39
90.0
 10
39.822858
 20
58.42654
 30
0.0
 11
39.789167
 21
58.474514
 31
0.0
  0
LINE
  5
79A
100
AcDbEntity
  8
0
  6
CONTINUOUS
 62
     1
100
AcDbLine
 39
90.0
 10
40.137067
 20
59.770779
 30
0.0
 11
40.103133
 21
59.818753
 31
0.0
  0
LINE
  5
79B
100
AcDbEntity
  8
0
  6
CONTINUOUS
 62
     7
100
AcDbLine
 39
89.99775
 10
39.714948
 20
58.789456
 30
0.0
 11
38.525983
 21
58.789456
 31
0.0
  0
LINE
  5
79C
100
AcDbEntity
  8
0
  6
CONTINUOUS
 62
     7
100
AcDbLine
 39
89.99775
 10
38.525983
 20
59.492581
 30
0.0
 11
38.525983
 21
58.789456
 31
0.0
  0
LINE
  5
79D
100
AcDbEntity
  8
0
  6
CONTINUOUS
 62
     7
100
AcDbLine
 39
89.99775
 10
39.363386
 20
59.492581
 30
0.0
 11
38.525983
 21
59.492581
 31
0.0
  0
ARC
  5
79E
100
AcDbEntity
  8
0
  6
CONTINUOUS
 62
     7
100
AcDbCircle
 39
89.99775
 10
39.363386
 20
59.844143
 30
0.0
 40
0.351554
100
AcDbArc
 50
270.0
 51
0.0
  0
ARC
  5
79F
100
AcDbEntity
  8
0
  6
CONTINUOUS
 62
     7
100
AcDbCircle
 39
89.99775
 10
39.714948
 20
59.492581
 30
0.0
 40
0.703108
100
AcDbArc
 50
270.0
 51
0.0
  0
LINE
  5
7A0
100
AcDbEntity
  8
0
  6
CONTINUOUS
 62
     7
100
AcDbLine
 39
89.99775
 10
40.418073
 20
67.332061
 30
0.0
 11
40.418073
 21
59.492581
 31
0.0
  0
LINE
  5
7A1
100
AcDbEntity
  8
0
  6
CONTINUOUS
 62
     7
100
AcDbLine
 39
89.99775
 10
39.714948
 20
67.332061
 30
0.0
 11
39.714948
 21
59.844143
 31
0.0
  0
LINE
  5
7A2
100
AcDbEntity
  8
0
  6
CONTINUOUS
 62
     1
100
AcDbLine
 39
96.0
 10
39.495711
 20
67.815458
 30
0.0
 11
39.494245
 21
67.325711
 31
0.0
  0
LINE
  5
7A3
100
AcDbEntity
  8
0
  6
CONTINUOUS
 62
     1
100
AcDbLine
 39
67.498313
 10
40.637802
 20
67.815458
 30
0.0
 11
39.495711
 21
67.815458
 31
0.0
  0
LINE
  5
7A4
100
AcDbEntity
  8
0
  6
CONTINUOUS
 62
     1
100
AcDbLine
 39
67.498313
 10
40.418073
 20
68.30203
 30
0.0
 11
40.418073
 21
67.815458
 31
0.0
  0
LINE
  5
7A5
100
AcDbEntity
  8
0
  6
CONTINUOUS
 62
     1
100
AcDbLine
 39
67.498313
 10
39.714948
 20
68.30203
 30
0.0
 11
40.418073
 21
68.30203
 31
0.0
  0
LINE
  5
7A6
100
AcDbEntity
  8
0
  6
CONTINUOUS
 62
     1
100
AcDbLine
 39
67.498313
 10
39.714948
 20
67.815458
 30
0.0
 11
39.714948
 21
68.30203
 31
0.0
  0
LINE
  5
7A7
100
AcDbEntity
  8
0
  6
CONTINUOUS
 62
     1
100
AcDbLine
 39
67.498313
 10
39.734236
 20
67.685086
 30
0.0
 11
39.635358
 21
67.815458
 31
0.0
  0
LINE
  5
7A8
100
AcDbEntity
  8
0
  6
CONTINUOUS
 62
     1
100
AcDbLine
 39
67.498313
 10
39.734236
 20
67.685086
 30
0.0
 11
39.833358
 21
67.815458
 31
0.0
  0
LINE
  5
7A9
100
AcDbEntity
  8
0
  6
CONTINUOUS
 62
     1
100
AcDbLine
 39
67.498313
 10
40.408795
 20
67.685086
 30
0.0
 11
40.30992
 21
67.815458
 31
0.0
  0
LINE
  5
7AA
100
AcDbEntity
  8
0
  6
CONTINUOUS
 62
     1
100
AcDbLine
 39
67.498313
 10
40.408795
 20
67.685086
 30
0.0
 11
40.508652
 21
67.815458
 31
0.0
  0
LINE
  5
7AB
100
AcDbEntity
  8
0
  6
CONTINUOUS
 62
     1
100
AcDbLine
 39
67.498313
 10
39.734236
 20
67.332061
 30
0.0
 11
39.734236
 21
67.685086
 31
0.0
  0
LINE
  5
7AC
100
AcDbEntity
  8
0
  6
CONTINUOUS
 62
     1
100
AcDbLine
 39
67.498313
 10
40.408795
 20
67.332061
 30
0.0
 11
40.408795
 21
67.685086
 31
0.0
  0
LINE
  5
7AD
100
AcDbEntity
  8
0
  6
CONTINUOUS
 62
     1
100
AcDbLine
 39
67.498313
 10
40.637802
 20
67.332061
 30
0.0
 11
40.637802
 21
67.815458
 31
0.0
  0
LINE
  5
7AE
100
AcDbEntity
  8
0
  6
CONTINUOUS
100
AcDbLine
 39
96.0
 10
36.826232
 20
67.332061
 30
0.0
 11
43.076232
 21
65.832061
 31
0.0
  0
LINE
  5
7AF
100
AcDbEntity
  8
0
  6
CONTINUOUS
100
AcDbLine
 39
96.0
 10
43.076232
 20
67.332061
 30
0.0
 11
36.826232
 21
65.832061
 31
0.0
  0
LINE
  5
7B0
100
AcDbEntity
  8
0
  6
CONTINUOUS
100
AcDbLine
 39
96.0
 10
36.826232
 20
67.332061
 30
0.0
 11
43.076232
 21
67.332061
 31
0.0
  0
LINE
  5
7B1
100
AcDbEntity
  8
BORDER
  6
CONTINUOUS
 62
     2
100
AcDbLine
 39
96.0
 10
44.538632
 20
65.411954
 30
0.0
 11
44.538632
 21
65.411954
 31
0.0
  0
LINE
  5
7B2
100
AcDbEntity
  8
BORDER
  6
CONTINUOUS
 62
     2
100
AcDbLine
 39
96.0
 10
44.069932
 20
65.411954
 30
0.0
 11
44.069932
 21
65.411954
 31
0.0
  0
LINE
  5
7B3
100
AcDbEntity
  8
BORDER
  6
CONTINUOUS
 62
     2
100
AcDbLine
 39
96.0
 10
43.601132
 20
65.411954
 30
0.0
 11
43.601132
 21
65.411954
 31
0.0
  0
LINE
  5
7B4
100
AcDbEntity
  8
BORDER
  6
CONTINUOUS
 62
     2
100
AcDbLine
 39
96.0
 10
44.538632
 20
64.474454
 30
0.0
 11
44.538632
 21
64.474454
 31
0.0
  0
LINE
  5
7B5
100
AcDbEntity
  8
BORDER
  6
CONTINUOUS
 62
     2
100
AcDbLine
 39
96.0
 10
44.069932
 20
64.474454
 30
0.0
 11
44.069932
 21
64.474454
 31
0.0
  0
LINE
  5
7B6
100
AcDbEntity
  8
BORDER
  6
CONTINUOUS
 62
     2
100
AcDbLine
 39
96.0
 10
43.601132
 20
64.474454
 30
0.0
 11
43.601132
 21
64.474454
 31
0.0
  0
LINE
  5
7B7
100
AcDbEntity
  8
BORDER
  6
CONTINUOUS
 62
     2
100
AcDbLine
 39
96.0
 10
44.773032
 20
64.943154
 30
0.0
 11
44.773032
 21
64.943154
 31
0.0
  0
LINE
  5
7B8
100
AcDbEntity
  8
BORDER
  6
CONTINUOUS
 62
     2
100
AcDbLine
 39
96.0
 10
44.304232
 20
64.943154
 30
0.0
 11
44.304232
 21
64.943154
 31
0.0
  0
LINE
  5
7B9
100
AcDbEntity
  8
BORDER
  6
CONTINUOUS
 62
     2
100
AcDbLine
 39
96.0
 10
43.835532
 20
64.943154
 30
0.0
 11
43.835532
 21
64.943154
 31
0.0
  0
LINE
  5
7BA
100
AcDbEntity
  8
BORDER
  6
CONTINUOUS
 62
     2
100
AcDbLine
 39
96.0
 10
43.366732
 20
64.943154
 30
0.0
 11
43.366732
 21
64.943154
 31
0.0
  0
LINE
  5
7BB
100
AcDbEntity
  8
BORDER
  6
CONTINUOUS
 62
     2
100
AcDbLine
 39
96.0
 10
44.538632
 20
63.536954
 30
0.0
 11
44.538632
 21
63.536954
 31
0.0
  0
LINE
  5
7BC
100
AcDbEntity
  8
BORDER
  6
CONTINUOUS
 62
     2
100
AcDbLine
 39
96.0
 10
44.069932
 20
63.536954
 30
0.0
 11
44.069932
 21
63.536954
 31
0.0
  0
LINE
  5
7BD
100
AcDbEntity
  8
BORDER
  6
CONTINUOUS
 62
     2
100
AcDbLine
 39
96.0
 10
43.601132
 20
63.536954
 30
0.0
 11
43.601132
 21
63.536954
 31
0.0
  0
LINE
  5
7BE
100
AcDbEntity
  8
BORDER
  6
CONTINUOUS
 62
     2
100
AcDbLine
 39
96.0
 10
44.773032
 20
64.005654
 30
0.0
 11
44.773032
 21
64.005654
 31
0.0
  0
LINE
  5
7BF
100
AcDbEntity
  8
BORDER
  6
CONTINUOUS
 62
     2
100
AcDbLine
 39
96.0
 10
44.304232
 20
64.005654
 30
0.0
 11
44.304232
 21
64.005654
 31
0.0
  0
LINE
  5
7C0
100
AcDbEntity
  8
BORDER
  6
CONTINUOUS
 62
     2
100
AcDbLine
 39
96.0
 10
43.835532
 20
64.005654
 30
0.0
 11
43.835532
 21
64.005654
 31
0.0
  0
LINE
  5
7C1
100
AcDbEntity
  8
BORDER
  6
CONTINUOUS
 62
     2
100
AcDbLine
 39
96.0
 10
43.366732
 20
64.005654
 30
0.0
 11
43.366732
 21
64.005654
 31
0.0
  0
LINE
  5
7C2
100
AcDbEntity
  8
BORDER
  6
CONTINUOUS
 62
     2
100
AcDbLine
 39
96.0
 10
44.538632
 20
62.599454
 30
0.0
 11
44.538632
 21
62.599454
 31
0.0
  0
LINE
  5
7C3
100
AcDbEntity
  8
BORDER
  6
CONTINUOUS
 62
     2
100
AcDbLine
 39
96.0
 10
44.069932
 20
62.599454
 30
0.0
 11
44.069932
 21
62.599454
 31
0.0
  0
LINE
  5
7C4
100
AcDbEntity
  8
BORDER
  6
CONTINUOUS
 62
     2
100
AcDbLine
 39
96.0
 10
43.601132
 20
62.599454
 30
0.0
 11
43.601132
 21
62.599454
 31
0.0
  0
LINE
  5
7C5
100
AcDbEntity
  8
BORDER
  6
CONTINUOUS
 62
     2
100
AcDbLine
 39
96.0
 10
44.773032
 20
63.068154
 30
0.0
 11
44.773032
 21
63.068154
 31
0.0
  0
LINE
  5
7C6
100
AcDbEntity
  8
BORDER
  6
CONTINUOUS
 62
     2
100
AcDbLine
 39
96.0
 10
44.304232
 20
63.068154
 30
0.0
 11
44.304232
 21
63.068154
 31
0.0
  0
LINE
  5
7C7
100
AcDbEntity
  8
BORDER
  6
CONTINUOUS
 62
     2
100
AcDbLine
 39
96.0
 10
43.835532
 20
63.068154
 30
0.0
 11
43.835532
 21
63.068154
 31
0.0
  0
LINE
  5
7C8
100
AcDbEntity
  8
BORDER
  6
CONTINUOUS
 62
     2
100
AcDbLine
 39
96.0
 10
43.366732
 20
63.068154
 30
0.0
 11
43.366732
 21
63.068154
 31
0.0
  0
LINE
  5
7C9
100
AcDbEntity
  8
BORDER
  6
CONTINUOUS
 62
     2
100
AcDbLine
 39
96.0
 10
44.948032
 20
65.700454
 30
0.0
 11
44.948032
 21
65.700454
 31
0.0
  0
LINE
  5
7CA
100
AcDbEntity
  8
BORDER
  6
CONTINUOUS
 62
     2
100
AcDbLine
 39
96.0
 10
44.948032
 20
65.231654
 30
0.0
 11
44.948032
 21
65.231654
 31
0.0
  0
LINE
  5
7CB
100
AcDbEntity
  8
BORDER
  6
CONTINUOUS
 62
     3
100
AcDbLine
 39
96.0
 10
34.951232
 20
65.832061
 30
0.0
 11
44.951834
 21
65.832061
 31
0.0
  0
LINE
  5
7CC
100
AcDbEntity
  8
BORDER
  6
CONTINUOUS
 62
     3
100
AcDbLine
 39
96.0
 10
44.951232
 20
50.944754
 30
0.0
 11
43.076232
 21
50.944754
 31
0.0
  0
LINE
  5
7CD
100
AcDbEntity
  8
BORDER
  6
CONTINUOUS
 62
     3
100
AcDbLine
 39
96.0
 10
36.826232
 20
50.944754
 30
0.0
 11
34.951232
 21
50.944754
 31
0.0
  0
LINE
  5
7CE
100
AcDbEntity
  8
BORDER
  6
CONTINUOUS
 62
     3
100
AcDbLine
 39
96.0
 10
34.951232
 20
50.944754
 30
0.0
 11
36.826232
 21
50.944754
 31
0.0
  0
ARC
  5
7CF
100
AcDbEntity
  8
BORDER
  6
CONTINUOUS
 62
     3
100
AcDbCircle
 39
96.0
 10
39.951232
 20
50.944754
 30
0.0
 40
3.0
100
AcDbArc
 50
0.0
 51
180.0
  0
LINE
  5
7D0
100
AcDbEntity
  8
BORDER
  6
CONTINUOUS
 62
     3
100
AcDbLine
 39
96.0
 10
43.076232
 20
50.944754
 30
0.0
 11
44.951232
 21
50.944754
 31
0.0
  0
LINE
  5
7D1
100
AcDbEntity
  8
BORDER
  6
CONTINUOUS
 62
     1
100
AcDbLine
 39
96.0
 10
38.214632
 20
57.080654
 30
0.0
 11
38.273532
 21
57.101954
 31
0.0
  0
LINE
  5
7D2
100
AcDbEntity
  8
BORDER
  6
CONTINUOUS
 62
     1
100
AcDbLine
 39
96.0
 10
39.069632
 20
54.731354
 30
0.0
 11
39.128532
 21
54.752754
 31
0.0
  0
LINE
  5
7D3
100
AcDbEntity
  8
BORDER
  6
CONTINUOUS
 62
     1
100
AcDbLine
 39
96.0
 10
41.419032
 20
55.586454
 30
0.0
 11
41.477832
 21
55.607854
 31
0.0
  0
LINE
  5
7D4
100
AcDbEntity
  8
BORDER
  6
CONTINUOUS
 62
     1
100
AcDbLine
 39
96.0
 10
42.273732
 20
53.237254
 30
0.0
 11
42.332632
 21
53.258654
 31
0.0
  0
LINE
  5
7D5
100
AcDbEntity
  8
BORDER
  6
CONTINUOUS
 62
     1
100
AcDbLine
 39
96.0
 10
37.410032
 20
54.474554
 30
0.0
 11
37.445832
 21
54.525754
 31
0.0
  0
LINE
  5
7D6
100
AcDbEntity
  8
BORDER
  6
CONTINUOUS
 62
     1
100
AcDbLine
 39
96.0
 10
38.844032
 20
56.522454
 30
0.0
 11
38.879932
 21
56.573654
 31
0.0
  0
LINE
  5
7D7
100
AcDbEntity
  8
BORDER
  6
CONTINUOUS
 62
     1
100
AcDbLine
 39
96.0
 10
40.891932
 20
55.088554
 30
0.0
 11
40.927832
 21
55.139754
 31
0.0
  0
LINE
  5
7D8
100
AcDbEntity
  8
BORDER
  6
CONTINUOUS
 62
     1
100
AcDbLine
 39
96.0
 10
42.326032
 20
57.136454
 30
0.0
 11
42.361932
 21
57.187554
 31
0.0
  0
LINE
  5
7D9
100
AcDbEntity
  8
BORDER
  6
CONTINUOUS
 62
     1
100
AcDbLine
 39
96.0
 10
42.939532
 20
53.654754
 30
0.0
 11
42.975432
 21
53.705954
 31
0.0
  0
LINE
  5
7DA
100
AcDbEntity
  8
BORDER
  6
CONTINUOUS
 62
     1
100
AcDbLine
 39
96.0
 10
37.660232
 20
53.664454
 30
0.0
 11
37.670932
 21
53.726054
 31
0.0
  0
LINE
  5
7DB
100
AcDbEntity
  8
BORDER
  6
CONTINUOUS
 62
     1
100
AcDbLine
 39
96.0
 10
38.094332
 20
56.126554
 30
0.0
 11
38.105032
 21
56.188054
 31
0.0
  0
LINE
  5
7DC
100
AcDbEntity
  8
BORDER
  6
CONTINUOUS
 62
     1
100
AcDbLine
 39
96.0
 10
40.556032
 20
55.692454
 30
0.0
 11
40.566732
 21
55.753954
 31
0.0
  0
LINE
  5
7DD
100
AcDbEntity
  8
BORDER
  6
CONTINUOUS
 62
     1
100
AcDbLine
 39
96.0
 10
42.583832
 20
52.796354
 30
0.0
 11
42.594532
 21
52.857854
 31
0.0
  0
LINE
  5
7DE
100
AcDbEntity
  8
BORDER
  6
CONTINUOUS
 62
     1
100
AcDbLine
 39
96.0
 10
43.017932
 20
55.258354
 30
0.0
 11
43.028632
 21
55.319854
 31
0.0
  0
LINE
  5
7DF
100
AcDbEntity
  8
BORDER
  6
CONTINUOUS
 62
     2
100
AcDbLine
 39
96.0
 10
35.163632
 20
57.371454
 30
0.0
 11
35.163632
 21
57.371454
 31
0.0
  0
LINE
  5
7E0
100
AcDbEntity
  8
BORDER
  6
CONTINUOUS
 62
     2
100
AcDbLine
 39
96.0
 10
35.632432
 20
57.371454
 30
0.0
 11
35.632432
 21
57.371454
 31
0.0
  0
LINE
  5
7E1
100
AcDbEntity
  8
BORDER
  6
CONTINUOUS
 62
     2
100
AcDbLine
 39
96.0
 10
36.101132
 20
57.371454
 30
0.0
 11
36.101132
 21
57.371454
 31
0.0
  0
LINE
  5
7E2
100
AcDbEntity
  8
BORDER
  6
CONTINUOUS
 62
     2
100
AcDbLine
 39
96.0
 10
36.569932
 20
57.371454
 30
0.0
 11
36.569932
 21
57.371454
 31
0.0
  0
LINE
  5
7E3
100
AcDbEntity
  8
BORDER
  6
CONTINUOUS
 62
     2
100
AcDbLine
 39
96.0
 10
35.398032
 20
56.902654
 30
0.0
 11
35.398032
 21
56.902654
 31
0.0
  0
LINE
  5
7E4
100
AcDbEntity
  8
BORDER
  6
CONTINUOUS
 62
     2
100
AcDbLine
 39
96.0
 10
35.866732
 20
56.902654
 30
0.0
 11
35.866732
 21
56.902654
 31
0.0
  0
LINE
  5
7E5
100
AcDbEntity
  8
BORDER
  6
CONTINUOUS
 62
     2
100
AcDbLine
 39
96.0
 10
36.335532
 20
56.902654
 30
0.0
 11
36.335532
 21
56.902654
 31
0.0
  0
LINE
  5
7E6
100
AcDbEntity
  8
BORDER
  6
CONTINUOUS
 62
     2
100
AcDbLine
 39
96.0
 10
36.804232
 20
56.902654
 30
0.0
 11
36.804232
 21
56.902654
 31
0.0
  0
LINE
  5
7E7
100
AcDbEntity
  8
BORDER
  6
CONTINUOUS
 62
     2
100
AcDbLine
 39
96.0
 10
35.163632
 20
56.433954
 30
0.0
 11
35.163632
 21
56.433954
 31
0.0
  0
LINE
  5
7E8
100
AcDbEntity
  8
BORDER
  6
CONTINUOUS
 62
     2
100
AcDbLine
 39
96.0
 10
35.632432
 20
56.433954
 30
0.0
 11
35.632432
 21
56.433954
 31
0.0
  0
LINE
  5
7E9
100
AcDbEntity
  8
BORDER
  6
CONTINUOUS
 62
     2
100
AcDbLine
 39
96.0
 10
36.101132
 20
56.433954
 30
0.0
 11
36.101132
 21
56.433954
 31
0.0
  0
LINE
  5
7EA
100
AcDbEntity
  8
BORDER
  6
CONTINUOUS
 62
     2
100
AcDbLine
 39
96.0
 10
36.569932
 20
56.433954
 30
0.0
 11
36.569932
 21
56.433954
 31
0.0
  0
LINE
  5
7EB
100
AcDbEntity
  8
BORDER
  6
CONTINUOUS
 62
     2
100
AcDbLine
 39
96.0
 10
35.398032
 20
55.965154
 30
0.0
 11
35.398032
 21
55.965154
 31
0.0
  0
LINE
  5
7EC
100
AcDbEntity
  8
BORDER
  6
CONTINUOUS
 62
     2
100
AcDbLine
 39
96.0
 10
35.866732
 20
55.965154
 30
0.0
 11
35.866732
 21
55.965154
 31
0.0
  0
LINE
  5
7ED
100
AcDbEntity
  8
BORDER
  6
CONTINUOUS
 62
     2
100
AcDbLine
 39
96.0
 10
36.335532
 20
55.965154
 30
0.0
 11
36.335532
 21
55.965154
 31
0.0
  0
LINE
  5
7EE
100
AcDbEntity
  8
BORDER
  6
CONTINUOUS
 62
     2
100
AcDbLine
 39
96.0
 10
36.804232
 20
55.965154
 30
0.0
 11
36.804232
 21
55.965154
 31
0.0
  0
LINE
  5
7EF
100
AcDbEntity
  8
BORDER
  6
CONTINUOUS
 62
     2
100
AcDbLine
 39
96.0
 10
35.163632
 20
55.496454
 30
0.0
 11
35.163632
 21
55.496454
 31
0.0
  0
LINE
  5
7F0
100
AcDbEntity
  8
BORDER
  6
CONTINUOUS
 62
     2
100
AcDbLine
 39
96.0
 10
35.632432
 20
55.496454
 30
0.0
 11
35.632432
 21
55.496454
 31
0.0
  0
LINE
  5
7F1
100
AcDbEntity
  8
BORDER
  6
CONTINUOUS
 62
     2
100
AcDbLine
 39
96.0
 10
36.101132
 20
55.496454
 30
0.0
 11
36.101132
 21
55.496454
 31
0.0
  0
LINE
  5
7F2
100
AcDbEntity
  8
BORDER
  6
CONTINUOUS
 62
     2
100
AcDbLine
 39
96.0
 10
36.569932
 20
55.496454
 30
0.0
 11
36.569932
 21
55.496454
 31
0.0
  0
LINE
  5
7F3
100
AcDbEntity
  8
BORDER
  6
CONTINUOUS
 62
     2
100
AcDbLine
 39
96.0
 10
35.398032
 20
55.027654
 30
0.0
 11
35.398032
 21
55.027654
 31
0.0
  0
LINE
  5
7F4
100
AcDbEntity
  8
BORDER
  6
CONTINUOUS
 62
     2
100
AcDbLine
 39
96.0
 10
35.866732
 20
55.027654
 30
0.0
 11
35.866732
 21
55.027654
 31
0.0
  0
LINE
  5
7F5
100
AcDbEntity
  8
BORDER
  6
CONTINUOUS
 62
     2
100
AcDbLine
 39
96.0
 10
36.335532
 20
55.027654
 30
0.0
 11
36.335532
 21
55.027654
 31
0.0
  0
LINE
  5
7F6
100
AcDbEntity
  8
BORDER
  6
CONTINUOUS
 62
     2
100
AcDbLine
 39
96.0
 10
36.804232
 20
55.027654
 30
0.0
 11
36.804232
 21
55.027654
 31
0.0
  0
LINE
  5
7F7
100
AcDbEntity
  8
BORDER
  6
CONTINUOUS
 62
     2
100
AcDbLine
 39
96.0
 10
35.163632
 20
54.558954
 30
0.0
 11
35.163632
 21
54.558954
 31
0.0
  0
LINE
  5
7F8
100
AcDbEntity
  8
BORDER
  6
CONTINUOUS
 62
     2
100
AcDbLine
 39
96.0
 10
35.632432
 20
54.558954
 30
0.0
 11
35.632432
 21
54.558954
 31
0.0
  0
LINE
  5
7F9
100
AcDbEntity
  8
BORDER
  6
CONTINUOUS
 62
     2
100
AcDbLine
 39
96.0
 10
36.101132
 20
54.558954
 30
0.0
 11
36.101132
 21
54.558954
 31
0.0
  0
LINE
  5
7FA
100
AcDbEntity
  8
BORDER
  6
CONTINUOUS
 62
     2
100
AcDbLine
 39
96.0
 10
36.569932
 20
54.558954
 30
0.0
 11
36.569932
 21
54.558954
 31
0.0
  0
LINE
  5
7FB
100
AcDbEntity
  8
BORDER
  6
CONTINUOUS
 62
     2
100
AcDbLine
 39
96.0
 10
35.398032
 20
54.090154
 30
0.0
 11
35.398032
 21
54.090154
 31
0.0
  0
LINE
  5
7FC
100
AcDbEntity
  8
BORDER
  6
CONTINUOUS
 62
     2
100
AcDbLine
 39
96.0
 10
35.866732
 20
54.090154
 30
0.0
 11
35.866732
 21
54.090154
 31
0.0
  0
LINE
  5
7FD
100
AcDbEntity
  8
BORDER
  6
CONTINUOUS
 62
     2
100
AcDbLine
 39
96.0
 10
36.335532
 20
54.090154
 30
0.0
 11
36.335532
 21
54.090154
 31
0.0
  0
LINE
  5
7FE
100
AcDbEntity
  8
BORDER
  6
CONTINUOUS
 62
     2
100
AcDbLine
 39
96.0
 10
36.804232
 20
54.090154
 30
0.0
 11
36.804232
 21
54.090154
 31
0.0
  0
LINE
  5
7FF
100
AcDbEntity
  8
BORDER
  6
CONTINUOUS
 62
     2
100
AcDbLine
 39
96.0
 10
35.163632
 20
53.621454
 30
0.0
 11
35.163632
 21
53.621454
 31
0.0
  0
LINE
  5
800
100
AcDbEntity
  8
BORDER
  6
CONTINUOUS
 62
     2
100
AcDbLine
 39
96.0
 10
35.632432
 20
53.621454
 30
0.0
 11
35.632432
 21
53.621454
 31
0.0
  0
LINE
  5
801
100
AcDbEntity
  8
BORDER
  6
CONTINUOUS
 62
     2
100
AcDbLine
 39
96.0
 10
36.101132
 20
53.621454
 30
0.0
 11
36.101132
 21
53.621454
 31
0.0
  0
LINE
  5
802
100
AcDbEntity
  8
BORDER
  6
CONTINUOUS
 62
     2
100
AcDbLine
 39
96.0
 10
36.569932
 20
53.621454
 30
0.0
 11
36.569932
 21
53.621454
 31
0.0
  0
LINE
  5
803
100
AcDbEntity
  8
BORDER
  6
CONTINUOUS
 62
     2
100
AcDbLine
 39
96.0
 10
35.398032
 20
53.152654
 30
0.0
 11
35.398032
 21
53.152654
 31
0.0
  0
LINE
  5
804
100
AcDbEntity
  8
BORDER
  6
CONTINUOUS
 62
     2
100
AcDbLine
 39
96.0
 10
35.866732
 20
53.152654
 30
0.0
 11
35.866732
 21
53.152654
 31
0.0
  0
LINE
  5
805
100
AcDbEntity
  8
BORDER
  6
CONTINUOUS
 62
     2
100
AcDbLine
 39
96.0
 10
36.335532
 20
53.152654
 30
0.0
 11
36.335532
 21
53.152654
 31
0.0
  0
LINE
  5
806
100
AcDbEntity
  8
BORDER
  6
CONTINUOUS
 62
     2
100
AcDbLine
 39
96.0
 10
36.804232
 20
53.152654
 30
0.0
 11
36.804232
 21
53.152654
 31
0.0
  0
LINE
  5
807
100
AcDbEntity
  8
BORDER
  6
CONTINUOUS
 62
     2
100
AcDbLine
 39
96.0
 10
35.163632
 20
52.683954
 30
0.0
 11
35.163632
 21
52.683954
 31
0.0
  0
LINE
  5
808
100
AcDbEntity
  8
BORDER
  6
CONTINUOUS
 62
     2
100
AcDbLine
 39
96.0
 10
35.632432
 20
52.683954
 30
0.0
 11
35.632432
 21
52.683954
 31
0.0
  0
LINE
  5
809
100
AcDbEntity
  8
BORDER
  6
CONTINUOUS
 62
     2
100
AcDbLine
 39
96.0
 10
36.101132
 20
52.683954
 30
0.0
 11
36.101132
 21
52.683954
 31
0.0
  0
LINE
  5
80A
100
AcDbEntity
  8
BORDER
  6
CONTINUOUS
 62
     2
100
AcDbLine
 39
96.0
 10
36.569932
 20
52.683954
 30
0.0
 11
36.569932
 21
52.683954
 31
0.0
  0
LINE
  5
80B
100
AcDbEntity
  8
BORDER
  6
CONTINUOUS
 62
     2
100
AcDbLine
 39
96.0
 10
35.398032
 20
52.215154
 30
0.0
 11
35.398032
 21
52.215154
 31
0.0
  0
LINE
  5
80C
100
AcDbEntity
  8
BORDER
  6
CONTINUOUS
 62
     2
100
AcDbLine
 39
96.0
 10
35.866732
 20
52.215154
 30
0.0
 11
35.866732
 21
52.215154
 31
0.0
  0
LINE
  5
80D
100
AcDbEntity
  8
BORDER
  6
CONTINUOUS
 62
     2
100
AcDbLine
 39
96.0
 10
36.335532
 20
52.215154
 30
0.0
 11
36.335532
 21
52.215154
 31
0.0
  0
LINE
  5
80E
100
AcDbEntity
  8
BORDER
  6
CONTINUOUS
 62
     2
100
AcDbLine
 39
96.0
 10
36.804232
 20
52.215154
 30
0.0
 11
36.804232
 21
52.215154
 31
0.0
  0
LINE
  5
80F
100
AcDbEntity
  8
BORDER
  6
CONTINUOUS
 62
     2
100
AcDbLine
 39
96.0
 10
35.163632
 20
51.746454
 30
0.0
 11
35.163632
 21
51.746454
 31
0.0
  0
LINE
  5
810
100
AcDbEntity
  8
BORDER
  6
CONTINUOUS
 62
     2
100
AcDbLine
 39
96.0
 10
35.632432
 20
51.746454
 30
0.0
 11
35.632432
 21
51.746454
 31
0.0
  0
LINE
  5
811
100
AcDbEntity
  8
BORDER
  6
CONTINUOUS
 62
     2
100
AcDbLine
 39
96.0
 10
36.101132
 20
51.746454
 30
0.0
 11
36.101132
 21
51.746454
 31
0.0
  0
LINE
  5
812
100
AcDbEntity
  8
BORDER
  6
CONTINUOUS
 62
     2
100
AcDbLine
 39
96.0
 10
36.569932
 20
51.746454
 30
0.0
 11
36.569932
 21
51.746454
 31
0.0
  0
LINE
  5
813
100
AcDbEntity
  8
BORDER
  6
CONTINUOUS
 62
     2
100
AcDbLine
 39
96.0
 10
35.398032
 20
51.277654
 30
0.0
 11
35.398032
 21
51.277654
 31
0.0
  0
LINE
  5
814
100
AcDbEntity
  8
BORDER
  6
CONTINUOUS
 62
     2
100
AcDbLine
 39
96.0
 10
35.866732
 20
51.277654
 30
0.0
 11
35.866732
 21
51.277654
 31
0.0
  0
LINE
  5
815
100
AcDbEntity
  8
BORDER
  6
CONTINUOUS
 62
     2
100
AcDbLine
 39
96.0
 10
36.335532
 20
51.277654
 30
0.0
 11
36.335532
 21
51.277654
 31
0.0
  0
LINE
  5
816
100
AcDbEntity
  8
BORDER
  6
CONTINUOUS
 62
     2
100
AcDbLine
 39
96.0
 10
36.804232
 20
51.277654
 30
0.0
 11
36.804232
 21
51.277654
 31
0.0
  0
LINE
  5
817
100
AcDbEntity
  8
BORDER
  6
CONTINUOUS
 62
     2
100
AcDbLine
 39
96.0
 10
43.132432
 20
57.371454
 30
0.0
 11
43.132432
 21
57.371454
 31
0.0
  0
LINE
  5
818
100
AcDbEntity
  8
BORDER
  6
CONTINUOUS
 62
     2
100
AcDbLine
 39
96.0
 10
43.601132
 20
57.371454
 30
0.0
 11
43.601132
 21
57.371454
 31
0.0
  0
LINE
  5
819
100
AcDbEntity
  8
BORDER
  6
CONTINUOUS
 62
     2
100
AcDbLine
 39
96.0
 10
44.069932
 20
57.371454
 30
0.0
 11
44.069932
 21
57.371454
 31
0.0
  0
LINE
  5
81A
100
AcDbEntity
  8
BORDER
  6
CONTINUOUS
 62
     2
100
AcDbLine
 39
96.0
 10
44.538632
 20
57.371454
 30
0.0
 11
44.538632
 21
57.371454
 31
0.0
  0
LINE
  5
81B
100
AcDbEntity
  8
BORDER
  6
CONTINUOUS
 62
     2
100
AcDbLine
 39
96.0
 10
43.366732
 20
56.902654
 30
0.0
 11
43.366732
 21
56.902654
 31
0.0
  0
LINE
  5
81C
100
AcDbEntity
  8
BORDER
  6
CONTINUOUS
 62
     2
100
AcDbLine
 39
96.0
 10
43.835532
 20
56.902654
 30
0.0
 11
43.835532
 21
56.902654
 31
0.0
  0
LINE
  5
81D
100
AcDbEntity
  8
BORDER
  6
CONTINUOUS
 62
     2
100
AcDbLine
 39
96.0
 10
44.304232
 20
56.902654
 30
0.0
 11
44.304232
 21
56.902654
 31
0.0
  0
LINE
  5
81E
100
AcDbEntity
  8
BORDER
  6
CONTINUOUS
 62
     2
100
AcDbLine
 39
96.0
 10
44.773032
 20
56.902654
 30
0.0
 11
44.773032
 21
56.902654
 31
0.0
  0
LINE
  5
81F
100
AcDbEntity
  8
BORDER
  6
CONTINUOUS
 62
     2
100
AcDbLine
 39
96.0
 10
43.132432
 20
56.433954
 30
0.0
 11
43.132432
 21
56.433954
 31
0.0
  0
LINE
  5
820
100
AcDbEntity
  8
BORDER
  6
CONTINUOUS
 62
     2
100
AcDbLine
 39
96.0
 10
43.601132
 20
56.433954
 30
0.0
 11
43.601132
 21
56.433954
 31
0.0
  0
LINE
  5
821
100
AcDbEntity
  8
BORDER
  6
CONTINUOUS
 62
     2
100
AcDbLine
 39
96.0
 10
44.069932
 20
56.433954
 30
0.0
 11
44.069932
 21
56.433954
 31
0.0
  0
LINE
  5
822
100
AcDbEntity
  8
BORDER
  6
CONTINUOUS
 62
     2
100
AcDbLine
 39
96.0
 10
44.538632
 20
56.433954
 30
0.0
 11
44.538632
 21
56.433954
 31
0.0
  0
LINE
  5
823
100
AcDbEntity
  8
BORDER
  6
CONTINUOUS
 62
     2
100
AcDbLine
 39
96.0
 10
43.366732
 20
55.965154
 30
0.0
 11
43.366732
 21
55.965154
 31
0.0
  0
LINE
  5
824
100
AcDbEntity
  8
BORDER
  6
CONTINUOUS
 62
     2
100
AcDbLine
 39
96.0
 10
43.835532
 20
55.965154
 30
0.0
 11
43.835532
 21
55.965154
 31
0.0
  0
LINE
  5
825
100
AcDbEntity
  8
BORDER
  6
CONTINUOUS
 62
     2
100
AcDbLine
 39
96.0
 10
44.304232
 20
55.965154
 30
0.0
 11
44.304232
 21
55.965154
 31
0.0
  0
LINE
  5
826
100
AcDbEntity
  8
BORDER
  6
CONTINUOUS
 62
     2
100
AcDbLine
 39
96.0
 10
44.773032
 20
55.965154
 30
0.0
 11
44.773032
 21
55.965154
 31
0.0
  0
LINE
  5
827
100
AcDbEntity
  8
BORDER
  6
CONTINUOUS
 62
     2
100
AcDbLine
 39
96.0
 10
43.132432
 20
55.496454
 30
0.0
 11
43.132432
 21
55.496454
 31
0.0
  0
LINE
  5
828
100
AcDbEntity
  8
BORDER
  6
CONTINUOUS
 62
     2
100
AcDbLine
 39
96.0
 10
43.601132
 20
55.496454
 30
0.0
 11
43.601132
 21
55.496454
 31
0.0
  0
LINE
  5
829
100
AcDbEntity
  8
BORDER
  6
CONTINUOUS
 62
     2
100
AcDbLine
 39
96.0
 10
44.069932
 20
55.496454
 30
0.0
 11
44.069932
 21
55.496454
 31
0.0
  0
LINE
  5
82A
100
AcDbEntity
  8
BORDER
  6
CONTINUOUS
 62
     2
100
AcDbLine
 39
96.0
 10
44.538632
 20
55.496454
 30
0.0
 11
44.538632
 21
55.496454
 31
0.0
  0
LINE
  5
82B
100
AcDbEntity
  8
BORDER
  6
CONTINUOUS
 62
     2
100
AcDbLine
 39
96.0
 10
43.366732
 20
55.027654
 30
0.0
 11
43.366732
 21
55.027654
 31
0.0
  0
LINE
  5
82C
100
AcDbEntity
  8
BORDER
  6
CONTINUOUS
 62
     2
100
AcDbLine
 39
96.0
 10
43.835532
 20
55.027654
 30
0.0
 11
43.835532
 21
55.027654
 31
0.0
  0
LINE
  5
82D
100
AcDbEntity
  8
BORDER
  6
CONTINUOUS
 62
     2
100
AcDbLine
 39
96.0
 10
44.304232
 20
55.027654
 30
0.0
 11
44.304232
 21
55.027654
 31
0.0
  0
LINE
  5
82E
100
AcDbEntity
  8
BORDER
  6
CONTINUOUS
 62
     2
100
AcDbLine
 39
96.0
 10
44.773032
 20
55.027654
 30
0.0
 11
44.773032
 21
55.027654
 31
0.0
  0
LINE
  5
82F
100
AcDbEntity
  8
BORDER
  6
CONTINUOUS
 62
     2
100
AcDbLine
 39
96.0
 10
43.132432
 20
54.558954
 30
0.0
 11
43.132432
 21
54.558954
 31
0.0
  0
LINE
  5
830
100
AcDbEntity
  8
BORDER
  6
CONTINUOUS
 62
     2
100
AcDbLine
 39
96.0
 10
43.601132
 20
54.558954
 30
0.0
 11
43.601132
 21
54.558954
 31
0.0
  0
LINE
  5
831
100
AcDbEntity
  8
BORDER
  6
CONTINUOUS
 62
     2
100
AcDbLine
 39
96.0
 10
44.069932
 20
54.558954
 30
0.0
 11
44.069932
 21
54.558954
 31
0.0
  0
LINE
  5
832
100
AcDbEntity
  8
BORDER
  6
CONTINUOUS
 62
     2
100
AcDbLine
 39
96.0
 10
44.538632
 20
54.558954
 30
0.0
 11
44.538632
 21
54.558954
 31
0.0
  0
LINE
  5
833
100
AcDbEntity
  8
BORDER
  6
CONTINUOUS
 62
     2
100
AcDbLine
 39
96.0
 10
43.366732
 20
54.090154
 30
0.0
 11
43.366732
 21
54.090154
 31
0.0
  0
LINE
  5
834
100
AcDbEntity
  8
BORDER
  6
CONTINUOUS
 62
     2
100
AcDbLine
 39
96.0
 10
43.835532
 20
54.090154
 30
0.0
 11
43.835532
 21
54.090154
 31
0.0
  0
LINE
  5
835
100
AcDbEntity
  8
BORDER
  6
CONTINUOUS
 62
     2
100
AcDbLine
 39
96.0
 10
44.304232
 20
54.090154
 30
0.0
 11
44.304232
 21
54.090154
 31
0.0
  0
LINE
  5
836
100
AcDbEntity
  8
BORDER
  6
CONTINUOUS
 62
     2
100
AcDbLine
 39
96.0
 10
44.773032
 20
54.090154
 30
0.0
 11
44.773032
 21
54.090154
 31
0.0
  0
LINE
  5
837
100
AcDbEntity
  8
BORDER
  6
CONTINUOUS
 62
     2
100
AcDbLine
 39
96.0
 10
43.132432
 20
53.621454
 30
0.0
 11
43.132432
 21
53.621454
 31
0.0
  0
LINE
  5
838
100
AcDbEntity
  8
BORDER
  6
CONTINUOUS
 62
     2
100
AcDbLine
 39
96.0
 10
43.601132
 20
53.621454
 30
0.0
 11
43.601132
 21
53.621454
 31
0.0
  0
LINE
  5
839
100
AcDbEntity
  8
BORDER
  6
CONTINUOUS
 62
     2
100
AcDbLine
 39
96.0
 10
44.069932
 20
53.621454
 30
0.0
 11
44.069932
 21
53.621454
 31
0.0
  0
LINE
  5
83A
100
AcDbEntity
  8
BORDER
  6
CONTINUOUS
 62
     2
100
AcDbLine
 39
96.0
 10
44.538632
 20
53.621454
 30
0.0
 11
44.538632
 21
53.621454
 31
0.0
  0
LINE
  5
83B
100
AcDbEntity
  8
BORDER
  6
CONTINUOUS
 62
     2
100
AcDbLine
 39
96.0
 10
43.366732
 20
53.152654
 30
0.0
 11
43.366732
 21
53.152654
 31
0.0
  0
LINE
  5
83C
100
AcDbEntity
  8
BORDER
  6
CONTINUOUS
 62
     2
100
AcDbLine
 39
96.0
 10
43.835532
 20
53.152654
 30
0.0
 11
43.835532
 21
53.152654
 31
0.0
  0
LINE
  5
83D
100
AcDbEntity
  8
BORDER
  6
CONTINUOUS
 62
     2
100
AcDbLine
 39
96.0
 10
44.304232
 20
53.152654
 30
0.0
 11
44.304232
 21
53.152654
 31
0.0
  0
LINE
  5
83E
100
AcDbEntity
  8
BORDER
  6
CONTINUOUS
 62
     2
100
AcDbLine
 39
96.0
 10
44.773032
 20
53.152654
 30
0.0
 11
44.773032
 21
53.152654
 31
0.0
  0
LINE
  5
83F
100
AcDbEntity
  8
BORDER
  6
CONTINUOUS
 62
     2
100
AcDbLine
 39
96.0
 10
43.132432
 20
52.683954
 30
0.0
 11
43.132432
 21
52.683954
 31
0.0
  0
LINE
  5
840
100
AcDbEntity
  8
BORDER
  6
CONTINUOUS
 62
     2
100
AcDbLine
 39
96.0
 10
43.601132
 20
52.683954
 30
0.0
 11
43.601132
 21
52.683954
 31
0.0
  0
LINE
  5
841
100
AcDbEntity
  8
BORDER
  6
CONTINUOUS
 62
     2
100
AcDbLine
 39
96.0
 10
44.069932
 20
52.683954
 30
0.0
 11
44.069932
 21
52.683954
 31
0.0
  0
LINE
  5
842
100
AcDbEntity
  8
BORDER
  6
CONTINUOUS
 62
     2
100
AcDbLine
 39
96.0
 10
44.538632
 20
52.683954
 30
0.0
 11
44.538632
 21
52.683954
 31
0.0
  0
LINE
  5
843
100
AcDbEntity
  8
BORDER
  6
CONTINUOUS
 62
     2
100
AcDbLine
 39
96.0
 10
43.366732
 20
52.215154
 30
0.0
 11
43.366732
 21
52.215154
 31
0.0
  0
LINE
  5
844
100
AcDbEntity
  8
BORDER
  6
CONTINUOUS
 62
     2
100
AcDbLine
 39
96.0
 10
43.835532
 20
52.215154
 30
0.0
 11
43.835532
 21
52.215154
 31
0.0
  0
LINE
  5
845
100
AcDbEntity
  8
BORDER
  6
CONTINUOUS
 62
     2
100
AcDbLine
 39
96.0
 10
44.304232
 20
52.215154
 30
0.0
 11
44.304232
 21
52.215154
 31
0.0
  0
LINE
  5
846
100
AcDbEntity
  8
BORDER
  6
CONTINUOUS
 62
     2
100
AcDbLine
 39
96.0
 10
44.773032
 20
52.215154
 30
0.0
 11
44.773032
 21
52.215154
 31
0.0
  0
LINE
  5
847
100
AcDbEntity
  8
BORDER
  6
CONTINUOUS
 62
     2
100
AcDbLine
 39
96.0
 10
43.132432
 20
51.746454
 30
0.0
 11
43.132432
 21
51.746454
 31
0.0
  0
LINE
  5
848
100
AcDbEntity
  8
BORDER
  6
CONTINUOUS
 62
     2
100
AcDbLine
 39
96.0
 10
43.601132
 20
51.746454
 30
0.0
 11
43.601132
 21
51.746454
 31
0.0
  0
LINE
  5
849
100
AcDbEntity
  8
BORDER
  6
CONTINUOUS
 62
     2
100
AcDbLine
 39
96.0
 10
44.069932
 20
51.746454
 30
0.0
 11
44.069932
 21
51.746454
 31
0.0
  0
LINE
  5
84A
100
AcDbEntity
  8
BORDER
  6
CONTINUOUS
 62
     2
100
AcDbLine
 39
96.0
 10
44.538632
 20
51.746454
 30
0.0
 11
44.538632
 21
51.746454
 31
0.0
  0
LINE
  5
84B
100
AcDbEntity
  8
BORDER
  6
CONTINUOUS
 62
     2
100
AcDbLine
 39
96.0
 10
43.366732
 20
51.277654
 30
0.0
 11
43.366732
 21
51.277654
 31
0.0
  0
LINE
  5
84C
100
AcDbEntity
  8
BORDER
  6
CONTINUOUS
 62
     2
100
AcDbLine
 39
96.0
 10
43.835532
 20
51.277654
 30
0.0
 11
43.835532
 21
51.277654
 31
0.0
  0
LINE
  5
84D
100
AcDbEntity
  8
BORDER
  6
CONTINUOUS
 62
     2
100
AcDbLine
 39
96.0
 10
44.304232
 20
51.277654
 30
0.0
 11
44.304232
 21
51.277654
 31
0.0
  0
LINE
  5
84E
100
AcDbEntity
  8
BORDER
  6
CONTINUOUS
 62
     2
100
AcDbLine
 39
96.0
 10
44.773032
 20
51.277654
 30
0.0
 11
44.773032
 21
51.277654
 31
0.0
  0
LINE
  5
84F
100
AcDbEntity
  8
BORDER
  6
CONTINUOUS
 62
    10
100
AcDbLine
 39
96.0
 10
37.804032
 20
52.876854
 30
0.0
 11
37.730532
 21
52.850154
 31
0.0
  0
LINE
  5
850
100
AcDbEntity
  8
BORDER
  6
CONTINUOUS
 62
    10
100
AcDbLine
 39
96.0
 10
39.944132
 20
53.392354
 30
0.0
 11
39.899232
 21
53.328354
 31
0.0
  0
LINE
  5
851
100
AcDbEntity
  8
BORDER
  6
CONTINUOUS
 62
    10
100
AcDbLine
 39
96.0
 10
38.151732
 20
50.832454
 30
0.0
 11
38.106732
 21
50.768554
 31
0.0
  0
LINE
  5
852
100
AcDbEntity
  8
BORDER
  6
CONTINUOUS
 62
    10
100
AcDbLine
 39
96.0
 10
40.503232
 20
53.893554
 30
0.0
 11
40.492232
 21
53.831954
 31
0.0
  0
LINE
  5
853
100
AcDbEntity
  8
BORDER
  6
CONTINUOUS
 62
     1
100
AcDbLine
 39
96.0
 10
40.564032
 20
51.261654
 30
0.0
 11
40.622832
 21
51.282954
 31
0.0
  0
LINE
  5
854
100
AcDbEntity
  8
BORDER
  6
CONTINUOUS
 62
     1
100
AcDbLine
 39
96.0
 10
40.990032
 20
51.480454
 30
0.0
 11
41.000832
 21
51.541954
 31
0.0
  0
LINE
  5
855
100
AcDbEntity
  8
BORDER
  6
CONTINUOUS
 62
     1
100
AcDbLine
 39
96.0
 10
40.278132
 20
51.896254
 30
0.0
 11
40.314032
 21
51.947454
 31
0.0
  0
LINE
  5
856
100
AcDbEntity
  8
BORDER
  6
CONTINUOUS
 62
     3
100
AcDbLine
 39
96.0
 10
44.951232
 20
35.944754
 30
0.0
 11
43.076232
 21
35.944754
 31
0.0
  0
LINE
  5
857
100
AcDbEntity
  8
BORDER
  6
CONTINUOUS
 62
     3
100
AcDbLine
 39
96.0
 10
36.826232
 20
35.944754
 30
0.0
 11
34.951232
 21
35.944754
 31
0.0
  0
LINE
  5
858
100
AcDbEntity
  8
BORDER
  6
CONTINUOUS
 62
     3
100
AcDbLine
 39
96.0
 10
34.951232
 20
35.944754
 30
0.0
 11
36.826232
 21
35.944754
 31
0.0
  0
LINE
  5
859
100
AcDbEntity
  8
BORDER
  6
CONTINUOUS
 62
     3
100
AcDbLine
 39
96.0
 10
44.951232
 20
35.944754
 30
0.0
 11
44.951232
 21
50.944754
 31
0.0
  0
LINE
  5
85A
100
AcDbEntity
  8
BORDER
  6
CONTINUOUS
 62
     3
100
AcDbLine
 39
96.0
 10
44.951232
 20
50.944754
 30
0.0
 11
43.076232
 21
50.944754
 31
0.0
  0
LINE
  5
85B
100
AcDbEntity
  8
BORDER
  6
CONTINUOUS
 62
     3
100
AcDbLine
 39
96.0
 10
34.951232
 20
50.944754
 30
0.0
 11
34.951232
 21
35.944754
 31
0.0
  0
LINE
  5
85C
100
AcDbEntity
  8
BORDER
  6
CONTINUOUS
 62
     3
100
AcDbLine
 39
96.0
 10
36.826232
 20
50.944754
 30
0.0
 11
36.826232
 21
35.944754
 31
0.0
  0
LINE
  5
85D
100
AcDbEntity
  8
BORDER
  6
CONTINUOUS
 62
     3
100
AcDbLine
 39
96.0
 10
43.076232
 20
35.944754
 30
0.0
 11
43.076232
 21
50.944754
 31
0.0
  0
ARC
  5
85E
100
AcDbEntity
  8
BORDER
  6
CONTINUOUS
 62
     3
100
AcDbCircle
 39
96.0
 10
39.951232
 20
35.944754
 30
0.0
 40
3.0
100
AcDbArc
 50
0.0
 51
180.0
  0
ARC
  5
85F
100
AcDbEntity
  8
BORDER
  6
CONTINUOUS
 62
     3
100
AcDbCircle
 39
96.0
 10
39.951232
 20
50.944754
 30
0.0
 40
3.0
100
AcDbArc
 50
180.0
 51
0.0
  0
LINE
  5
860
100
AcDbEntity
  8
BORDER
  6
CONTINUOUS
 62
     3
100
AcDbLine
 39
96.0
 10
36.826232
 20
50.944754
 30
0.0
 11
34.951232
 21
50.944754
 31
0.0
  0
LINE
  5
861
100
AcDbEntity
  8
BORDER
  6
CONTINUOUS
 62
     3
100
AcDbLine
 39
96.0
 10
43.076232
 20
35.944754
 30
0.0
 11
44.951232
 21
35.944754
 31
0.0
  0
LINE
  5
862
100
AcDbEntity
  8
BORDER
  6
CONTINUOUS
 62
     1
100
AcDbLine
 39
96.0
 10
38.854032
 20
47.634254
 30
0.0
 11
38.912932
 21
47.655554
 31
0.0
  0
LINE
  5
863
100
AcDbEntity
  8
BORDER
  6
CONTINUOUS
 62
     1
100
AcDbLine
 39
96.0
 10
37.359732
 20
44.429854
 30
0.0
 11
37.418532
 21
44.451254
 31
0.0
  0
LINE
  5
864
100
AcDbEntity
  8
BORDER
  6
CONTINUOUS
 62
     1
100
AcDbLine
 39
96.0
 10
39.709032
 20
45.284954
 30
0.0
 11
39.767932
 21
45.306254
 31
0.0
  0
LINE
  5
865
100
AcDbEntity
  8
BORDER
  6
CONTINUOUS
 62
     1
100
AcDbLine
 39
96.0
 10
42.058432
 20
46.139954
 30
0.0
 11
42.117232
 21
46.161354
 31
0.0
  0
LINE
  5
866
100
AcDbEntity
  8
BORDER
  6
CONTINUOUS
 62
     1
100
AcDbLine
 39
96.0
 10
38.214632
 20
42.080654
 30
0.0
 11
38.273532
 21
42.101954
 31
0.0
  0
LINE
  5
867
100
AcDbEntity
  8
BORDER
  6
CONTINUOUS
 62
     1
100
AcDbLine
 39
96.0
 10
40.564032
 20
42.935654
 30
0.0
 11
40.622832
 21
42.957054
 31
0.0
  0
LINE
  5
868
100
AcDbEntity
  8
BORDER
  6
CONTINUOUS
 62
     1
100
AcDbLine
 39
96.0
 10
42.913432
 20
43.790754
 30
0.0
 11
42.972232
 21
43.812054
 31
0.0
  0
LINE
  5
869
100
AcDbEntity
  8
BORDER
  6
CONTINUOUS
 62
     1
100
AcDbLine
 39
96.0
 10
39.069632
 20
39.731354
 30
0.0
 11
39.128532
 21
39.752754
 31
0.0
  0
LINE
  5
86A
100
AcDbEntity
  8
BORDER
  6
CONTINUOUS
 62
     1
100
AcDbLine
 39
96.0
 10
41.419032
 20
40.586454
 30
0.0
 11
41.477832
 21
40.607854
 31
0.0
  0
LINE
  5
86B
100
AcDbEntity
  8
BORDER
  6
CONTINUOUS
 62
     1
100
AcDbLine
 39
96.0
 10
42.273732
 20
38.237254
 30
0.0
 11
42.332632
 21
38.258654
 31
0.0
  0
LINE
  5
86C
100
AcDbEntity
  8
BORDER
  6
CONTINUOUS
 62
     1
100
AcDbLine
 39
96.0
 10
37.616332
 20
48.486054
 30
0.0
 11
37.652132
 21
48.537254
 31
0.0
  0
LINE
  5
86D
100
AcDbEntity
  8
BORDER
  6
CONTINUOUS
 62
     1
100
AcDbLine
 39
96.0
 10
38.230332
 20
45.004254
 30
0.0
 11
38.266232
 21
45.055354
 31
0.0
  0
LINE
  5
86E
100
AcDbEntity
  8
BORDER
  6
CONTINUOUS
 62
     1
100
AcDbLine
 39
96.0
 10
39.664432
 20
47.052054
 30
0.0
 11
39.700232
 21
47.103254
 31
0.0
  0
LINE
  5
86F
100
AcDbEntity
  8
BORDER
  6
CONTINUOUS
 62
     1
100
AcDbLine
 39
96.0
 10
37.410032
 20
39.474554
 30
0.0
 11
37.445832
 21
39.525754
 31
0.0
  0
LINE
  5
870
100
AcDbEntity
  8
BORDER
  6
CONTINUOUS
 62
     1
100
AcDbLine
 39
96.0
 10
38.844032
 20
41.522454
 30
0.0
 11
38.879932
 21
41.573654
 31
0.0
  0
LINE
  5
871
100
AcDbEntity
  8
BORDER
  6
CONTINUOUS
 62
     1
100
AcDbLine
 39
96.0
 10
40.278132
 20
43.570354
 30
0.0
 11
40.314032
 21
43.621554
 31
0.0
  0
LINE
  5
872
100
AcDbEntity
  8
BORDER
  6
CONTINUOUS
 62
     1
100
AcDbLine
 39
96.0
 10
41.712232
 20
45.618254
 30
0.0
 11
41.748132
 21
45.669354
 31
0.0
  0
LINE
  5
873
100
AcDbEntity
  8
BORDER
  6
CONTINUOUS
 62
     1
100
AcDbLine
 39
96.0
 10
40.891932
 20
40.088554
 30
0.0
 11
40.927832
 21
40.139754
 31
0.0
  0
LINE
  5
874
100
AcDbEntity
  8
BORDER
  6
CONTINUOUS
 62
     1
100
AcDbLine
 39
96.0
 10
42.326032
 20
42.136454
 30
0.0
 11
42.361932
 21
42.187554
 31
0.0
  0
LINE
  5
875
100
AcDbEntity
  8
BORDER
  6
CONTINUOUS
 62
     1
100
AcDbLine
 39
96.0
 10
42.939532
 20
38.654754
 30
0.0
 11
42.975432
 21
38.705954
 31
0.0
  0
LINE
  5
876
100
AcDbEntity
  8
BORDER
  6
CONTINUOUS
 62
     1
100
AcDbLine
 39
96.0
 10
36.934632
 20
48.946754
 30
0.0
 11
36.945432
 21
49.008254
 31
0.0
  0
LINE
  5
877
100
AcDbEntity
  8
BORDER
  6
CONTINUOUS
 62
     1
100
AcDbLine
 39
96.0
 10
37.660232
 20
38.664454
 30
0.0
 11
37.670932
 21
38.726054
 31
0.0
  0
LINE
  5
878
100
AcDbEntity
  8
BORDER
  6
CONTINUOUS
 62
     1
100
AcDbLine
 39
96.0
 10
38.094332
 20
41.126554
 30
0.0
 11
38.105032
 21
41.188054
 31
0.0
  0
LINE
  5
879
100
AcDbEntity
  8
BORDER
  6
CONTINUOUS
 62
     1
100
AcDbLine
 39
96.0
 10
38.528432
 20
43.588554
 30
0.0
 11
38.539132
 21
43.650054
 31
0.0
  0
LINE
  5
87A
100
AcDbEntity
  8
BORDER
  6
CONTINUOUS
 62
     1
100
AcDbLine
 39
96.0
 10
38.962432
 20
46.050654
 30
0.0
 11
38.973232
 21
46.112154
 31
0.0
  0
LINE
  5
87B
100
AcDbEntity
  8
BORDER
  6
CONTINUOUS
 62
     1
100
AcDbLine
 39
96.0
 10
40.556032
 20
40.692454
 30
0.0
 11
40.566732
 21
40.753954
 31
0.0
  0
LINE
  5
87C
100
AcDbEntity
  8
BORDER
  6
CONTINUOUS
 62
     1
100
AcDbLine
 39
96.0
 10
40.990032
 20
43.154454
 30
0.0
 11
41.000832
 21
43.216054
 31
0.0
  0
LINE
  5
87D
100
AcDbEntity
  8
BORDER
  6
CONTINUOUS
 62
     1
100
AcDbLine
 39
96.0
 10
41.424132
 20
45.616554
 30
0.0
 11
41.434932
 21
45.678054
 31
0.0
  0
LINE
  5
87E
100
AcDbEntity
  8
BORDER
  6
CONTINUOUS
 62
     1
100
AcDbLine
 39
96.0
 10
41.858232
 20
48.078554
 30
0.0
 11
41.868932
 21
48.140054
 31
0.0
  0
LINE
  5
87F
100
AcDbEntity
  8
BORDER
  6
CONTINUOUS
 62
     1
100
AcDbLine
 39
96.0
 10
42.583832
 20
37.796354
 30
0.0
 11
42.594532
 21
37.857854
 31
0.0
  0
LINE
  5
880
100
AcDbEntity
  8
BORDER
  6
CONTINUOUS
 62
     1
100
AcDbLine
 39
96.0
 10
43.017932
 20
40.258354
 30
0.0
 11
43.028632
 21
40.319854
 31
0.0
  0
LINE
  5
881
100
AcDbEntity
  8
BORDER
  6
CONTINUOUS
 62
     2
100
AcDbLine
 39
96.0
 10
35.163632
 20
50.808954
 30
0.0
 11
35.163632
 21
50.808954
 31
0.0
  0
LINE
  5
882
100
AcDbEntity
  8
BORDER
  6
CONTINUOUS
 62
     2
100
AcDbLine
 39
96.0
 10
35.632432
 20
50.808954
 30
0.0
 11
35.632432
 21
50.808954
 31
0.0
  0
LINE
  5
883
100
AcDbEntity
  8
BORDER
  6
CONTINUOUS
 62
     2
100
AcDbLine
 39
96.0
 10
36.101132
 20
50.808954
 30
0.0
 11
36.101132
 21
50.808954
 31
0.0
  0
LINE
  5
884
100
AcDbEntity
  8
BORDER
  6
CONTINUOUS
 62
     2
100
AcDbLine
 39
96.0
 10
36.569932
 20
50.808954
 30
0.0
 11
36.569932
 21
50.808954
 31
0.0
  0
LINE
  5
885
100
AcDbEntity
  8
BORDER
  6
CONTINUOUS
 62
     2
100
AcDbLine
 39
96.0
 10
35.398032
 20
50.340154
 30
0.0
 11
35.398032
 21
50.340154
 31
0.0
  0
LINE
  5
886
100
AcDbEntity
  8
BORDER
  6
CONTINUOUS
 62
     2
100
AcDbLine
 39
96.0
 10
35.866732
 20
50.340154
 30
0.0
 11
35.866732
 21
50.340154
 31
0.0
  0
LINE
  5
887
100
AcDbEntity
  8
BORDER
  6
CONTINUOUS
 62
     2
100
AcDbLine
 39
96.0
 10
36.335532
 20
50.340154
 30
0.0
 11
36.335532
 21
50.340154
 31
0.0
  0
LINE
  5
888
100
AcDbEntity
  8
BORDER
  6
CONTINUOUS
 62
     2
100
AcDbLine
 39
96.0
 10
36.804232
 20
50.340154
 30
0.0
 11
36.804232
 21
50.340154
 31
0.0
  0
LINE
  5
889
100
AcDbEntity
  8
BORDER
  6
CONTINUOUS
 62
     2
100
AcDbLine
 39
96.0
 10
35.163632
 20
49.871454
 30
0.0
 11
35.163632
 21
49.871454
 31
0.0
  0
LINE
  5
88A
100
AcDbEntity
  8
BORDER
  6
CONTINUOUS
 62
     2
100
AcDbLine
 39
96.0
 10
35.632432
 20
49.871454
 30
0.0
 11
35.632432
 21
49.871454
 31
0.0
  0
LINE
  5
88B
100
AcDbEntity
  8
BORDER
  6
CONTINUOUS
 62
     2
100
AcDbLine
 39
96.0
 10
36.101132
 20
49.871454
 30
0.0
 11
36.101132
 21
49.871454
 31
0.0
  0
LINE
  5
88C
100
AcDbEntity
  8
BORDER
  6
CONTINUOUS
 62
     2
100
AcDbLine
 39
96.0
 10
36.569932
 20
49.871454
 30
0.0
 11
36.569932
 21
49.871454
 31
0.0
  0
LINE
  5
88D
100
AcDbEntity
  8
BORDER
  6
CONTINUOUS
 62
     2
100
AcDbLine
 39
96.0
 10
35.398032
 20
49.402654
 30
0.0
 11
35.398032
 21
49.402654
 31
0.0
  0
LINE
  5
88E
100
AcDbEntity
  8
BORDER
  6
CONTINUOUS
 62
     2
100
AcDbLine
 39
96.0
 10
35.866732
 20
49.402654
 30
0.0
 11
35.866732
 21
49.402654
 31
0.0
  0
LINE
  5
88F
100
AcDbEntity
  8
BORDER
  6
CONTINUOUS
 62
     2
100
AcDbLine
 39
96.0
 10
36.335532
 20
49.402654
 30
0.0
 11
36.335532
 21
49.402654
 31
0.0
  0
LINE
  5
890
100
AcDbEntity
  8
BORDER
  6
CONTINUOUS
 62
     2
100
AcDbLine
 39
96.0
 10
36.804232
 20
49.402654
 30
0.0
 11
36.804232
 21
49.402654
 31
0.0
  0
LINE
  5
891
100
AcDbEntity
  8
BORDER
  6
CONTINUOUS
 62
     2
100
AcDbLine
 39
96.0
 10
35.163632
 20
48.933954
 30
0.0
 11
35.163632
 21
48.933954
 31
0.0
  0
LINE
  5
892
100
AcDbEntity
  8
BORDER
  6
CONTINUOUS
 62
     2
100
AcDbLine
 39
96.0
 10
35.632432
 20
48.933954
 30
0.0
 11
35.632432
 21
48.933954
 31
0.0
  0
LINE
  5
893
100
AcDbEntity
  8
BORDER
  6
CONTINUOUS
 62
     2
100
AcDbLine
 39
96.0
 10
36.101132
 20
48.933954
 30
0.0
 11
36.101132
 21
48.933954
 31
0.0
  0
LINE
  5
894
100
AcDbEntity
  8
BORDER
  6
CONTINUOUS
 62
     2
100
AcDbLine
 39
96.0
 10
36.569932
 20
48.933954
 30
0.0
 11
36.569932
 21
48.933954
 31
0.0
  0
LINE
  5
895
100
AcDbEntity
  8
BORDER
  6
CONTINUOUS
 62
     2
100
AcDbLine
 39
96.0
 10
35.398032
 20
48.465154
 30
0.0
 11
35.398032
 21
48.465154
 31
0.0
  0
LINE
  5
896
100
AcDbEntity
  8
BORDER
  6
CONTINUOUS
 62
     2
100
AcDbLine
 39
96.0
 10
35.866732
 20
48.465154
 30
0.0
 11
35.866732
 21
48.465154
 31
0.0
  0
LINE
  5
897
100
AcDbEntity
  8
BORDER
  6
CONTINUOUS
 62
     2
100
AcDbLine
 39
96.0
 10
36.335532
 20
48.465154
 30
0.0
 11
36.335532
 21
48.465154
 31
0.0
  0
LINE
  5
898
100
AcDbEntity
  8
BORDER
  6
CONTINUOUS
 62
     2
100
AcDbLine
 39
96.0
 10
36.804232
 20
48.465154
 30
0.0
 11
36.804232
 21
48.465154
 31
0.0
  0
LINE
  5
899
100
AcDbEntity
  8
BORDER
  6
CONTINUOUS
 62
     2
100
AcDbLine
 39
96.0
 10
35.163632
 20
47.996454
 30
0.0
 11
35.163632
 21
47.996454
 31
0.0
  0
LINE
  5
89A
100
AcDbEntity
  8
BORDER
  6
CONTINUOUS
 62
     2
100
AcDbLine
 39
96.0
 10
35.632432
 20
47.996454
 30
0.0
 11
35.632432
 21
47.996454
 31
0.0
  0
LINE
  5
89B
100
AcDbEntity
  8
BORDER
  6
CONTINUOUS
 62
     2
100
AcDbLine
 39
96.0
 10
36.101132
 20
47.996454
 30
0.0
 11
36.101132
 21
47.996454
 31
0.0
  0
LINE
  5
89C
100
AcDbEntity
  8
BORDER
  6
CONTINUOUS
 62
     2
100
AcDbLine
 39
96.0
 10
36.569932
 20
47.996454
 30
0.0
 11
36.569932
 21
47.996454
 31
0.0
  0
LINE
  5
89D
100
AcDbEntity
  8
BORDER
  6
CONTINUOUS
 62
     2
100
AcDbLine
 39
96.0
 10
35.398032
 20
47.527654
 30
0.0
 11
35.398032
 21
47.527654
 31
0.0
  0
LINE
  5
89E
100
AcDbEntity
  8
BORDER
  6
CONTINUOUS
 62
     2
100
AcDbLine
 39
96.0
 10
35.866732
 20
47.527654
 30
0.0
 11
35.866732
 21
47.527654
 31
0.0
  0
LINE
  5
89F
100
AcDbEntity
  8
BORDER
  6
CONTINUOUS
 62
     2
100
AcDbLine
 39
96.0
 10
36.335532
 20
47.527654
 30
0.0
 11
36.335532
 21
47.527654
 31
0.0
  0
LINE
  5
8A0
100
AcDbEntity
  8
BORDER
  6
CONTINUOUS
 62
     2
100
AcDbLine
 39
96.0
 10
36.804232
 20
47.527654
 30
0.0
 11
36.804232
 21
47.527654
 31
0.0
  0
LINE
  5
8A1
100
AcDbEntity
  8
BORDER
  6
CONTINUOUS
 62
     2
100
AcDbLine
 39
96.0
 10
35.163632
 20
47.058954
 30
0.0
 11
35.163632
 21
47.058954
 31
0.0
  0
LINE
  5
8A2
100
AcDbEntity
  8
BORDER
  6
CONTINUOUS
 62
     2
100
AcDbLine
 39
96.0
 10
35.632432
 20
47.058954
 30
0.0
 11
35.632432
 21
47.058954
 31
0.0
  0
LINE
  5
8A3
100
AcDbEntity
  8
BORDER
  6
CONTINUOUS
 62
     2
100
AcDbLine
 39
96.0
 10
36.101132
 20
47.058954
 30
0.0
 11
36.101132
 21
47.058954
 31
0.0
  0
LINE
  5
8A4
100
AcDbEntity
  8
BORDER
  6
CONTINUOUS
 62
     2
100
AcDbLine
 39
96.0
 10
36.569932
 20
47.058954
 30
0.0
 11
36.569932
 21
47.058954
 31
0.0
  0
LINE
  5
8A5
100
AcDbEntity
  8
BORDER
  6
CONTINUOUS
 62
     2
100
AcDbLine
 39
96.0
 10
35.398032
 20
46.590154
 30
0.0
 11
35.398032
 21
46.590154
 31
0.0
  0
LINE
  5
8A6
100
AcDbEntity
  8
BORDER
  6
CONTINUOUS
 62
     2
100
AcDbLine
 39
96.0
 10
35.866732
 20
46.590154
 30
0.0
 11
35.866732
 21
46.590154
 31
0.0
  0
LINE
  5
8A7
100
AcDbEntity
  8
BORDER
  6
CONTINUOUS
 62
     2
100
AcDbLine
 39
96.0
 10
36.335532
 20
46.590154
 30
0.0
 11
36.335532
 21
46.590154
 31
0.0
  0
LINE
  5
8A8
100
AcDbEntity
  8
BORDER
  6
CONTINUOUS
 62
     2
100
AcDbLine
 39
96.0
 10
36.804232
 20
46.590154
 30
0.0
 11
36.804232
 21
46.590154
 31
0.0
  0
LINE
  5
8A9
100
AcDbEntity
  8
BORDER
  6
CONTINUOUS
 62
     2
100
AcDbLine
 39
96.0
 10
35.163632
 20
46.121454
 30
0.0
 11
35.163632
 21
46.121454
 31
0.0
  0
LINE
  5
8AA
100
AcDbEntity
  8
BORDER
  6
CONTINUOUS
 62
     2
100
AcDbLine
 39
96.0
 10
35.632432
 20
46.121454
 30
0.0
 11
35.632432
 21
46.121454
 31
0.0
  0
LINE
  5
8AB
100
AcDbEntity
  8
BORDER
  6
CONTINUOUS
 62
     2
100
AcDbLine
 39
96.0
 10
36.101132
 20
46.121454
 30
0.0
 11
36.101132
 21
46.121454
 31
0.0
  0
LINE
  5
8AC
100
AcDbEntity
  8
BORDER
  6
CONTINUOUS
 62
     2
100
AcDbLine
 39
96.0
 10
36.569932
 20
46.121454
 30
0.0
 11
36.569932
 21
46.121454
 31
0.0
  0
LINE
  5
8AD
100
AcDbEntity
  8
BORDER
  6
CONTINUOUS
 62
     2
100
AcDbLine
 39
96.0
 10
35.398032
 20
45.652654
 30
0.0
 11
35.398032
 21
45.652654
 31
0.0
  0
LINE
  5
8AE
100
AcDbEntity
  8
BORDER
  6
CONTINUOUS
 62
     2
100
AcDbLine
 39
96.0
 10
35.866732
 20
45.652654
 30
0.0
 11
35.866732
 21
45.652654
 31
0.0
  0
LINE
  5
8AF
100
AcDbEntity
  8
BORDER
  6
CONTINUOUS
 62
     2
100
AcDbLine
 39
96.0
 10
36.335532
 20
45.652654
 30
0.0
 11
36.335532
 21
45.652654
 31
0.0
  0
LINE
  5
8B0
100
AcDbEntity
  8
BORDER
  6
CONTINUOUS
 62
     2
100
AcDbLine
 39
96.0
 10
36.804232
 20
45.652654
 30
0.0
 11
36.804232
 21
45.652654
 31
0.0
  0
LINE
  5
8B1
100
AcDbEntity
  8
BORDER
  6
CONTINUOUS
 62
     2
100
AcDbLine
 39
96.0
 10
35.163632
 20
45.183954
 30
0.0
 11
35.163632
 21
45.183954
 31
0.0
  0
LINE
  5
8B2
100
AcDbEntity
  8
BORDER
  6
CONTINUOUS
 62
     2
100
AcDbLine
 39
96.0
 10
35.632432
 20
45.183954
 30
0.0
 11
35.632432
 21
45.183954
 31
0.0
  0
LINE
  5
8B3
100
AcDbEntity
  8
BORDER
  6
CONTINUOUS
 62
     2
100
AcDbLine
 39
96.0
 10
36.101132
 20
45.183954
 30
0.0
 11
36.101132
 21
45.183954
 31
0.0
  0
LINE
  5
8B4
100
AcDbEntity
  8
BORDER
  6
CONTINUOUS
 62
     2
100
AcDbLine
 39
96.0
 10
36.569932
 20
45.183954
 30
0.0
 11
36.569932
 21
45.183954
 31
0.0
  0
LINE
  5
8B5
100
AcDbEntity
  8
BORDER
  6
CONTINUOUS
 62
     2
100
AcDbLine
 39
96.0
 10
35.398032
 20
44.715154
 30
0.0
 11
35.398032
 21
44.715154
 31
0.0
  0
LINE
  5
8B6
100
AcDbEntity
  8
BORDER
  6
CONTINUOUS
 62
     2
100
AcDbLine
 39
96.0
 10
35.866732
 20
44.715154
 30
0.0
 11
35.866732
 21
44.715154
 31
0.0
  0
LINE
  5
8B7
100
AcDbEntity
  8
BORDER
  6
CONTINUOUS
 62
     2
100
AcDbLine
 39
96.0
 10
36.335532
 20
44.715154
 30
0.0
 11
36.335532
 21
44.715154
 31
0.0
  0
LINE
  5
8B8
100
AcDbEntity
  8
BORDER
  6
CONTINUOUS
 62
     2
100
AcDbLine
 39
96.0
 10
36.804232
 20
44.715154
 30
0.0
 11
36.804232
 21
44.715154
 31
0.0
  0
LINE
  5
8B9
100
AcDbEntity
  8
BORDER
  6
CONTINUOUS
 62
     2
100
AcDbLine
 39
96.0
 10
35.163632
 20
44.246454
 30
0.0
 11
35.163632
 21
44.246454
 31
0.0
  0
LINE
  5
8BA
100
AcDbEntity
  8
BORDER
  6
CONTINUOUS
 62
     2
100
AcDbLine
 39
96.0
 10
35.632432
 20
44.246454
 30
0.0
 11
35.632432
 21
44.246454
 31
0.0
  0
LINE
  5
8BB
100
AcDbEntity
  8
BORDER
  6
CONTINUOUS
 62
     2
100
AcDbLine
 39
96.0
 10
36.101132
 20
44.246454
 30
0.0
 11
36.101132
 21
44.246454
 31
0.0
  0
LINE
  5
8BC
100
AcDbEntity
  8
BORDER
  6
CONTINUOUS
 62
     2
100
AcDbLine
 39
96.0
 10
36.569932
 20
44.246454
 30
0.0
 11
36.569932
 21
44.246454
 31
0.0
  0
LINE
  5
8BD
100
AcDbEntity
  8
BORDER
  6
CONTINUOUS
 62
     2
100
AcDbLine
 39
96.0
 10
35.398032
 20
43.777654
 30
0.0
 11
35.398032
 21
43.777654
 31
0.0
  0
LINE
  5
8BE
100
AcDbEntity
  8
BORDER
  6
CONTINUOUS
 62
     2
100
AcDbLine
 39
96.0
 10
35.866732
 20
43.777654
 30
0.0
 11
35.866732
 21
43.777654
 31
0.0
  0
LINE
  5
8BF
100
AcDbEntity
  8
BORDER
  6
CONTINUOUS
 62
     2
100
AcDbLine
 39
96.0
 10
36.335532
 20
43.777654
 30
0.0
 11
36.335532
 21
43.777654
 31
0.0
  0
LINE
  5
8C0
100
AcDbEntity
  8
BORDER
  6
CONTINUOUS
 62
     2
100
AcDbLine
 39
96.0
 10
36.804232
 20
43.777654
 30
0.0
 11
36.804232
 21
43.777654
 31
0.0
  0
LINE
  5
8C1
100
AcDbEntity
  8
BORDER
  6
CONTINUOUS
 62
     2
100
AcDbLine
 39
96.0
 10
35.163632
 20
43.308954
 30
0.0
 11
35.163632
 21
43.308954
 31
0.0
  0
LINE
  5
8C2
100
AcDbEntity
  8
BORDER
  6
CONTINUOUS
 62
     2
100
AcDbLine
 39
96.0
 10
35.632432
 20
43.308954
 30
0.0
 11
35.632432
 21
43.308954
 31
0.0
  0
LINE
  5
8C3
100
AcDbEntity
  8
BORDER
  6
CONTINUOUS
 62
     2
100
AcDbLine
 39
96.0
 10
36.101132
 20
43.308954
 30
0.0
 11
36.101132
 21
43.308954
 31
0.0
  0
LINE
  5
8C4
100
AcDbEntity
  8
BORDER
  6
CONTINUOUS
 62
     2
100
AcDbLine
 39
96.0
 10
36.569932
 20
43.308954
 30
0.0
 11
36.569932
 21
43.308954
 31
0.0
  0
LINE
  5
8C5
100
AcDbEntity
  8
BORDER
  6
CONTINUOUS
 62
     2
100
AcDbLine
 39
96.0
 10
35.398032
 20
42.840154
 30
0.0
 11
35.398032
 21
42.840154
 31
0.0
  0
LINE
  5
8C6
100
AcDbEntity
  8
BORDER
  6
CONTINUOUS
 62
     2
100
AcDbLine
 39
96.0
 10
35.866732
 20
42.840154
 30
0.0
 11
35.866732
 21
42.840154
 31
0.0
  0
LINE
  5
8C7
100
AcDbEntity
  8
BORDER
  6
CONTINUOUS
 62
     2
100
AcDbLine
 39
96.0
 10
36.335532
 20
42.840154
 30
0.0
 11
36.335532
 21
42.840154
 31
0.0
  0
LINE
  5
8C8
100
AcDbEntity
  8
BORDER
  6
CONTINUOUS
 62
     2
100
AcDbLine
 39
96.0
 10
36.804232
 20
42.840154
 30
0.0
 11
36.804232
 21
42.840154
 31
0.0
  0
LINE
  5
8C9
100
AcDbEntity
  8
BORDER
  6
CONTINUOUS
 62
     2
100
AcDbLine
 39
96.0
 10
35.163632
 20
42.371454
 30
0.0
 11
35.163632
 21
42.371454
 31
0.0
  0
LINE
  5
8CA
100
AcDbEntity
  8
BORDER
  6
CONTINUOUS
 62
     2
100
AcDbLine
 39
96.0
 10
35.632432
 20
42.371454
 30
0.0
 11
35.632432
 21
42.371454
 31
0.0
  0
LINE
  5
8CB
100
AcDbEntity
  8
BORDER
  6
CONTINUOUS
 62
     2
100
AcDbLine
 39
96.0
 10
36.101132
 20
42.371454
 30
0.0
 11
36.101132
 21
42.371454
 31
0.0
  0
LINE
  5
8CC
100
AcDbEntity
  8
BORDER
  6
CONTINUOUS
 62
     2
100
AcDbLine
 39
96.0
 10
36.569932
 20
42.371454
 30
0.0
 11
36.569932
 21
42.371454
 31
0.0
  0
LINE
  5
8CD
100
AcDbEntity
  8
BORDER
  6
CONTINUOUS
 62
     2
100
AcDbLine
 39
96.0
 10
35.398032
 20
41.902654
 30
0.0
 11
35.398032
 21
41.902654
 31
0.0
  0
LINE
  5
8CE
100
AcDbEntity
  8
BORDER
  6
CONTINUOUS
 62
     2
100
AcDbLine
 39
96.0
 10
35.866732
 20
41.902654
 30
0.0
 11
35.866732
 21
41.902654
 31
0.0
  0
LINE
  5
8CF
100
AcDbEntity
  8
BORDER
  6
CONTINUOUS
 62
     2
100
AcDbLine
 39
96.0
 10
36.335532
 20
41.902654
 30
0.0
 11
36.335532
 21
41.902654
 31
0.0
  0
LINE
  5
8D0
100
AcDbEntity
  8
BORDER
  6
CONTINUOUS
 62
     2
100
AcDbLine
 39
96.0
 10
36.804232
 20
41.902654
 30
0.0
 11
36.804232
 21
41.902654
 31
0.0
  0
LINE
  5
8D1
100
AcDbEntity
  8
BORDER
  6
CONTINUOUS
 62
     2
100
AcDbLine
 39
96.0
 10
35.163632
 20
41.433954
 30
0.0
 11
35.163632
 21
41.433954
 31
0.0
  0
LINE
  5
8D2
100
AcDbEntity
  8
BORDER
  6
CONTINUOUS
 62
     2
100
AcDbLine
 39
96.0
 10
35.632432
 20
41.433954
 30
0.0
 11
35.632432
 21
41.433954
 31
0.0
  0
LINE
  5
8D3
100
AcDbEntity
  8
BORDER
  6
CONTINUOUS
 62
     2
100
AcDbLine
 39
96.0
 10
36.101132
 20
41.433954
 30
0.0
 11
36.101132
 21
41.433954
 31
0.0
  0
LINE
  5
8D4
100
AcDbEntity
  8
BORDER
  6
CONTINUOUS
 62
     2
100
AcDbLine
 39
96.0
 10
36.569932
 20
41.433954
 30
0.0
 11
36.569932
 21
41.433954
 31
0.0
  0
LINE
  5
8D5
100
AcDbEntity
  8
BORDER
  6
CONTINUOUS
 62
     2
100
AcDbLine
 39
96.0
 10
35.398032
 20
40.965154
 30
0.0
 11
35.398032
 21
40.965154
 31
0.0
  0
LINE
  5
8D6
100
AcDbEntity
  8
BORDER
  6
CONTINUOUS
 62
     2
100
AcDbLine
 39
96.0
 10
35.866732
 20
40.965154
 30
0.0
 11
35.866732
 21
40.965154
 31
0.0
  0
LINE
  5
8D7
100
AcDbEntity
  8
BORDER
  6
CONTINUOUS
 62
     2
100
AcDbLine
 39
96.0
 10
36.335532
 20
40.965154
 30
0.0
 11
36.335532
 21
40.965154
 31
0.0
  0
LINE
  5
8D8
100
AcDbEntity
  8
BORDER
  6
CONTINUOUS
 62
     2
100
AcDbLine
 39
96.0
 10
36.804232
 20
40.965154
 30
0.0
 11
36.804232
 21
40.965154
 31
0.0
  0
LINE
  5
8D9
100
AcDbEntity
  8
BORDER
  6
CONTINUOUS
 62
     2
100
AcDbLine
 39
96.0
 10
35.163632
 20
40.496454
 30
0.0
 11
35.163632
 21
40.496454
 31
0.0
  0
LINE
  5
8DA
100
AcDbEntity
  8
BORDER
  6
CONTINUOUS
 62
     2
100
AcDbLine
 39
96.0
 10
35.632432
 20
40.496454
 30
0.0
 11
35.632432
 21
40.496454
 31
0.0
  0
LINE
  5
8DB
100
AcDbEntity
  8
BORDER
  6
CONTINUOUS
 62
     2
100
AcDbLine
 39
96.0
 10
36.101132
 20
40.496454
 30
0.0
 11
36.101132
 21
40.496454
 31
0.0
  0
LINE
  5
8DC
100
AcDbEntity
  8
BORDER
  6
CONTINUOUS
 62
     2
100
AcDbLine
 39
96.0
 10
36.569932
 20
40.496454
 30
0.0
 11
36.569932
 21
40.496454
 31
0.0
  0
LINE
  5
8DD
100
AcDbEntity
  8
BORDER
  6
CONTINUOUS
 62
     2
100
AcDbLine
 39
96.0
 10
35.398032
 20
40.027654
 30
0.0
 11
35.398032
 21
40.027654
 31
0.0
  0
LINE
  5
8DE
100
AcDbEntity
  8
BORDER
  6
CONTINUOUS
 62
     2
100
AcDbLine
 39
96.0
 10
35.866732
 20
40.027654
 30
0.0
 11
35.866732
 21
40.027654
 31
0.0
  0
LINE
  5
8DF
100
AcDbEntity
  8
BORDER
  6
CONTINUOUS
 62
     2
100
AcDbLine
 39
96.0
 10
36.335532
 20
40.027654
 30
0.0
 11
36.335532
 21
40.027654
 31
0.0
  0
LINE
  5
8E0
100
AcDbEntity
  8
BORDER
  6
CONTINUOUS
 62
     2
100
AcDbLine
 39
96.0
 10
36.804232
 20
40.027654
 30
0.0
 11
36.804232
 21
40.027654
 31
0.0
  0
LINE
  5
8E1
100
AcDbEntity
  8
BORDER
  6
CONTINUOUS
 62
     2
100
AcDbLine
 39
96.0
 10
35.163632
 20
39.558954
 30
0.0
 11
35.163632
 21
39.558954
 31
0.0
  0
LINE
  5
8E2
100
AcDbEntity
  8
BORDER
  6
CONTINUOUS
 62
     2
100
AcDbLine
 39
96.0
 10
35.632432
 20
39.558954
 30
0.0
 11
35.632432
 21
39.558954
 31
0.0
  0
LINE
  5
8E3
100
AcDbEntity
  8
BORDER
  6
CONTINUOUS
 62
     2
100
AcDbLine
 39
96.0
 10
36.101132
 20
39.558954
 30
0.0
 11
36.101132
 21
39.558954
 31
0.0
  0
LINE
  5
8E4
100
AcDbEntity
  8
BORDER
  6
CONTINUOUS
 62
     2
100
AcDbLine
 39
96.0
 10
36.569932
 20
39.558954
 30
0.0
 11
36.569932
 21
39.558954
 31
0.0
  0
LINE
  5
8E5
100
AcDbEntity
  8
BORDER
  6
CONTINUOUS
 62
     2
100
AcDbLine
 39
96.0
 10
35.398032
 20
39.090154
 30
0.0
 11
35.398032
 21
39.090154
 31
0.0
  0
LINE
  5
8E6
100
AcDbEntity
  8
BORDER
  6
CONTINUOUS
 62
     2
100
AcDbLine
 39
96.0
 10
35.866732
 20
39.090154
 30
0.0
 11
35.866732
 21
39.090154
 31
0.0
  0
LINE
  5
8E7
100
AcDbEntity
  8
BORDER
  6
CONTINUOUS
 62
     2
100
AcDbLine
 39
96.0
 10
36.335532
 20
39.090154
 30
0.0
 11
36.335532
 21
39.090154
 31
0.0
  0
LINE
  5
8E8
100
AcDbEntity
  8
BORDER
  6
CONTINUOUS
 62
     2
100
AcDbLine
 39
96.0
 10
36.804232
 20
39.090154
 30
0.0
 11
36.804232
 21
39.090154
 31
0.0
  0
LINE
  5
8E9
100
AcDbEntity
  8
BORDER
  6
CONTINUOUS
 62
     2
100
AcDbLine
 39
96.0
 10
35.163632
 20
38.621454
 30
0.0
 11
35.163632
 21
38.621454
 31
0.0
  0
LINE
  5
8EA
100
AcDbEntity
  8
BORDER
  6
CONTINUOUS
 62
     2
100
AcDbLine
 39
96.0
 10
35.632432
 20
38.621454
 30
0.0
 11
35.632432
 21
38.621454
 31
0.0
  0
LINE
  5
8EB
100
AcDbEntity
  8
BORDER
  6
CONTINUOUS
 62
     2
100
AcDbLine
 39
96.0
 10
36.101132
 20
38.621454
 30
0.0
 11
36.101132
 21
38.621454
 31
0.0
  0
LINE
  5
8EC
100
AcDbEntity
  8
BORDER
  6
CONTINUOUS
 62
     2
100
AcDbLine
 39
96.0
 10
36.569932
 20
38.621454
 30
0.0
 11
36.569932
 21
38.621454
 31
0.0
  0
LINE
  5
8ED
100
AcDbEntity
  8
BORDER
  6
CONTINUOUS
 62
     2
100
AcDbLine
 39
96.0
 10
35.398032
 20
38.152654
 30
0.0
 11
35.398032
 21
38.152654
 31
0.0
  0
LINE
  5
8EE
100
AcDbEntity
  8
BORDER
  6
CONTINUOUS
 62
     2
100
AcDbLine
 39
96.0
 10
35.866732
 20
38.152654
 30
0.0
 11
35.866732
 21
38.152654
 31
0.0
  0
LINE
  5
8EF
100
AcDbEntity
  8
BORDER
  6
CONTINUOUS
 62
     2
100
AcDbLine
 39
96.0
 10
36.335532
 20
38.152654
 30
0.0
 11
36.335532
 21
38.152654
 31
0.0
  0
LINE
  5
8F0
100
AcDbEntity
  8
BORDER
  6
CONTINUOUS
 62
     2
100
AcDbLine
 39
96.0
 10
36.804232
 20
38.152654
 30
0.0
 11
36.804232
 21
38.152654
 31
0.0
  0
LINE
  5
8F1
100
AcDbEntity
  8
BORDER
  6
CONTINUOUS
 62
     2
100
AcDbLine
 39
96.0
 10
35.163632
 20
37.683954
 30
0.0
 11
35.163632
 21
37.683954
 31
0.0
  0
LINE
  5
8F2
100
AcDbEntity
  8
BORDER
  6
CONTINUOUS
 62
     2
100
AcDbLine
 39
96.0
 10
35.632432
 20
37.683954
 30
0.0
 11
35.632432
 21
37.683954
 31
0.0
  0
LINE
  5
8F3
100
AcDbEntity
  8
BORDER
  6
CONTINUOUS
 62
     2
100
AcDbLine
 39
96.0
 10
36.101132
 20
37.683954
 30
0.0
 11
36.101132
 21
37.683954
 31
0.0
  0
LINE
  5
8F4
100
AcDbEntity
  8
BORDER
  6
CONTINUOUS
 62
     2
100
AcDbLine
 39
96.0
 10
36.569932
 20
37.683954
 30
0.0
 11
36.569932
 21
37.683954
 31
0.0
  0
LINE
  5
8F5
100
AcDbEntity
  8
BORDER
  6
CONTINUOUS
 62
     2
100
AcDbLine
 39
96.0
 10
35.398032
 20
37.215154
 30
0.0
 11
35.398032
 21
37.215154
 31
0.0
  0
LINE
  5
8F6
100
AcDbEntity
  8
BORDER
  6
CONTINUOUS
 62
     2
100
AcDbLine
 39
96.0
 10
35.866732
 20
37.215154
 30
0.0
 11
35.866732
 21
37.215154
 31
0.0
  0
LINE
  5
8F7
100
AcDbEntity
  8
BORDER
  6
CONTINUOUS
 62
     2
100
AcDbLine
 39
96.0
 10
36.335532
 20
37.215154
 30
0.0
 11
36.335532
 21
37.215154
 31
0.0
  0
LINE
  5
8F8
100
AcDbEntity
  8
BORDER
  6
CONTINUOUS
 62
     2
100
AcDbLine
 39
96.0
 10
36.804232
 20
37.215154
 30
0.0
 11
36.804232
 21
37.215154
 31
0.0
  0
LINE
  5
8F9
100
AcDbEntity
  8
BORDER
  6
CONTINUOUS
 62
     2
100
AcDbLine
 39
96.0
 10
35.163632
 20
36.746454
 30
0.0
 11
35.163632
 21
36.746454
 31
0.0
  0
LINE
  5
8FA
100
AcDbEntity
  8
BORDER
  6
CONTINUOUS
 62
     2
100
AcDbLine
 39
96.0
 10
35.632432
 20
36.746454
 30
0.0
 11
35.632432
 21
36.746454
 31
0.0
  0
LINE
  5
8FB
100
AcDbEntity
  8
BORDER
  6
CONTINUOUS
 62
     2
100
AcDbLine
 39
96.0
 10
36.101132
 20
36.746454
 30
0.0
 11
36.101132
 21
36.746454
 31
0.0
  0
LINE
  5
8FC
100
AcDbEntity
  8
BORDER
  6
CONTINUOUS
 62
     2
100
AcDbLine
 39
96.0
 10
36.569932
 20
36.746454
 30
0.0
 11
36.569932
 21
36.746454
 31
0.0
  0
LINE
  5
8FD
100
AcDbEntity
  8
BORDER
  6
CONTINUOUS
 62
     2
100
AcDbLine
 39
96.0
 10
35.398032
 20
36.277654
 30
0.0
 11
35.398032
 21
36.277654
 31
0.0
  0
LINE
  5
8FE
100
AcDbEntity
  8
BORDER
  6
CONTINUOUS
 62
     2
100
AcDbLine
 39
96.0
 10
35.866732
 20
36.277654
 30
0.0
 11
35.866732
 21
36.277654
 31
0.0
  0
LINE
  5
8FF
100
AcDbEntity
  8
BORDER
  6
CONTINUOUS
 62
     2
100
AcDbLine
 39
96.0
 10
36.335532
 20
36.277654
 30
0.0
 11
36.335532
 21
36.277654
 31
0.0
  0
LINE
  5
900
100
AcDbEntity
  8
BORDER
  6
CONTINUOUS
 62
     2
100
AcDbLine
 39
96.0
 10
36.804232
 20
36.277654
 30
0.0
 11
36.804232
 21
36.277654
 31
0.0
  0
LINE
  5
901
100
AcDbEntity
  8
BORDER
  6
CONTINUOUS
 62
     2
100
AcDbLine
 39
96.0
 10
43.132432
 20
50.808954
 30
0.0
 11
43.132432
 21
50.808954
 31
0.0
  0
LINE
  5
902
100
AcDbEntity
  8
BORDER
  6
CONTINUOUS
 62
     2
100
AcDbLine
 39
96.0
 10
43.601132
 20
50.808954
 30
0.0
 11
43.601132
 21
50.808954
 31
0.0
  0
LINE
  5
903
100
AcDbEntity
  8
BORDER
  6
CONTINUOUS
 62
     2
100
AcDbLine
 39
96.0
 10
44.069932
 20
50.808954
 30
0.0
 11
44.069932
 21
50.808954
 31
0.0
  0
LINE
  5
904
100
AcDbEntity
  8
BORDER
  6
CONTINUOUS
 62
     2
100
AcDbLine
 39
96.0
 10
44.538632
 20
50.808954
 30
0.0
 11
44.538632
 21
50.808954
 31
0.0
  0
LINE
  5
905
100
AcDbEntity
  8
BORDER
  6
CONTINUOUS
 62
     2
100
AcDbLine
 39
96.0
 10
43.366732
 20
50.340154
 30
0.0
 11
43.366732
 21
50.340154
 31
0.0
  0
LINE
  5
906
100
AcDbEntity
  8
BORDER
  6
CONTINUOUS
 62
     2
100
AcDbLine
 39
96.0
 10
43.835532
 20
50.340154
 30
0.0
 11
43.835532
 21
50.340154
 31
0.0
  0
LINE
  5
907
100
AcDbEntity
  8
BORDER
  6
CONTINUOUS
 62
     2
100
AcDbLine
 39
96.0
 10
44.304232
 20
50.340154
 30
0.0
 11
44.304232
 21
50.340154
 31
0.0
  0
LINE
  5
908
100
AcDbEntity
  8
BORDER
  6
CONTINUOUS
 62
     2
100
AcDbLine
 39
96.0
 10
44.773032
 20
50.340154
 30
0.0
 11
44.773032
 21
50.340154
 31
0.0
  0
LINE
  5
909
100
AcDbEntity
  8
BORDER
  6
CONTINUOUS
 62
     2
100
AcDbLine
 39
96.0
 10
43.132432
 20
49.871454
 30
0.0
 11
43.132432
 21
49.871454
 31
0.0
  0
LINE
  5
90A
100
AcDbEntity
  8
BORDER
  6
CONTINUOUS
 62
     2
100
AcDbLine
 39
96.0
 10
43.601132
 20
49.871454
 30
0.0
 11
43.601132
 21
49.871454
 31
0.0
  0
LINE
  5
90B
100
AcDbEntity
  8
BORDER
  6
CONTINUOUS
 62
     2
100
AcDbLine
 39
96.0
 10
44.069932
 20
49.871454
 30
0.0
 11
44.069932
 21
49.871454
 31
0.0
  0
LINE
  5
90C
100
AcDbEntity
  8
BORDER
  6
CONTINUOUS
 62
     2
100
AcDbLine
 39
96.0
 10
44.538632
 20
49.871454
 30
0.0
 11
44.538632
 21
49.871454
 31
0.0
  0
LINE
  5
90D
100
AcDbEntity
  8
BORDER
  6
CONTINUOUS
 62
     2
100
AcDbLine
 39
96.0
 10
43.366732
 20
49.402654
 30
0.0
 11
43.366732
 21
49.402654
 31
0.0
  0
LINE
  5
90E
100
AcDbEntity
  8
BORDER
  6
CONTINUOUS
 62
     2
100
AcDbLine
 39
96.0
 10
43.835532
 20
49.402654
 30
0.0
 11
43.835532
 21
49.402654
 31
0.0
  0
LINE
  5
90F
100
AcDbEntity
  8
BORDER
  6
CONTINUOUS
 62
     2
100
AcDbLine
 39
96.0
 10
44.304232
 20
49.402654
 30
0.0
 11
44.304232
 21
49.402654
 31
0.0
  0
LINE
  5
910
100
AcDbEntity
  8
BORDER
  6
CONTINUOUS
 62
     2
100
AcDbLine
 39
96.0
 10
44.773032
 20
49.402654
 30
0.0
 11
44.773032
 21
49.402654
 31
0.0
  0
LINE
  5
911
100
AcDbEntity
  8
BORDER
  6
CONTINUOUS
 62
     2
100
AcDbLine
 39
96.0
 10
43.132432
 20
48.933954
 30
0.0
 11
43.132432
 21
48.933954
 31
0.0
  0
LINE
  5
912
100
AcDbEntity
  8
BORDER
  6
CONTINUOUS
 62
     2
100
AcDbLine
 39
96.0
 10
43.601132
 20
48.933954
 30
0.0
 11
43.601132
 21
48.933954
 31
0.0
  0
LINE
  5
913
100
AcDbEntity
  8
BORDER
  6
CONTINUOUS
 62
     2
100
AcDbLine
 39
96.0
 10
44.069932
 20
48.933954
 30
0.0
 11
44.069932
 21
48.933954
 31
0.0
  0
LINE
  5
914
100
AcDbEntity
  8
BORDER
  6
CONTINUOUS
 62
     2
100
AcDbLine
 39
96.0
 10
44.538632
 20
48.933954
 30
0.0
 11
44.538632
 21
48.933954
 31
0.0
  0
LINE
  5
915
100
AcDbEntity
  8
BORDER
  6
CONTINUOUS
 62
     2
100
AcDbLine
 39
96.0
 10
43.366732
 20
48.465154
 30
0.0
 11
43.366732
 21
48.465154
 31
0.0
  0
LINE
  5
916
100
AcDbEntity
  8
BORDER
  6
CONTINUOUS
 62
     2
100
AcDbLine
 39
96.0
 10
43.835532
 20
48.465154
 30
0.0
 11
43.835532
 21
48.465154
 31
0.0
  0
LINE
  5
917
100
AcDbEntity
  8
BORDER
  6
CONTINUOUS
 62
     2
100
AcDbLine
 39
96.0
 10
44.304232
 20
48.465154
 30
0.0
 11
44.304232
 21
48.465154
 31
0.0
  0
LINE
  5
918
100
AcDbEntity
  8
BORDER
  6
CONTINUOUS
 62
     2
100
AcDbLine
 39
96.0
 10
44.773032
 20
48.465154
 30
0.0
 11
44.773032
 21
48.465154
 31
0.0
  0
LINE
  5
919
100
AcDbEntity
  8
BORDER
  6
CONTINUOUS
 62
     2
100
AcDbLine
 39
96.0
 10
43.132432
 20
47.996454
 30
0.0
 11
43.132432
 21
47.996454
 31
0.0
  0
LINE
  5
91A
100
AcDbEntity
  8
BORDER
  6
CONTINUOUS
 62
     2
100
AcDbLine
 39
96.0
 10
43.601132
 20
47.996454
 30
0.0
 11
43.601132
 21
47.996454
 31
0.0
  0
LINE
  5
91B
100
AcDbEntity
  8
BORDER
  6
CONTINUOUS
 62
     2
100
AcDbLine
 39
96.0
 10
44.069932
 20
47.996454
 30
0.0
 11
44.069932
 21
47.996454
 31
0.0
  0
LINE
  5
91C
100
AcDbEntity
  8
BORDER
  6
CONTINUOUS
 62
     2
100
AcDbLine
 39
96.0
 10
44.538632
 20
47.996454
 30
0.0
 11
44.538632
 21
47.996454
 31
0.0
  0
LINE
  5
91D
100
AcDbEntity
  8
BORDER
  6
CONTINUOUS
 62
     2
100
AcDbLine
 39
96.0
 10
43.366732
 20
47.527654
 30
0.0
 11
43.366732
 21
47.527654
 31
0.0
  0
LINE
  5
91E
100
AcDbEntity
  8
BORDER
  6
CONTINUOUS
 62
     2
100
AcDbLine
 39
96.0
 10
43.835532
 20
47.527654
 30
0.0
 11
43.835532
 21
47.527654
 31
0.0
  0
LINE
  5
91F
100
AcDbEntity
  8
BORDER
  6
CONTINUOUS
 62
     2
100
AcDbLine
 39
96.0
 10
44.304232
 20
47.527654
 30
0.0
 11
44.304232
 21
47.527654
 31
0.0
  0
LINE
  5
920
100
AcDbEntity
  8
BORDER
  6
CONTINUOUS
 62
     2
100
AcDbLine
 39
96.0
 10
44.773032
 20
47.527654
 30
0.0
 11
44.773032
 21
47.527654
 31
0.0
  0
LINE
  5
921
100
AcDbEntity
  8
BORDER
  6
CONTINUOUS
 62
     2
100
AcDbLine
 39
96.0
 10
43.132432
 20
47.058954
 30
0.0
 11
43.132432
 21
47.058954
 31
0.0
  0
LINE
  5
922
100
AcDbEntity
  8
BORDER
  6
CONTINUOUS
 62
     2
100
AcDbLine
 39
96.0
 10
43.601132
 20
47.058954
 30
0.0
 11
43.601132
 21
47.058954
 31
0.0
  0
LINE
  5
923
100
AcDbEntity
  8
BORDER
  6
CONTINUOUS
 62
     2
100
AcDbLine
 39
96.0
 10
44.069932
 20
47.058954
 30
0.0
 11
44.069932
 21
47.058954
 31
0.0
  0
LINE
  5
924
100
AcDbEntity
  8
BORDER
  6
CONTINUOUS
 62
     2
100
AcDbLine
 39
96.0
 10
44.538632
 20
47.058954
 30
0.0
 11
44.538632
 21
47.058954
 31
0.0
  0
LINE
  5
925
100
AcDbEntity
  8
BORDER
  6
CONTINUOUS
 62
     2
100
AcDbLine
 39
96.0
 10
43.366732
 20
46.590154
 30
0.0
 11
43.366732
 21
46.590154
 31
0.0
  0
LINE
  5
926
100
AcDbEntity
  8
BORDER
  6
CONTINUOUS
 62
     2
100
AcDbLine
 39
96.0
 10
43.835532
 20
46.590154
 30
0.0
 11
43.835532
 21
46.590154
 31
0.0
  0
LINE
  5
927
100
AcDbEntity
  8
BORDER
  6
CONTINUOUS
 62
     2
100
AcDbLine
 39
96.0
 10
44.304232
 20
46.590154
 30
0.0
 11
44.304232
 21
46.590154
 31
0.0
  0
LINE
  5
928
100
AcDbEntity
  8
BORDER
  6
CONTINUOUS
 62
     2
100
AcDbLine
 39
96.0
 10
44.773032
 20
46.590154
 30
0.0
 11
44.773032
 21
46.590154
 31
0.0
  0
LINE
  5
929
100
AcDbEntity
  8
BORDER
  6
CONTINUOUS
 62
     2
100
AcDbLine
 39
96.0
 10
43.132432
 20
46.121454
 30
0.0
 11
43.132432
 21
46.121454
 31
0.0
  0
LINE
  5
92A
100
AcDbEntity
  8
BORDER
  6
CONTINUOUS
 62
     2
100
AcDbLine
 39
96.0
 10
43.601132
 20
46.121454
 30
0.0
 11
43.601132
 21
46.121454
 31
0.0
  0
LINE
  5
92B
100
AcDbEntity
  8
BORDER
  6
CONTINUOUS
 62
     2
100
AcDbLine
 39
96.0
 10
44.069932
 20
46.121454
 30
0.0
 11
44.069932
 21
46.121454
 31
0.0
  0
LINE
  5
92C
100
AcDbEntity
  8
BORDER
  6
CONTINUOUS
 62
     2
100
AcDbLine
 39
96.0
 10
44.538632
 20
46.121454
 30
0.0
 11
44.538632
 21
46.121454
 31
0.0
  0
LINE
  5
92D
100
AcDbEntity
  8
BORDER
  6
CONTINUOUS
 62
     2
100
AcDbLine
 39
96.0
 10
43.366732
 20
45.652654
 30
0.0
 11
43.366732
 21
45.652654
 31
0.0
  0
LINE
  5
92E
100
AcDbEntity
  8
BORDER
  6
CONTINUOUS
 62
     2
100
AcDbLine
 39
96.0
 10
43.835532
 20
45.652654
 30
0.0
 11
43.835532
 21
45.652654
 31
0.0
  0
LINE
  5
92F
100
AcDbEntity
  8
BORDER
  6
CONTINUOUS
 62
     2
100
AcDbLine
 39
96.0
 10
44.304232
 20
45.652654
 30
0.0
 11
44.304232
 21
45.652654
 31
0.0
  0
LINE
  5
930
100
AcDbEntity
  8
BORDER
  6
CONTINUOUS
 62
     2
100
AcDbLine
 39
96.0
 10
44.773032
 20
45.652654
 30
0.0
 11
44.773032
 21
45.652654
 31
0.0
  0
LINE
  5
931
100
AcDbEntity
  8
BORDER
  6
CONTINUOUS
 62
     2
100
AcDbLine
 39
96.0
 10
43.132432
 20
45.183954
 30
0.0
 11
43.132432
 21
45.183954
 31
0.0
  0
LINE
  5
932
100
AcDbEntity
  8
BORDER
  6
CONTINUOUS
 62
     2
100
AcDbLine
 39
96.0
 10
43.601132
 20
45.183954
 30
0.0
 11
43.601132
 21
45.183954
 31
0.0
  0
LINE
  5
933
100
AcDbEntity
  8
BORDER
  6
CONTINUOUS
 62
     2
100
AcDbLine
 39
96.0
 10
44.069932
 20
45.183954
 30
0.0
 11
44.069932
 21
45.183954
 31
0.0
  0
LINE
  5
934
100
AcDbEntity
  8
BORDER
  6
CONTINUOUS
 62
     2
100
AcDbLine
 39
96.0
 10
44.538632
 20
45.183954
 30
0.0
 11
44.538632
 21
45.183954
 31
0.0
  0
LINE
  5
935
100
AcDbEntity
  8
BORDER
  6
CONTINUOUS
 62
     2
100
AcDbLine
 39
96.0
 10
43.366732
 20
44.715154
 30
0.0
 11
43.366732
 21
44.715154
 31
0.0
  0
LINE
  5
936
100
AcDbEntity
  8
BORDER
  6
CONTINUOUS
 62
     2
100
AcDbLine
 39
96.0
 10
43.835532
 20
44.715154
 30
0.0
 11
43.835532
 21
44.715154
 31
0.0
  0
LINE
  5
937
100
AcDbEntity
  8
BORDER
  6
CONTINUOUS
 62
     2
100
AcDbLine
 39
96.0
 10
44.304232
 20
44.715154
 30
0.0
 11
44.304232
 21
44.715154
 31
0.0
  0
LINE
  5
938
100
AcDbEntity
  8
BORDER
  6
CONTINUOUS
 62
     2
100
AcDbLine
 39
96.0
 10
44.773032
 20
44.715154
 30
0.0
 11
44.773032
 21
44.715154
 31
0.0
  0
LINE
  5
939
100
AcDbEntity
  8
BORDER
  6
CONTINUOUS
 62
     2
100
AcDbLine
 39
96.0
 10
43.132432
 20
44.246454
 30
0.0
 11
43.132432
 21
44.246454
 31
0.0
  0
LINE
  5
93A
100
AcDbEntity
  8
BORDER
  6
CONTINUOUS
 62
     2
100
AcDbLine
 39
96.0
 10
43.601132
 20
44.246454
 30
0.0
 11
43.601132
 21
44.246454
 31
0.0
  0
LINE
  5
93B
100
AcDbEntity
  8
BORDER
  6
CONTINUOUS
 62
     2
100
AcDbLine
 39
96.0
 10
44.069932
 20
44.246454
 30
0.0
 11
44.069932
 21
44.246454
 31
0.0
  0
LINE
  5
93C
100
AcDbEntity
  8
BORDER
  6
CONTINUOUS
 62
     2
100
AcDbLine
 39
96.0
 10
44.538632
 20
44.246454
 30
0.0
 11
44.538632
 21
44.246454
 31
0.0
  0
LINE
  5
93D
100
AcDbEntity
  8
BORDER
  6
CONTINUOUS
 62
     2
100
AcDbLine
 39
96.0
 10
43.366732
 20
43.777654
 30
0.0
 11
43.366732
 21
43.777654
 31
0.0
  0
LINE
  5
93E
100
AcDbEntity
  8
BORDER
  6
CONTINUOUS
 62
     2
100
AcDbLine
 39
96.0
 10
43.835532
 20
43.777654
 30
0.0
 11
43.835532
 21
43.777654
 31
0.0
  0
LINE
  5
93F
100
AcDbEntity
  8
BORDER
  6
CONTINUOUS
 62
     2
100
AcDbLine
 39
96.0
 10
44.304232
 20
43.777654
 30
0.0
 11
44.304232
 21
43.777654
 31
0.0
  0
LINE
  5
940
100
AcDbEntity
  8
BORDER
  6
CONTINUOUS
 62
     2
100
AcDbLine
 39
96.0
 10
44.773032
 20
43.777654
 30
0.0
 11
44.773032
 21
43.777654
 31
0.0
  0
LINE
  5
941
100
AcDbEntity
  8
BORDER
  6
CONTINUOUS
 62
     2
100
AcDbLine
 39
96.0
 10
43.132432
 20
43.308954
 30
0.0
 11
43.132432
 21
43.308954
 31
0.0
  0
LINE
  5
942
100
AcDbEntity
  8
BORDER
  6
CONTINUOUS
 62
     2
100
AcDbLine
 39
96.0
 10
43.601132
 20
43.308954
 30
0.0
 11
43.601132
 21
43.308954
 31
0.0
  0
LINE
  5
943
100
AcDbEntity
  8
BORDER
  6
CONTINUOUS
 62
     2
100
AcDbLine
 39
96.0
 10
44.069932
 20
43.308954
 30
0.0
 11
44.069932
 21
43.308954
 31
0.0
  0
LINE
  5
944
100
AcDbEntity
  8
BORDER
  6
CONTINUOUS
 62
     2
100
AcDbLine
 39
96.0
 10
44.538632
 20
43.308954
 30
0.0
 11
44.538632
 21
43.308954
 31
0.0
  0
LINE
  5
945
100
AcDbEntity
  8
BORDER
  6
CONTINUOUS
 62
     2
100
AcDbLine
 39
96.0
 10
43.366732
 20
42.840154
 30
0.0
 11
43.366732
 21
42.840154
 31
0.0
  0
LINE
  5
946
100
AcDbEntity
  8
BORDER
  6
CONTINUOUS
 62
     2
100
AcDbLine
 39
96.0
 10
43.835532
 20
42.840154
 30
0.0
 11
43.835532
 21
42.840154
 31
0.0
  0
LINE
  5
947
100
AcDbEntity
  8
BORDER
  6
CONTINUOUS
 62
     2
100
AcDbLine
 39
96.0
 10
44.304232
 20
42.840154
 30
0.0
 11
44.304232
 21
42.840154
 31
0.0
  0
LINE
  5
948
100
AcDbEntity
  8
BORDER
  6
CONTINUOUS
 62
     2
100
AcDbLine
 39
96.0
 10
44.773032
 20
42.840154
 30
0.0
 11
44.773032
 21
42.840154
 31
0.0
  0
LINE
  5
949
100
AcDbEntity
  8
BORDER
  6
CONTINUOUS
 62
     2
100
AcDbLine
 39
96.0
 10
43.132432
 20
42.371454
 30
0.0
 11
43.132432
 21
42.371454
 31
0.0
  0
LINE
  5
94A
100
AcDbEntity
  8
BORDER
  6
CONTINUOUS
 62
     2
100
AcDbLine
 39
96.0
 10
43.601132
 20
42.371454
 30
0.0
 11
43.601132
 21
42.371454
 31
0.0
  0
LINE
  5
94B
100
AcDbEntity
  8
BORDER
  6
CONTINUOUS
 62
     2
100
AcDbLine
 39
96.0
 10
44.069932
 20
42.371454
 30
0.0
 11
44.069932
 21
42.371454
 31
0.0
  0
LINE
  5
94C
100
AcDbEntity
  8
BORDER
  6
CONTINUOUS
 62
     2
100
AcDbLine
 39
96.0
 10
44.538632
 20
42.371454
 30
0.0
 11
44.538632
 21
42.371454
 31
0.0
  0
LINE
  5
94D
100
AcDbEntity
  8
BORDER
  6
CONTINUOUS
 62
     2
100
AcDbLine
 39
96.0
 10
43.366732
 20
41.902654
 30
0.0
 11
43.366732
 21
41.902654
 31
0.0
  0
LINE
  5
94E
100
AcDbEntity
  8
BORDER
  6
CONTINUOUS
 62
     2
100
AcDbLine
 39
96.0
 10
43.835532
 20
41.902654
 30
0.0
 11
43.835532
 21
41.902654
 31
0.0
  0
LINE
  5
94F
100
AcDbEntity
  8
BORDER
  6
CONTINUOUS
 62
     2
100
AcDbLine
 39
96.0
 10
44.304232
 20
41.902654
 30
0.0
 11
44.304232
 21
41.902654
 31
0.0
  0
LINE
  5
950
100
AcDbEntity
  8
BORDER
  6
CONTINUOUS
 62
     2
100
AcDbLine
 39
96.0
 10
44.773032
 20
41.902654
 30
0.0
 11
44.773032
 21
41.902654
 31
0.0
  0
LINE
  5
951
100
AcDbEntity
  8
BORDER
  6
CONTINUOUS
 62
     2
100
AcDbLine
 39
96.0
 10
43.132432
 20
41.433954
 30
0.0
 11
43.132432
 21
41.433954
 31
0.0
  0
LINE
  5
952
100
AcDbEntity
  8
BORDER
  6
CONTINUOUS
 62
     2
100
AcDbLine
 39
96.0
 10
43.601132
 20
41.433954
 30
0.0
 11
43.601132
 21
41.433954
 31
0.0
  0
LINE
  5
953
100
AcDbEntity
  8
BORDER
  6
CONTINUOUS
 62
     2
100
AcDbLine
 39
96.0
 10
44.069932
 20
41.433954
 30
0.0
 11
44.069932
 21
41.433954
 31
0.0
  0
LINE
  5
954
100
AcDbEntity
  8
BORDER
  6
CONTINUOUS
 62
     2
100
AcDbLine
 39
96.0
 10
44.538632
 20
41.433954
 30
0.0
 11
44.538632
 21
41.433954
 31
0.0
  0
LINE
  5
955
100
AcDbEntity
  8
BORDER
  6
CONTINUOUS
 62
     2
100
AcDbLine
 39
96.0
 10
43.366732
 20
40.965154
 30
0.0
 11
43.366732
 21
40.965154
 31
0.0
  0
LINE
  5
956
100
AcDbEntity
  8
BORDER
  6
CONTINUOUS
 62
     2
100
AcDbLine
 39
96.0
 10
43.835532
 20
40.965154
 30
0.0
 11
43.835532
 21
40.965154
 31
0.0
  0
LINE
  5
957
100
AcDbEntity
  8
BORDER
  6
CONTINUOUS
 62
     2
100
AcDbLine
 39
96.0
 10
44.304232
 20
40.965154
 30
0.0
 11
44.304232
 21
40.965154
 31
0.0
  0
LINE
  5
958
100
AcDbEntity
  8
BORDER
  6
CONTINUOUS
 62
     2
100
AcDbLine
 39
96.0
 10
44.773032
 20
40.965154
 30
0.0
 11
44.773032
 21
40.965154
 31
0.0
  0
LINE
  5
959
100
AcDbEntity
  8
BORDER
  6
CONTINUOUS
 62
     2
100
AcDbLine
 39
96.0
 10
43.132432
 20
40.496454
 30
0.0
 11
43.132432
 21
40.496454
 31
0.0
  0
LINE
  5
95A
100
AcDbEntity
  8
BORDER
  6
CONTINUOUS
 62
     2
100
AcDbLine
 39
96.0
 10
43.601132
 20
40.496454
 30
0.0
 11
43.601132
 21
40.496454
 31
0.0
  0
LINE
  5
95B
100
AcDbEntity
  8
BORDER
  6
CONTINUOUS
 62
     2
100
AcDbLine
 39
96.0
 10
44.069932
 20
40.496454
 30
0.0
 11
44.069932
 21
40.496454
 31
0.0
  0
LINE
  5
95C
100
AcDbEntity
  8
BORDER
  6
CONTINUOUS
 62
     2
100
AcDbLine
 39
96.0
 10
44.538632
 20
40.496454
 30
0.0
 11
44.538632
 21
40.496454
 31
0.0
  0
LINE
  5
95D
100
AcDbEntity
  8
BORDER
  6
CONTINUOUS
 62
     2
100
AcDbLine
 39
96.0
 10
43.366732
 20
40.027654
 30
0.0
 11
43.366732
 21
40.027654
 31
0.0
  0
LINE
  5
95E
100
AcDbEntity
  8
BORDER
  6
CONTINUOUS
 62
     2
100
AcDbLine
 39
96.0
 10
43.835532
 20
40.027654
 30
0.0
 11
43.835532
 21
40.027654
 31
0.0
  0
LINE
  5
95F
100
AcDbEntity
  8
BORDER
  6
CONTINUOUS
 62
     2
100
AcDbLine
 39
96.0
 10
44.304232
 20
40.027654
 30
0.0
 11
44.304232
 21
40.027654
 31
0.0
  0
LINE
  5
960
100
AcDbEntity
  8
BORDER
  6
CONTINUOUS
 62
     2
100
AcDbLine
 39
96.0
 10
44.773032
 20
40.027654
 30
0.0
 11
44.773032
 21
40.027654
 31
0.0
  0
LINE
  5
961
100
AcDbEntity
  8
BORDER
  6
CONTINUOUS
 62
     2
100
AcDbLine
 39
96.0
 10
43.132432
 20
39.558954
 30
0.0
 11
43.132432
 21
39.558954
 31
0.0
  0
LINE
  5
962
100
AcDbEntity
  8
BORDER
  6
CONTINUOUS
 62
     2
100
AcDbLine
 39
96.0
 10
43.601132
 20
39.558954
 30
0.0
 11
43.601132
 21
39.558954
 31
0.0
  0
LINE
  5
963
100
AcDbEntity
  8
BORDER
  6
CONTINUOUS
 62
     2
100
AcDbLine
 39
96.0
 10
44.069932
 20
39.558954
 30
0.0
 11
44.069932
 21
39.558954
 31
0.0
  0
LINE
  5
964
100
AcDbEntity
  8
BORDER
  6
CONTINUOUS
 62
     2
100
AcDbLine
 39
96.0
 10
44.538632
 20
39.558954
 30
0.0
 11
44.538632
 21
39.558954
 31
0.0
  0
LINE
  5
965
100
AcDbEntity
  8
BORDER
  6
CONTINUOUS
 62
     2
100
AcDbLine
 39
96.0
 10
43.366732
 20
39.090154
 30
0.0
 11
43.366732
 21
39.090154
 31
0.0
  0
LINE
  5
966
100
AcDbEntity
  8
BORDER
  6
CONTINUOUS
 62
     2
100
AcDbLine
 39
96.0
 10
43.835532
 20
39.090154
 30
0.0
 11
43.835532
 21
39.090154
 31
0.0
  0
LINE
  5
967
100
AcDbEntity
  8
BORDER
  6
CONTINUOUS
 62
     2
100
AcDbLine
 39
96.0
 10
44.304232
 20
39.090154
 30
0.0
 11
44.304232
 21
39.090154
 31
0.0
  0
LINE
  5
968
100
AcDbEntity
  8
BORDER
  6
CONTINUOUS
 62
     2
100
AcDbLine
 39
96.0
 10
44.773032
 20
39.090154
 30
0.0
 11
44.773032
 21
39.090154
 31
0.0
  0
LINE
  5
969
100
AcDbEntity
  8
BORDER
  6
CONTINUOUS
 62
     2
100
AcDbLine
 39
96.0
 10
43.132432
 20
38.621454
 30
0.0
 11
43.132432
 21
38.621454
 31
0.0
  0
LINE
  5
96A
100
AcDbEntity
  8
BORDER
  6
CONTINUOUS
 62
     2
100
AcDbLine
 39
96.0
 10
43.601132
 20
38.621454
 30
0.0
 11
43.601132
 21
38.621454
 31
0.0
  0
LINE
  5
96B
100
AcDbEntity
  8
BORDER
  6
CONTINUOUS
 62
     2
100
AcDbLine
 39
96.0
 10
44.069932
 20
38.621454
 30
0.0
 11
44.069932
 21
38.621454
 31
0.0
  0
LINE
  5
96C
100
AcDbEntity
  8
BORDER
  6
CONTINUOUS
 62
     2
100
AcDbLine
 39
96.0
 10
44.538632
 20
38.621454
 30
0.0
 11
44.538632
 21
38.621454
 31
0.0
  0
LINE
  5
96D
100
AcDbEntity
  8
BORDER
  6
CONTINUOUS
 62
     2
100
AcDbLine
 39
96.0
 10
43.366732
 20
38.152654
 30
0.0
 11
43.366732
 21
38.152654
 31
0.0
  0
LINE
  5
96E
100
AcDbEntity
  8
BORDER
  6
CONTINUOUS
 62
     2
100
AcDbLine
 39
96.0
 10
43.835532
 20
38.152654
 30
0.0
 11
43.835532
 21
38.152654
 31
0.0
  0
LINE
  5
96F
100
AcDbEntity
  8
BORDER
  6
CONTINUOUS
 62
     2
100
AcDbLine
 39
96.0
 10
44.304232
 20
38.152654
 30
0.0
 11
44.304232
 21
38.152654
 31
0.0
  0
LINE
  5
970
100
AcDbEntity
  8
BORDER
  6
CONTINUOUS
 62
     2
100
AcDbLine
 39
96.0
 10
44.773032
 20
38.152654
 30
0.0
 11
44.773032
 21
38.152654
 31
0.0
  0
LINE
  5
971
100
AcDbEntity
  8
BORDER
  6
CONTINUOUS
 62
     2
100
AcDbLine
 39
96.0
 10
43.132432
 20
37.683954
 30
0.0
 11
43.132432
 21
37.683954
 31
0.0
  0
LINE
  5
972
100
AcDbEntity
  8
BORDER
  6
CONTINUOUS
 62
     2
100
AcDbLine
 39
96.0
 10
43.601132
 20
37.683954
 30
0.0
 11
43.601132
 21
37.683954
 31
0.0
  0
LINE
  5
973
100
AcDbEntity
  8
BORDER
  6
CONTINUOUS
 62
     2
100
AcDbLine
 39
96.0
 10
44.069932
 20
37.683954
 30
0.0
 11
44.069932
 21
37.683954
 31
0.0
  0
LINE
  5
974
100
AcDbEntity
  8
BORDER
  6
CONTINUOUS
 62
     2
100
AcDbLine
 39
96.0
 10
44.538632
 20
37.683954
 30
0.0
 11
44.538632
 21
37.683954
 31
0.0
  0
LINE
  5
975
100
AcDbEntity
  8
BORDER
  6
CONTINUOUS
 62
     2
100
AcDbLine
 39
96.0
 10
43.366732
 20
37.215154
 30
0.0
 11
43.366732
 21
37.215154
 31
0.0
  0
LINE
  5
976
100
AcDbEntity
  8
BORDER
  6
CONTINUOUS
 62
     2
100
AcDbLine
 39
96.0
 10
43.835532
 20
37.215154
 30
0.0
 11
43.835532
 21
37.215154
 31
0.0
  0
LINE
  5
977
100
AcDbEntity
  8
BORDER
  6
CONTINUOUS
 62
     2
100
AcDbLine
 39
96.0
 10
44.304232
 20
37.215154
 30
0.0
 11
44.304232
 21
37.215154
 31
0.0
  0
LINE
  5
978
100
AcDbEntity
  8
BORDER
  6
CONTINUOUS
 62
     2
100
AcDbLine
 39
96.0
 10
44.773032
 20
37.215154
 30
0.0
 11
44.773032
 21
37.215154
 31
0.0
  0
LINE
  5
979
100
AcDbEntity
  8
BORDER
  6
CONTINUOUS
 62
     2
100
AcDbLine
 39
96.0
 10
43.132432
 20
36.746454
 30
0.0
 11
43.132432
 21
36.746454
 31
0.0
  0
LINE
  5
97A
100
AcDbEntity
  8
BORDER
  6
CONTINUOUS
 62
     2
100
AcDbLine
 39
96.0
 10
43.601132
 20
36.746454
 30
0.0
 11
43.601132
 21
36.746454
 31
0.0
  0
LINE
  5
97B
100
AcDbEntity
  8
BORDER
  6
CONTINUOUS
 62
     2
100
AcDbLine
 39
96.0
 10
44.069932
 20
36.746454
 30
0.0
 11
44.069932
 21
36.746454
 31
0.0
  0
LINE
  5
97C
100
AcDbEntity
  8
BORDER
  6
CONTINUOUS
 62
     2
100
AcDbLine
 39
96.0
 10
44.538632
 20
36.746454
 30
0.0
 11
44.538632
 21
36.746454
 31
0.0
  0
LINE
  5
97D
100
AcDbEntity
  8
BORDER
  6
CONTINUOUS
 62
     2
100
AcDbLine
 39
96.0
 10
43.366732
 20
36.277654
 30
0.0
 11
43.366732
 21
36.277654
 31
0.0
  0
LINE
  5
97E
100
AcDbEntity
  8
BORDER
  6
CONTINUOUS
 62
     2
100
AcDbLine
 39
96.0
 10
43.835532
 20
36.277654
 30
0.0
 11
43.835532
 21
36.277654
 31
0.0
  0
LINE
  5
97F
100
AcDbEntity
  8
BORDER
  6
CONTINUOUS
 62
     2
100
AcDbLine
 39
96.0
 10
44.304232
 20
36.277654
 30
0.0
 11
44.304232
 21
36.277654
 31
0.0
  0
LINE
  5
980
100
AcDbEntity
  8
BORDER
  6
CONTINUOUS
 62
     2
100
AcDbLine
 39
96.0
 10
44.773032
 20
36.277654
 30
0.0
 11
44.773032
 21
36.277654
 31
0.0
  0
LINE
  5
981
100
AcDbEntity
  8
BORDER
  6
CONTINUOUS
 62
     3
100
AcDbLine
 39
96.0
 10
34.951232
 20
50.944754
 30
0.0
 11
36.826232
 21
50.944754
 31
0.0
  0
LINE
  5
982
100
AcDbEntity
  8
BORDER
  6
CONTINUOUS
 62
     3
100
AcDbLine
 39
96.0
 10
43.076232
 20
50.944754
 30
0.0
 11
44.951232
 21
50.944754
 31
0.0
  0
LINE
  5
983
100
AcDbEntity
  8
BORDER
  6
CONTINUOUS
 62
    10
100
AcDbLine
 39
96.0
 10
37.804032
 20
37.876854
 30
0.0
 11
37.730532
 21
37.850154
 31
0.0
  0
LINE
  5
984
100
AcDbEntity
  8
BORDER
  6
CONTINUOUS
 62
    10
100
AcDbLine
 39
96.0
 10
39.944132
 20
38.392354
 30
0.0
 11
39.899232
 21
38.328354
 31
0.0
  0
LINE
  5
985
100
AcDbEntity
  8
BORDER
  6
CONTINUOUS
 62
    10
100
AcDbLine
 39
96.0
 10
38.151732
 20
35.832454
 30
0.0
 11
38.106732
 21
35.768554
 31
0.0
  0
LINE
  5
986
100
AcDbEntity
  8
BORDER
  6
CONTINUOUS
 62
    10
100
AcDbLine
 39
96.0
 10
40.503232
 20
38.893554
 30
0.0
 11
40.492232
 21
38.831954
 31
0.0
  0
LINE
  5
987
100
AcDbEntity
  8
BORDER
  6
CONTINUOUS
 62
    10
100
AcDbLine
 39
96.0
 10
40.470532
 20
48.824154
 30
0.0
 11
40.397032
 21
48.797454
 31
0.0
  0
LINE
  5
988
100
AcDbEntity
  8
BORDER
  6
CONTINUOUS
 62
    10
100
AcDbLine
 39
96.0
 10
40.201732
 20
49.656854
 30
0.0
 11
40.156832
 21
49.592854
 31
0.0
  0
LINE
  5
989
100
AcDbEntity
  8
BORDER
  6
CONTINUOUS
 62
    10
100
AcDbLine
 39
96.0
 10
39.056432
 20
48.684054
 30
0.0
 11
39.042832
 21
48.607154
 31
0.0
  0
LINE
  5
98A
100
AcDbEntity
  8
BORDER
  6
CONTINUOUS
 62
     1
100
AcDbLine
 39
96.0
 10
40.564032
 20
36.261654
 30
0.0
 11
40.622832
 21
36.282954
 31
0.0
  0
LINE
  5
98B
100
AcDbEntity
  8
BORDER
  6
CONTINUOUS
 62
     1
100
AcDbLine
 39
96.0
 10
40.990032
 20
36.480454
 30
0.0
 11
41.000832
 21
36.541954
 31
0.0
  0
LINE
  5
98C
100
AcDbEntity
  8
BORDER
  6
CONTINUOUS
 62
     1
100
AcDbLine
 39
96.0
 10
40.278132
 20
36.896254
 30
0.0
 11
40.314032
 21
36.947454
 31
0.0
  0
LINE
  5
98D
100
AcDbEntity
  8
BORDER
  6
CONTINUOUS
 62
     3
100
AcDbLine
 39
96.0
 10
44.951232
 20
27.914054
 30
0.0
 11
44.951232
 21
35.944754
 31
0.0
  0
LINE
  5
98E
100
AcDbEntity
  8
BORDER
  6
CONTINUOUS
 62
     3
100
AcDbLine
 39
96.0
 10
44.951232
 20
35.944754
 30
0.0
 11
43.076232
 21
35.944754
 31
0.0
  0
LINE
  5
98F
100
AcDbEntity
  8
BORDER
  6
CONTINUOUS
 62
     3
100
AcDbLine
 39
96.0
 10
34.951232
 20
35.944754
 30
0.0
 11
34.951232
 21
27.914054
 31
0.0
  0
LINE
  5
990
100
AcDbEntity
  8
BORDER
  6
CONTINUOUS
 62
     3
100
AcDbLine
 39
96.0
 10
36.826232
 20
35.944754
 30
0.0
 11
36.826232
 21
27.914054
 31
0.0
  0
LINE
  5
991
100
AcDbEntity
  8
BORDER
  6
CONTINUOUS
 62
     3
100
AcDbLine
 39
96.0
 10
43.076232
 20
27.914054
 30
0.0
 11
43.076232
 21
35.944754
 31
0.0
  0
ARC
  5
992
100
AcDbEntity
  8
BORDER
  6
CONTINUOUS
 62
     3
100
AcDbCircle
 39
96.0
 10
39.951232
 20
35.944754
 30
0.0
 40
3.0
100
AcDbArc
 50
180.0
 51
0.0
  0
LINE
  5
993
100
AcDbEntity
  8
BORDER
  6
CONTINUOUS
 62
     3
100
AcDbLine
 39
96.0
 10
36.826232
 20
35.944754
 30
0.0
 11
34.951232
 21
35.944754
 31
0.0
  0
LINE
  5
994
100
AcDbEntity
  8
BORDER
  6
CONTINUOUS
 62
     1
100
AcDbLine
 39
96.0
 10
38.854032
 20
32.634154
 30
0.0
 11
38.912932
 21
32.655554
 31
0.0
  0
LINE
  5
995
100
AcDbEntity
  8
BORDER
  6
CONTINUOUS
 62
     1
100
AcDbLine
 39
96.0
 10
37.359732
 20
29.429854
 30
0.0
 11
37.418532
 21
29.451254
 31
0.0
  0
LINE
  5
996
100
AcDbEntity
  8
BORDER
  6
CONTINUOUS
 62
     1
100
AcDbLine
 39
96.0
 10
39.709032
 20
30.284954
 30
0.0
 11
39.767932
 21
30.306254
 31
0.0
  0
LINE
  5
997
100
AcDbEntity
  8
BORDER
  6
CONTINUOUS
 62
     1
100
AcDbLine
 39
96.0
 10
42.058432
 20
31.139954
 30
0.0
 11
42.117232
 21
31.161354
 31
0.0
  0
LINE
  5
998
100
AcDbEntity
  8
BORDER
  6
CONTINUOUS
 62
     1
100
AcDbLine
 39
96.0
 10
40.564032
 20
27.935654
 30
0.0
 11
40.622832
 21
27.957054
 31
0.0
  0
LINE
  5
999
100
AcDbEntity
  8
BORDER
  6
CONTINUOUS
 62
     1
100
AcDbLine
 39
96.0
 10
42.913432
 20
28.790754
 30
0.0
 11
42.972232
 21
28.812054
 31
0.0
  0
LINE
  5
99A
100
AcDbEntity
  8
BORDER
  6
CONTINUOUS
 62
     1
100
AcDbLine
 39
96.0
 10
37.616332
 20
33.486054
 30
0.0
 11
37.652132
 21
33.537254
 31
0.0
  0
LINE
  5
99B
100
AcDbEntity
  8
BORDER
  6
CONTINUOUS
 62
     1
100
AcDbLine
 39
96.0
 10
38.230332
 20
30.004154
 30
0.0
 11
38.266232
 21
30.055454
 31
0.0
  0
LINE
  5
99C
100
AcDbEntity
  8
BORDER
  6
CONTINUOUS
 62
     1
100
AcDbLine
 39
96.0
 10
39.664432
 20
32.052054
 30
0.0
 11
39.700232
 21
32.103254
 31
0.0
  0
LINE
  5
99D
100
AcDbEntity
  8
BORDER
  6
CONTINUOUS
 62
     1
100
AcDbLine
 39
96.0
 10
40.278132
 20
28.570354
 30
0.0
 11
40.314032
 21
28.621554
 31
0.0
  0
LINE
  5
99E
100
AcDbEntity
  8
BORDER
  6
CONTINUOUS
 62
     1
100
AcDbLine
 39
96.0
 10
41.712232
 20
30.618154
 30
0.0
 11
41.748132
 21
30.669454
 31
0.0
  0
LINE
  5
99F
100
AcDbEntity
  8
BORDER
  6
CONTINUOUS
 62
     1
100
AcDbLine
 39
96.0
 10
36.934632
 20
33.946654
 30
0.0
 11
36.945432
 21
34.008254
 31
0.0
  0
LINE
  5
9A0
100
AcDbEntity
  8
BORDER
  6
CONTINUOUS
 62
     1
100
AcDbLine
 39
96.0
 10
38.528432
 20
28.588554
 30
0.0
 11
38.539132
 21
28.650154
 31
0.0
  0
LINE
  5
9A1
100
AcDbEntity
  8
BORDER
  6
CONTINUOUS
 62
     1
100
AcDbLine
 39
96.0
 10
38.962432
 20
31.050654
 30
0.0
 11
38.973232
 21
31.112154
 31
0.0
  0
LINE
  5
9A2
100
AcDbEntity
  8
BORDER
  6
CONTINUOUS
 62
     1
100
AcDbLine
 39
96.0
 10
40.990032
 20
28.154454
 30
0.0
 11
41.000832
 21
28.216054
 31
0.0
  0
LINE
  5
9A3
100
AcDbEntity
  8
BORDER
  6
CONTINUOUS
 62
     1
100
AcDbLine
 39
96.0
 10
41.424132
 20
30.616554
 30
0.0
 11
41.434932
 21
30.678154
 31
0.0
  0
LINE
  5
9A4
100
AcDbEntity
  8
BORDER
  6
CONTINUOUS
 62
     1
100
AcDbLine
 39
96.0
 10
41.858232
 20
33.078554
 30
0.0
 11
41.868932
 21
33.140154
 31
0.0
  0
LINE
  5
9A5
100
AcDbEntity
  8
BORDER
  6
CONTINUOUS
 62
     2
100
AcDbLine
 39
96.0
 10
35.163632
 20
35.808954
 30
0.0
 11
35.163632
 21
35.808954
 31
0.0
  0
LINE
  5
9A6
100
AcDbEntity
  8
BORDER
  6
CONTINUOUS
 62
     2
100
AcDbLine
 39
96.0
 10
35.632432
 20
35.808954
 30
0.0
 11
35.632432
 21
35.808954
 31
0.0
  0
LINE
  5
9A7
100
AcDbEntity
  8
BORDER
  6
CONTINUOUS
 62
     2
100
AcDbLine
 39
96.0
 10
36.101132
 20
35.808954
 30
0.0
 11
36.101132
 21
35.808954
 31
0.0
  0
LINE
  5
9A8
100
AcDbEntity
  8
BORDER
  6
CONTINUOUS
 62
     2
100
AcDbLine
 39
96.0
 10
36.569932
 20
35.808954
 30
0.0
 11
36.569932
 21
35.808954
 31
0.0
  0
LINE
  5
9A9
100
AcDbEntity
  8
BORDER
  6
CONTINUOUS
 62
     2
100
AcDbLine
 39
96.0
 10
35.398032
 20
35.340254
 30
0.0
 11
35.398032
 21
35.340254
 31
0.0
  0
LINE
  5
9AA
100
AcDbEntity
  8
BORDER
  6
CONTINUOUS
 62
     2
100
AcDbLine
 39
96.0
 10
35.866732
 20
35.340254
 30
0.0
 11
35.866732
 21
35.340254
 31
0.0
  0
LINE
  5
9AB
100
AcDbEntity
  8
BORDER
  6
CONTINUOUS
 62
     2
100
AcDbLine
 39
96.0
 10
36.335532
 20
35.340254
 30
0.0
 11
36.335532
 21
35.340254
 31
0.0
  0
LINE
  5
9AC
100
AcDbEntity
  8
BORDER
  6
CONTINUOUS
 62
     2
100
AcDbLine
 39
96.0
 10
36.804232
 20
35.340254
 30
0.0
 11
36.804232
 21
35.340254
 31
0.0
  0
LINE
  5
9AD
100
AcDbEntity
  8
BORDER
  6
CONTINUOUS
 62
     2
100
AcDbLine
 39
96.0
 10
35.163632
 20
34.871454
 30
0.0
 11
35.163632
 21
34.871454
 31
0.0
  0
LINE
  5
9AE
100
AcDbEntity
  8
BORDER
  6
CONTINUOUS
 62
     2
100
AcDbLine
 39
96.0
 10
35.632432
 20
34.871454
 30
0.0
 11
35.632432
 21
34.871454
 31
0.0
  0
LINE
  5
9AF
100
AcDbEntity
  8
BORDER
  6
CONTINUOUS
 62
     2
100
AcDbLine
 39
96.0
 10
36.101132
 20
34.871454
 30
0.0
 11
36.101132
 21
34.871454
 31
0.0
  0
LINE
  5
9B0
100
AcDbEntity
  8
BORDER
  6
CONTINUOUS
 62
     2
100
AcDbLine
 39
96.0
 10
36.569932
 20
34.871454
 30
0.0
 11
36.569932
 21
34.871454
 31
0.0
  0
LINE
  5
9B1
100
AcDbEntity
  8
BORDER
  6
CONTINUOUS
 62
     2
100
AcDbLine
 39
96.0
 10
35.398032
 20
34.402754
 30
0.0
 11
35.398032
 21
34.402754
 31
0.0
  0
LINE
  5
9B2
100
AcDbEntity
  8
BORDER
  6
CONTINUOUS
 62
     2
100
AcDbLine
 39
96.0
 10
35.866732
 20
34.402754
 30
0.0
 11
35.866732
 21
34.402754
 31
0.0
  0
LINE
  5
9B3
100
AcDbEntity
  8
BORDER
  6
CONTINUOUS
 62
     2
100
AcDbLine
 39
96.0
 10
36.335532
 20
34.402754
 30
0.0
 11
36.335532
 21
34.402754
 31
0.0
  0
LINE
  5
9B4
100
AcDbEntity
  8
BORDER
  6
CONTINUOUS
 62
     2
100
AcDbLine
 39
96.0
 10
36.804232
 20
34.402754
 30
0.0
 11
36.804232
 21
34.402754
 31
0.0
  0
LINE
  5
9B5
100
AcDbEntity
  8
BORDER
  6
CONTINUOUS
 62
     2
100
AcDbLine
 39
96.0
 10
35.163632
 20
33.933954
 30
0.0
 11
35.163632
 21
33.933954
 31
0.0
  0
LINE
  5
9B6
100
AcDbEntity
  8
BORDER
  6
CONTINUOUS
 62
     2
100
AcDbLine
 39
96.0
 10
35.632432
 20
33.933954
 30
0.0
 11
35.632432
 21
33.933954
 31
0.0
  0
LINE
  5
9B7
100
AcDbEntity
  8
BORDER
  6
CONTINUOUS
 62
     2
100
AcDbLine
 39
96.0
 10
36.101132
 20
33.933954
 30
0.0
 11
36.101132
 21
33.933954
 31
0.0
  0
LINE
  5
9B8
100
AcDbEntity
  8
BORDER
  6
CONTINUOUS
 62
     2
100
AcDbLine
 39
96.0
 10
36.569932
 20
33.933954
 30
0.0
 11
36.569932
 21
33.933954
 31
0.0
  0
LINE
  5
9B9
100
AcDbEntity
  8
BORDER
  6
CONTINUOUS
 62
     2
100
AcDbLine
 39
96.0
 10
35.398032
 20
33.465254
 30
0.0
 11
35.398032
 21
33.465254
 31
0.0
  0
LINE
  5
9BA
100
AcDbEntity
  8
BORDER
  6
CONTINUOUS
 62
     2
100
AcDbLine
 39
96.0
 10
35.866732
 20
33.465254
 30
0.0
 11
35.866732
 21
33.465254
 31
0.0
  0
LINE
  5
9BB
100
AcDbEntity
  8
BORDER
  6
CONTINUOUS
 62
     2
100
AcDbLine
 39
96.0
 10
36.335532
 20
33.465254
 30
0.0
 11
36.335532
 21
33.465254
 31
0.0
  0
LINE
  5
9BC
100
AcDbEntity
  8
BORDER
  6
CONTINUOUS
 62
     2
100
AcDbLine
 39
96.0
 10
36.804232
 20
33.465254
 30
0.0
 11
36.804232
 21
33.465254
 31
0.0
  0
LINE
  5
9BD
100
AcDbEntity
  8
BORDER
  6
CONTINUOUS
 62
     2
100
AcDbLine
 39
96.0
 10
35.163632
 20
32.996454
 30
0.0
 11
35.163632
 21
32.996454
 31
0.0
  0
LINE
  5
9BE
100
AcDbEntity
  8
BORDER
  6
CONTINUOUS
 62
     2
100
AcDbLine
 39
96.0
 10
35.632432
 20
32.996454
 30
0.0
 11
35.632432
 21
32.996454
 31
0.0
  0
LINE
  5
9BF
100
AcDbEntity
  8
BORDER
  6
CONTINUOUS
 62
     2
100
AcDbLine
 39
96.0
 10
36.101132
 20
32.996454
 30
0.0
 11
36.101132
 21
32.996454
 31
0.0
  0
LINE
  5
9C0
100
AcDbEntity
  8
BORDER
  6
CONTINUOUS
 62
     2
100
AcDbLine
 39
96.0
 10
36.569932
 20
32.996454
 30
0.0
 11
36.569932
 21
32.996454
 31
0.0
  0
LINE
  5
9C1
100
AcDbEntity
  8
BORDER
  6
CONTINUOUS
 62
     2
100
AcDbLine
 39
96.0
 10
35.398032
 20
32.527754
 30
0.0
 11
35.398032
 21
32.527754
 31
0.0
  0
LINE
  5
9C2
100
AcDbEntity
  8
BORDER
  6
CONTINUOUS
 62
     2
100
AcDbLine
 39
96.0
 10
35.866732
 20
32.527754
 30
0.0
 11
35.866732
 21
32.527754
 31
0.0
  0
LINE
  5
9C3
100
AcDbEntity
  8
BORDER
  6
CONTINUOUS
 62
     2
100
AcDbLine
 39
96.0
 10
36.335532
 20
32.527754
 30
0.0
 11
36.335532
 21
32.527754
 31
0.0
  0
LINE
  5
9C4
100
AcDbEntity
  8
BORDER
  6
CONTINUOUS
 62
     2
100
AcDbLine
 39
96.0
 10
36.804232
 20
32.527754
 30
0.0
 11
36.804232
 21
32.527754
 31
0.0
  0
LINE
  5
9C5
100
AcDbEntity
  8
BORDER
  6
CONTINUOUS
 62
     2
100
AcDbLine
 39
96.0
 10
35.163632
 20
32.058954
 30
0.0
 11
35.163632
 21
32.058954
 31
0.0
  0
LINE
  5
9C6
100
AcDbEntity
  8
BORDER
  6
CONTINUOUS
 62
     2
100
AcDbLine
 39
96.0
 10
35.632432
 20
32.058954
 30
0.0
 11
35.632432
 21
32.058954
 31
0.0
  0
LINE
  5
9C7
100
AcDbEntity
  8
BORDER
  6
CONTINUOUS
 62
     2
100
AcDbLine
 39
96.0
 10
36.101132
 20
32.058954
 30
0.0
 11
36.101132
 21
32.058954
 31
0.0
  0
LINE
  5
9C8
100
AcDbEntity
  8
BORDER
  6
CONTINUOUS
 62
     2
100
AcDbLine
 39
96.0
 10
36.569932
 20
32.058954
 30
0.0
 11
36.569932
 21
32.058954
 31
0.0
  0
LINE
  5
9C9
100
AcDbEntity
  8
BORDER
  6
CONTINUOUS
 62
     2
100
AcDbLine
 39
96.0
 10
35.398032
 20
31.590254
 30
0.0
 11
35.398032
 21
31.590254
 31
0.0
  0
LINE
  5
9CA
100
AcDbEntity
  8
BORDER
  6
CONTINUOUS
 62
     2
100
AcDbLine
 39
96.0
 10
35.866732
 20
31.590254
 30
0.0
 11
35.866732
 21
31.590254
 31
0.0
  0
LINE
  5
9CB
100
AcDbEntity
  8
BORDER
  6
CONTINUOUS
 62
     2
100
AcDbLine
 39
96.0
 10
36.335532
 20
31.590254
 30
0.0
 11
36.335532
 21
31.590254
 31
0.0
  0
LINE
  5
9CC
100
AcDbEntity
  8
BORDER
  6
CONTINUOUS
 62
     2
100
AcDbLine
 39
96.0
 10
36.804232
 20
31.590254
 30
0.0
 11
36.804232
 21
31.590254
 31
0.0
  0
LINE
  5
9CD
100
AcDbEntity
  8
BORDER
  6
CONTINUOUS
 62
     2
100
AcDbLine
 39
96.0
 10
35.163632
 20
31.121454
 30
0.0
 11
35.163632
 21
31.121454
 31
0.0
  0
LINE
  5
9CE
100
AcDbEntity
  8
BORDER
  6
CONTINUOUS
 62
     2
100
AcDbLine
 39
96.0
 10
35.632432
 20
31.121454
 30
0.0
 11
35.632432
 21
31.121454
 31
0.0
  0
LINE
  5
9CF
100
AcDbEntity
  8
BORDER
  6
CONTINUOUS
 62
     2
100
AcDbLine
 39
96.0
 10
36.101132
 20
31.121454
 30
0.0
 11
36.101132
 21
31.121454
 31
0.0
  0
LINE
  5
9D0
100
AcDbEntity
  8
BORDER
  6
CONTINUOUS
 62
     2
100
AcDbLine
 39
96.0
 10
36.569932
 20
31.121454
 30
0.0
 11
36.569932
 21
31.121454
 31
0.0
  0
LINE
  5
9D1
100
AcDbEntity
  8
BORDER
  6
CONTINUOUS
 62
     2
100
AcDbLine
 39
96.0
 10
35.398032
 20
30.652754
 30
0.0
 11
35.398032
 21
30.652754
 31
0.0
  0
LINE
  5
9D2
100
AcDbEntity
  8
BORDER
  6
CONTINUOUS
 62
     2
100
AcDbLine
 39
96.0
 10
35.866732
 20
30.652754
 30
0.0
 11
35.866732
 21
30.652754
 31
0.0
  0
LINE
  5
9D3
100
AcDbEntity
  8
BORDER
  6
CONTINUOUS
 62
     2
100
AcDbLine
 39
96.0
 10
36.335532
 20
30.652754
 30
0.0
 11
36.335532
 21
30.652754
 31
0.0
  0
LINE
  5
9D4
100
AcDbEntity
  8
BORDER
  6
CONTINUOUS
 62
     2
100
AcDbLine
 39
96.0
 10
36.804232
 20
30.652754
 30
0.0
 11
36.804232
 21
30.652754
 31
0.0
  0
LINE
  5
9D5
100
AcDbEntity
  8
BORDER
  6
CONTINUOUS
 62
     2
100
AcDbLine
 39
96.0
 10
35.163632
 20
30.183954
 30
0.0
 11
35.163632
 21
30.183954
 31
0.0
  0
LINE
  5
9D6
100
AcDbEntity
  8
BORDER
  6
CONTINUOUS
 62
     2
100
AcDbLine
 39
96.0
 10
35.632432
 20
30.183954
 30
0.0
 11
35.632432
 21
30.183954
 31
0.0
  0
LINE
  5
9D7
100
AcDbEntity
  8
BORDER
  6
CONTINUOUS
 62
     2
100
AcDbLine
 39
96.0
 10
36.101132
 20
30.183954
 30
0.0
 11
36.101132
 21
30.183954
 31
0.0
  0
LINE
  5
9D8
100
AcDbEntity
  8
BORDER
  6
CONTINUOUS
 62
     2
100
AcDbLine
 39
96.0
 10
36.569932
 20
30.183954
 30
0.0
 11
36.569932
 21
30.183954
 31
0.0
  0
LINE
  5
9D9
100
AcDbEntity
  8
BORDER
  6
CONTINUOUS
 62
     2
100
AcDbLine
 39
96.0
 10
35.398032
 20
29.715254
 30
0.0
 11
35.398032
 21
29.715254
 31
0.0
  0
LINE
  5
9DA
100
AcDbEntity
  8
BORDER
  6
CONTINUOUS
 62
     2
100
AcDbLine
 39
96.0
 10
35.866732
 20
29.715254
 30
0.0
 11
35.866732
 21
29.715254
 31
0.0
  0
LINE
  5
9DB
100
AcDbEntity
  8
BORDER
  6
CONTINUOUS
 62
     2
100
AcDbLine
 39
96.0
 10
36.335532
 20
29.715254
 30
0.0
 11
36.335532
 21
29.715254
 31
0.0
  0
LINE
  5
9DC
100
AcDbEntity
  8
BORDER
  6
CONTINUOUS
 62
     2
100
AcDbLine
 39
96.0
 10
36.804232
 20
29.715254
 30
0.0
 11
36.804232
 21
29.715254
 31
0.0
  0
LINE
  5
9DD
100
AcDbEntity
  8
BORDER
  6
CONTINUOUS
 62
     2
100
AcDbLine
 39
96.0
 10
35.163632
 20
29.246454
 30
0.0
 11
35.163632
 21
29.246454
 31
0.0
  0
LINE
  5
9DE
100
AcDbEntity
  8
BORDER
  6
CONTINUOUS
 62
     2
100
AcDbLine
 39
96.0
 10
35.632432
 20
29.246454
 30
0.0
 11
35.632432
 21
29.246454
 31
0.0
  0
LINE
  5
9DF
100
AcDbEntity
  8
BORDER
  6
CONTINUOUS
 62
     2
100
AcDbLine
 39
96.0
 10
36.101132
 20
29.246454
 30
0.0
 11
36.101132
 21
29.246454
 31
0.0
  0
LINE
  5
9E0
100
AcDbEntity
  8
BORDER
  6
CONTINUOUS
 62
     2
100
AcDbLine
 39
96.0
 10
36.569932
 20
29.246454
 30
0.0
 11
36.569932
 21
29.246454
 31
0.0
  0
LINE
  5
9E1
100
AcDbEntity
  8
BORDER
  6
CONTINUOUS
 62
     2
100
AcDbLine
 39
96.0
 10
35.398032
 20
28.777754
 30
0.0
 11
35.398032
 21
28.777754
 31
0.0
  0
LINE
  5
9E2
100
AcDbEntity
  8
BORDER
  6
CONTINUOUS
 62
     2
100
AcDbLine
 39
96.0
 10
35.866732
 20
28.777754
 30
0.0
 11
35.866732
 21
28.777754
 31
0.0
  0
LINE
  5
9E3
100
AcDbEntity
  8
BORDER
  6
CONTINUOUS
 62
     2
100
AcDbLine
 39
96.0
 10
36.335532
 20
28.777754
 30
0.0
 11
36.335532
 21
28.777754
 31
0.0
  0
LINE
  5
9E4
100
AcDbEntity
  8
BORDER
  6
CONTINUOUS
 62
     2
100
AcDbLine
 39
96.0
 10
36.804232
 20
28.777754
 30
0.0
 11
36.804232
 21
28.777754
 31
0.0
  0
LINE
  5
9E5
100
AcDbEntity
  8
BORDER
  6
CONTINUOUS
 62
     2
100
AcDbLine
 39
96.0
 10
35.163632
 20
28.308954
 30
0.0
 11
35.163632
 21
28.308954
 31
0.0
  0
LINE
  5
9E6
100
AcDbEntity
  8
BORDER
  6
CONTINUOUS
 62
     2
100
AcDbLine
 39
96.0
 10
35.632432
 20
28.308954
 30
0.0
 11
35.632432
 21
28.308954
 31
0.0
  0
LINE
  5
9E7
100
AcDbEntity
  8
BORDER
  6
CONTINUOUS
 62
     2
100
AcDbLine
 39
96.0
 10
36.101132
 20
28.308954
 30
0.0
 11
36.101132
 21
28.308954
 31
0.0
  0
LINE
  5
9E8
100
AcDbEntity
  8
BORDER
  6
CONTINUOUS
 62
     2
100
AcDbLine
 39
96.0
 10
36.569932
 20
28.308954
 30
0.0
 11
36.569932
 21
28.308954
 31
0.0
  0
LINE
  5
9E9
100
AcDbEntity
  8
BORDER
  6
CONTINUOUS
 62
     2
100
AcDbLine
 39
96.0
 10
43.132432
 20
35.808954
 30
0.0
 11
43.132432
 21
35.808954
 31
0.0
  0
LINE
  5
9EA
100
AcDbEntity
  8
BORDER
  6
CONTINUOUS
 62
     2
100
AcDbLine
 39
96.0
 10
43.601132
 20
35.808954
 30
0.0
 11
43.601132
 21
35.808954
 31
0.0
  0
LINE
  5
9EB
100
AcDbEntity
  8
BORDER
  6
CONTINUOUS
 62
     2
100
AcDbLine
 39
96.0
 10
44.069932
 20
35.808954
 30
0.0
 11
44.069932
 21
35.808954
 31
0.0
  0
LINE
  5
9EC
100
AcDbEntity
  8
BORDER
  6
CONTINUOUS
 62
     2
100
AcDbLine
 39
96.0
 10
44.538632
 20
35.808954
 30
0.0
 11
44.538632
 21
35.808954
 31
0.0
  0
LINE
  5
9ED
100
AcDbEntity
  8
BORDER
  6
CONTINUOUS
 62
     2
100
AcDbLine
 39
96.0
 10
43.366732
 20
35.340254
 30
0.0
 11
43.366732
 21
35.340254
 31
0.0
  0
LINE
  5
9EE
100
AcDbEntity
  8
BORDER
  6
CONTINUOUS
 62
     2
100
AcDbLine
 39
96.0
 10
43.835532
 20
35.340254
 30
0.0
 11
43.835532
 21
35.340254
 31
0.0
  0
LINE
  5
9EF
100
AcDbEntity
  8
BORDER
  6
CONTINUOUS
 62
     2
100
AcDbLine
 39
96.0
 10
44.304232
 20
35.340254
 30
0.0
 11
44.304232
 21
35.340254
 31
0.0
  0
LINE
  5
9F0
100
AcDbEntity
  8
BORDER
  6
CONTINUOUS
 62
     2
100
AcDbLine
 39
96.0
 10
44.773032
 20
35.340254
 30
0.0
 11
44.773032
 21
35.340254
 31
0.0
  0
LINE
  5
9F1
100
AcDbEntity
  8
BORDER
  6
CONTINUOUS
 62
     2
100
AcDbLine
 39
96.0
 10
43.132432
 20
34.871454
 30
0.0
 11
43.132432
 21
34.871454
 31
0.0
  0
LINE
  5
9F2
100
AcDbEntity
  8
BORDER
  6
CONTINUOUS
 62
     2
100
AcDbLine
 39
96.0
 10
43.601132
 20
34.871454
 30
0.0
 11
43.601132
 21
34.871454
 31
0.0
  0
LINE
  5
9F3
100
AcDbEntity
  8
BORDER
  6
CONTINUOUS
 62
     2
100
AcDbLine
 39
96.0
 10
44.069932
 20
34.871454
 30
0.0
 11
44.069932
 21
34.871454
 31
0.0
  0
LINE
  5
9F4
100
AcDbEntity
  8
BORDER
  6
CONTINUOUS
 62
     2
100
AcDbLine
 39
96.0
 10
44.538632
 20
34.871454
 30
0.0
 11
44.538632
 21
34.871454
 31
0.0
  0
LINE
  5
9F5
100
AcDbEntity
  8
BORDER
  6
CONTINUOUS
 62
     2
100
AcDbLine
 39
96.0
 10
43.366732
 20
34.402754
 30
0.0
 11
43.366732
 21
34.402754
 31
0.0
  0
LINE
  5
9F6
100
AcDbEntity
  8
BORDER
  6
CONTINUOUS
 62
     2
100
AcDbLine
 39
96.0
 10
43.835532
 20
34.402754
 30
0.0
 11
43.835532
 21
34.402754
 31
0.0
  0
LINE
  5
9F7
100
AcDbEntity
  8
BORDER
  6
CONTINUOUS
 62
     2
100
AcDbLine
 39
96.0
 10
44.304232
 20
34.402754
 30
0.0
 11
44.304232
 21
34.402754
 31
0.0
  0
LINE
  5
9F8
100
AcDbEntity
  8
BORDER
  6
CONTINUOUS
 62
     2
100
AcDbLine
 39
96.0
 10
44.773032
 20
34.402754
 30
0.0
 11
44.773032
 21
34.402754
 31
0.0
  0
LINE
  5
9F9
100
AcDbEntity
  8
BORDER
  6
CONTINUOUS
 62
     2
100
AcDbLine
 39
96.0
 10
43.132432
 20
33.933954
 30
0.0
 11
43.132432
 21
33.933954
 31
0.0
  0
LINE
  5
9FA
100
AcDbEntity
  8
BORDER
  6
CONTINUOUS
 62
     2
100
AcDbLine
 39
96.0
 10
43.601132
 20
33.933954
 30
0.0
 11
43.601132
 21
33.933954
 31
0.0
  0
LINE
  5
9FB
100
AcDbEntity
  8
BORDER
  6
CONTINUOUS
 62
     2
100
AcDbLine
 39
96.0
 10
44.069932
 20
33.933954
 30
0.0
 11
44.069932
 21
33.933954
 31
0.0
  0
LINE
  5
9FC
100
AcDbEntity
  8
BORDER
  6
CONTINUOUS
 62
     2
100
AcDbLine
 39
96.0
 10
44.538632
 20
33.933954
 30
0.0
 11
44.538632
 21
33.933954
 31
0.0
  0
LINE
  5
9FD
100
AcDbEntity
  8
BORDER
  6
CONTINUOUS
 62
     2
100
AcDbLine
 39
96.0
 10
43.366732
 20
33.465254
 30
0.0
 11
43.366732
 21
33.465254
 31
0.0
  0
LINE
  5
9FE
100
AcDbEntity
  8
BORDER
  6
CONTINUOUS
 62
     2
100
AcDbLine
 39
96.0
 10
43.835532
 20
33.465254
 30
0.0
 11
43.835532
 21
33.465254
 31
0.0
  0
LINE
  5
9FF
100
AcDbEntity
  8
BORDER
  6
CONTINUOUS
 62
     2
100
AcDbLine
 39
96.0
 10
44.304232
 20
33.465254
 30
0.0
 11
44.304232
 21
33.465254
 31
0.0
  0
LINE
  5
A00
100
AcDbEntity
  8
BORDER
  6
CONTINUOUS
 62
     2
100
AcDbLine
 39
96.0
 10
44.773032
 20
33.465254
 30
0.0
 11
44.773032
 21
33.465254
 31
0.0
  0
LINE
  5
A01
100
AcDbEntity
  8
BORDER
  6
CONTINUOUS
 62
     2
100
AcDbLine
 39
96.0
 10
43.132432
 20
32.996454
 30
0.0
 11
43.132432
 21
32.996454
 31
0.0
  0
LINE
  5
A02
100
AcDbEntity
  8
BORDER
  6
CONTINUOUS
 62
     2
100
AcDbLine
 39
96.0
 10
43.601132
 20
32.996454
 30
0.0
 11
43.601132
 21
32.996454
 31
0.0
  0
LINE
  5
A03
100
AcDbEntity
  8
BORDER
  6
CONTINUOUS
 62
     2
100
AcDbLine
 39
96.0
 10
44.069932
 20
32.996454
 30
0.0
 11
44.069932
 21
32.996454
 31
0.0
  0
LINE
  5
A04
100
AcDbEntity
  8
BORDER
  6
CONTINUOUS
 62
     2
100
AcDbLine
 39
96.0
 10
44.538632
 20
32.996454
 30
0.0
 11
44.538632
 21
32.996454
 31
0.0
  0
LINE
  5
A05
100
AcDbEntity
  8
BORDER
  6
CONTINUOUS
 62
     2
100
AcDbLine
 39
96.0
 10
43.366732
 20
32.527754
 30
0.0
 11
43.366732
 21
32.527754
 31
0.0
  0
LINE
  5
A06
100
AcDbEntity
  8
BORDER
  6
CONTINUOUS
 62
     2
100
AcDbLine
 39
96.0
 10
43.835532
 20
32.527754
 30
0.0
 11
43.835532
 21
32.527754
 31
0.0
  0
LINE
  5
A07
100
AcDbEntity
  8
BORDER
  6
CONTINUOUS
 62
     2
100
AcDbLine
 39
96.0
 10
44.304232
 20
32.527754
 30
0.0
 11
44.304232
 21
32.527754
 31
0.0
  0
LINE
  5
A08
100
AcDbEntity
  8
BORDER
  6
CONTINUOUS
 62
     2
100
AcDbLine
 39
96.0
 10
44.773032
 20
32.527754
 30
0.0
 11
44.773032
 21
32.527754
 31
0.0
  0
LINE
  5
A09
100
AcDbEntity
  8
BORDER
  6
CONTINUOUS
 62
     2
100
AcDbLine
 39
96.0
 10
43.132432
 20
32.058954
 30
0.0
 11
43.132432
 21
32.058954
 31
0.0
  0
LINE
  5
A0A
100
AcDbEntity
  8
BORDER
  6
CONTINUOUS
 62
     2
100
AcDbLine
 39
96.0
 10
43.601132
 20
32.058954
 30
0.0
 11
43.601132
 21
32.058954
 31
0.0
  0
LINE
  5
A0B
100
AcDbEntity
  8
BORDER
  6
CONTINUOUS
 62
     2
100
AcDbLine
 39
96.0
 10
44.069932
 20
32.058954
 30
0.0
 11
44.069932
 21
32.058954
 31
0.0
  0
LINE
  5
A0C
100
AcDbEntity
  8
BORDER
  6
CONTINUOUS
 62
     2
100
AcDbLine
 39
96.0
 10
44.538632
 20
32.058954
 30
0.0
 11
44.538632
 21
32.058954
 31
0.0
  0
LINE
  5
A0D
100
AcDbEntity
  8
BORDER
  6
CONTINUOUS
 62
     2
100
AcDbLine
 39
96.0
 10
43.366732
 20
31.590254
 30
0.0
 11
43.366732
 21
31.590254
 31
0.0
  0
LINE
  5
A0E
100
AcDbEntity
  8
BORDER
  6
CONTINUOUS
 62
     2
100
AcDbLine
 39
96.0
 10
43.835532
 20
31.590254
 30
0.0
 11
43.835532
 21
31.590254
 31
0.0
  0
LINE
  5
A0F
100
AcDbEntity
  8
BORDER
  6
CONTINUOUS
 62
     2
100
AcDbLine
 39
96.0
 10
44.304232
 20
31.590254
 30
0.0
 11
44.304232
 21
31.590254
 31
0.0
  0
LINE
  5
A10
100
AcDbEntity
  8
BORDER
  6
CONTINUOUS
 62
     2
100
AcDbLine
 39
96.0
 10
44.773032
 20
31.590254
 30
0.0
 11
44.773032
 21
31.590254
 31
0.0
  0
LINE
  5
A11
100
AcDbEntity
  8
BORDER
  6
CONTINUOUS
 62
     2
100
AcDbLine
 39
96.0
 10
43.132432
 20
31.121454
 30
0.0
 11
43.132432
 21
31.121454
 31
0.0
  0
LINE
  5
A12
100
AcDbEntity
  8
BORDER
  6
CONTINUOUS
 62
     2
100
AcDbLine
 39
96.0
 10
43.601132
 20
31.121454
 30
0.0
 11
43.601132
 21
31.121454
 31
0.0
  0
LINE
  5
A13
100
AcDbEntity
  8
BORDER
  6
CONTINUOUS
 62
     2
100
AcDbLine
 39
96.0
 10
44.069932
 20
31.121454
 30
0.0
 11
44.069932
 21
31.121454
 31
0.0
  0
LINE
  5
A14
100
AcDbEntity
  8
BORDER
  6
CONTINUOUS
 62
     2
100
AcDbLine
 39
96.0
 10
44.538632
 20
31.121454
 30
0.0
 11
44.538632
 21
31.121454
 31
0.0
  0
LINE
  5
A15
100
AcDbEntity
  8
BORDER
  6
CONTINUOUS
 62
     2
100
AcDbLine
 39
96.0
 10
43.366732
 20
30.652754
 30
0.0
 11
43.366732
 21
30.652754
 31
0.0
  0
LINE
  5
A16
100
AcDbEntity
  8
BORDER
  6
CONTINUOUS
 62
     2
100
AcDbLine
 39
96.0
 10
43.835532
 20
30.652754
 30
0.0
 11
43.835532
 21
30.652754
 31
0.0
  0
LINE
  5
A17
100
AcDbEntity
  8
BORDER
  6
CONTINUOUS
 62
     2
100
AcDbLine
 39
96.0
 10
44.304232
 20
30.652754
 30
0.0
 11
44.304232
 21
30.652754
 31
0.0
  0
LINE
  5
A18
100
AcDbEntity
  8
BORDER
  6
CONTINUOUS
 62
     2
100
AcDbLine
 39
96.0
 10
44.773032
 20
30.652754
 30
0.0
 11
44.773032
 21
30.652754
 31
0.0
  0
LINE
  5
A19
100
AcDbEntity
  8
BORDER
  6
CONTINUOUS
 62
     2
100
AcDbLine
 39
96.0
 10
43.132432
 20
30.183954
 30
0.0
 11
43.132432
 21
30.183954
 31
0.0
  0
LINE
  5
A1A
100
AcDbEntity
  8
BORDER
  6
CONTINUOUS
 62
     2
100
AcDbLine
 39
96.0
 10
43.601132
 20
30.183954
 30
0.0
 11
43.601132
 21
30.183954
 31
0.0
  0
LINE
  5
A1B
100
AcDbEntity
  8
BORDER
  6
CONTINUOUS
 62
     2
100
AcDbLine
 39
96.0
 10
44.069932
 20
30.183954
 30
0.0
 11
44.069932
 21
30.183954
 31
0.0
  0
LINE
  5
A1C
100
AcDbEntity
  8
BORDER
  6
CONTINUOUS
 62
     2
100
AcDbLine
 39
96.0
 10
44.538632
 20
30.183954
 30
0.0
 11
44.538632
 21
30.183954
 31
0.0
  0
LINE
  5
A1D
100
AcDbEntity
  8
BORDER
  6
CONTINUOUS
 62
     2
100
AcDbLine
 39
96.0
 10
43.366732
 20
29.715254
 30
0.0
 11
43.366732
 21
29.715254
 31
0.0
  0
LINE
  5
A1E
100
AcDbEntity
  8
BORDER
  6
CONTINUOUS
 62
     2
100
AcDbLine
 39
96.0
 10
43.835532
 20
29.715254
 30
0.0
 11
43.835532
 21
29.715254
 31
0.0
  0
LINE
  5
A1F
100
AcDbEntity
  8
BORDER
  6
CONTINUOUS
 62
     2
100
AcDbLine
 39
96.0
 10
44.304232
 20
29.715254
 30
0.0
 11
44.304232
 21
29.715254
 31
0.0
  0
LINE
  5
A20
100
AcDbEntity
  8
BORDER
  6
CONTINUOUS
 62
     2
100
AcDbLine
 39
96.0
 10
44.773032
 20
29.715254
 30
0.0
 11
44.773032
 21
29.715254
 31
0.0
  0
LINE
  5
A21
100
AcDbEntity
  8
BORDER
  6
CONTINUOUS
 62
     2
100
AcDbLine
 39
96.0
 10
43.132432
 20
29.246454
 30
0.0
 11
43.132432
 21
29.246454
 31
0.0
  0
LINE
  5
A22
100
AcDbEntity
  8
BORDER
  6
CONTINUOUS
 62
     2
100
AcDbLine
 39
96.0
 10
43.601132
 20
29.246454
 30
0.0
 11
43.601132
 21
29.246454
 31
0.0
  0
LINE
  5
A23
100
AcDbEntity
  8
BORDER
  6
CONTINUOUS
 62
     2
100
AcDbLine
 39
96.0
 10
44.069932
 20
29.246454
 30
0.0
 11
44.069932
 21
29.246454
 31
0.0
  0
LINE
  5
A24
100
AcDbEntity
  8
BORDER
  6
CONTINUOUS
 62
     2
100
AcDbLine
 39
96.0
 10
44.538632
 20
29.246454
 30
0.0
 11
44.538632
 21
29.246454
 31
0.0
  0
LINE
  5
A25
100
AcDbEntity
  8
BORDER
  6
CONTINUOUS
 62
     2
100
AcDbLine
 39
96.0
 10
43.366732
 20
28.777754
 30
0.0
 11
43.366732
 21
28.777754
 31
0.0
  0
LINE
  5
A26
100
AcDbEntity
  8
BORDER
  6
CONTINUOUS
 62
     2
100
AcDbLine
 39
96.0
 10
43.835532
 20
28.777754
 30
0.0
 11
43.835532
 21
28.777754
 31
0.0
  0
LINE
  5
A27
100
AcDbEntity
  8
BORDER
  6
CONTINUOUS
 62
     2
100
AcDbLine
 39
96.0
 10
44.304232
 20
28.777754
 30
0.0
 11
44.304232
 21
28.777754
 31
0.0
  0
LINE
  5
A28
100
AcDbEntity
  8
BORDER
  6
CONTINUOUS
 62
     2
100
AcDbLine
 39
96.0
 10
44.773032
 20
28.777754
 30
0.0
 11
44.773032
 21
28.777754
 31
0.0
  0
LINE
  5
A29
100
AcDbEntity
  8
BORDER
  6
CONTINUOUS
 62
     2
100
AcDbLine
 39
96.0
 10
43.132432
 20
28.308954
 30
0.0
 11
43.132432
 21
28.308954
 31
0.0
  0
LINE
  5
A2A
100
AcDbEntity
  8
BORDER
  6
CONTINUOUS
 62
     2
100
AcDbLine
 39
96.0
 10
43.601132
 20
28.308954
 30
0.0
 11
43.601132
 21
28.308954
 31
0.0
  0
LINE
  5
A2B
100
AcDbEntity
  8
BORDER
  6
CONTINUOUS
 62
     2
100
AcDbLine
 39
96.0
 10
44.069932
 20
28.308954
 30
0.0
 11
44.069932
 21
28.308954
 31
0.0
  0
LINE
  5
A2C
100
AcDbEntity
  8
BORDER
  6
CONTINUOUS
 62
     2
100
AcDbLine
 39
96.0
 10
44.538632
 20
28.308954
 30
0.0
 11
44.538632
 21
28.308954
 31
0.0
  0
LINE
  5
A2D
100
AcDbEntity
  8
BORDER
  6
CONTINUOUS
 62
     3
100
AcDbLine
 39
96.0
 10
34.951232
 20
35.944754
 30
0.0
 11
36.826232
 21
35.944754
 31
0.0
  0
LINE
  5
A2E
100
AcDbEntity
  8
BORDER
  6
CONTINUOUS
 62
     3
100
AcDbLine
 39
96.0
 10
43.076232
 20
35.944754
 30
0.0
 11
44.951232
 21
35.944754
 31
0.0
  0
LINE
  5
A2F
100
AcDbEntity
  8
BORDER
  6
CONTINUOUS
 62
    10
100
AcDbLine
 39
96.0
 10
40.470532
 20
33.824154
 30
0.0
 11
40.397032
 21
33.797354
 31
0.0
  0
LINE
  5
A30
100
AcDbEntity
  8
BORDER
  6
CONTINUOUS
 62
    10
100
AcDbLine
 39
96.0
 10
40.201732
 20
34.656854
 30
0.0
 11
40.156832
 21
34.592854
 31
0.0
  0
LINE
  5
A31
100
AcDbEntity
  8
BORDER
  6
CONTINUOUS
 62
    10
100
AcDbLine
 39
96.0
 10
39.056432
 20
33.684054
 30
0.0
 11
39.042832
 21
33.607154
 31
0.0
  0
LINE
  5
A32
100
AcDbEntity
  8
BORDER
  6
CONTINUOUS
 62
     3
100
AcDbLine
 39
96.0
 10
46.084332
 20
27.914054
 30
0.0
 11
41.654632
 21
27.914054
 31
0.0
  0
LINE
  5
A33
100
AcDbEntity
  8
BORDER
  6
CONTINUOUS
 62
     3
100
AcDbLine
 39
96.0
 10
38.228832
 20
27.914054
 30
0.0
 11
33.799132
 21
27.914054
 31
0.0
  0
LINE
  5
A34
100
AcDbEntity
  8
BORDER
  6
CONTINUOUS
 62
     3
100
AcDbLine
 39
96.0
 10
38.228832
 20
27.914054
 30
0.0
 11
39.055732
 21
29.567854
 31
0.0
  0
LINE
  5
A35
100
AcDbEntity
  8
BORDER
  6
CONTINUOUS
 62
     3
100
AcDbLine
 39
96.0
 10
39.055732
 20
29.567854
 30
0.0
 11
41.004732
 21
26.260354
 31
0.0
  0
LINE
  5
A36
100
AcDbEntity
  8
BORDER
  6
CONTINUOUS
 62
     3
100
AcDbLine
 39
96.0
 10
41.004732
 20
26.260354
 30
0.0
 11
41.654632
 21
27.914054
 31
0.0
  0
LINE
  5
A37
100
AcDbEntity
  8
BORDER
  6
CONTINUOUS
 62
     1
100
AcDbLine
 39
96.0
 10
45.018832
 20
64.739954
 30
0.0
 11
44.957332
 21
64.750754
 31
0.0
  0
LINE
  5
A38
100
AcDbEntity
  8
BORDER
  6
CONTINUOUS
 62
    10
100
AcDbLine
 39
96.0
 10
42.385532
 20
64.833954
 30
0.0
 11
42.462432
 21
64.820354
 31
0.0
  0
CIRCLE
  5
A39
100
AcDbEntity
  8
BORDER
  6
CONTINUOUS
 62
     7
100
AcDbCircle
 39
96.0
 10
39.308095
 20
64.557269
 30
0.0
 40
0.375
  0
CIRCLE
  5
A3A
100
AcDbEntity
  8
BORDER
  6
CONTINUOUS
 62
     7
100
AcDbCircle
 39
96.0
 10
40.413932
 20
48.938554
 30
0.0
 40
0.375
  0
CIRCLE
  5
A3B
100
AcDbEntity
  8
BORDER
  6
CONTINUOUS
 62
     7
100
AcDbCircle
 39
96.0
 10
40.413932
 20
33.938554
 30
0.0
 40
0.375
  0
LINE
  5
A3C
100
AcDbEntity
  8
BORDER
  6
CONTINUOUS
 62
     2
100
AcDbLine
 39
96.0
 10
43.366732
 20
57.840154
 30
0.0
 11
43.366732
 21
57.840154
 31
0.0
  0
LINE
  5
A3D
100
AcDbEntity
  8
BORDER
  6
CONTINUOUS
 62
     2
100
AcDbLine
 39
96.0
 10
43.835532
 20
57.840154
 30
0.0
 11
43.835532
 21
57.840154
 31
0.0
  0
LINE
  5
A3E
100
AcDbEntity
  8
BORDER
  6
CONTINUOUS
 62
     2
100
AcDbLine
 39
96.0
 10
44.304232
 20
57.840154
 30
0.0
 11
44.304232
 21
57.840154
 31
0.0
  0
LINE
  5
A3F
100
AcDbEntity
  8
BORDER
  6
CONTINUOUS
 62
     2
100
AcDbLine
 39
96.0
 10
44.773032
 20
57.840154
 30
0.0
 11
44.773032
 21
57.840154
 31
0.0
  0
LINE
  5
A40
100
AcDbEntity
  8
BORDER
  6
CONTINUOUS
 62
     1
100
AcDbLine
 39
96.0
 10
42.583532
 20
63.393854
 30
0.0
 11
42.532332
 21
63.429654
 31
0.0
  0
LINE
  5
A41
100
AcDbEntity
  8
BORDER
  6
CONTINUOUS
 62
     2
100
AcDbLine
 39
96.0
 10
44.010532
 20
62.347454
 30
0.0
 11
44.010532
 21
62.347454
 31
0.0
  0
LINE
  5
A42
100
AcDbEntity
  8
BORDER
  6
CONTINUOUS
 62
     2
100
AcDbLine
 39
96.0
 10
44.479332
 20
61.644254
 30
0.0
 11
44.479332
 21
61.644254
 31
0.0
  0
LINE
  5
A43
100
AcDbEntity
  8
BORDER
  6
CONTINUOUS
 62
     2
100
AcDbLine
 39
96.0
 10
44.479332
 20
62.113054
 30
0.0
 11
44.479332
 21
62.113054
 31
0.0
  0
LINE
  5
A44
100
AcDbEntity
  8
BORDER
  6
CONTINUOUS
 62
     2
100
AcDbLine
 39
96.0
 10
44.948032
 20
60.941154
 30
0.0
 11
44.948032
 21
60.941154
 31
0.0
  0
LINE
  5
A45
100
AcDbEntity
  8
BORDER
  6
CONTINUOUS
 62
     2
100
AcDbLine
 39
96.0
 10
44.948032
 20
61.409954
 30
0.0
 11
44.948032
 21
61.409954
 31
0.0
  0
LINE
  5
A46
100
AcDbEntity
  8
BORDER
  6
CONTINUOUS
 62
     2
100
AcDbLine
 39
96.0
 10
44.948032
 20
61.878654
 30
0.0
 11
44.948032
 21
61.878654
 31
0.0
  0
LINE
  5
A47
100
AcDbEntity
  8
BORDER
  6
CONTINUOUS
 62
     2
100
AcDbLine
 39
96.0
 10
44.948032
 20
62.347454
 30
0.0
 11
44.948032
 21
62.347454
 31
0.0
  0
LINE
  5
A48
100
AcDbEntity
  8
BORDER
  6
CONTINUOUS
 62
     2
100
AcDbLine
 39
96.0
 10
43.366732
 20
58.777654
 30
0.0
 11
43.366732
 21
58.777654
 31
0.0
  0
LINE
  5
A49
100
AcDbEntity
  8
BORDER
  6
CONTINUOUS
 62
     2
100
AcDbLine
 39
96.0
 10
43.835532
 20
58.777654
 30
0.0
 11
43.835532
 21
58.777654
 31
0.0
  0
LINE
  5
A4A
100
AcDbEntity
  8
BORDER
  6
CONTINUOUS
 62
     2
100
AcDbLine
 39
96.0
 10
44.304232
 20
58.777654
 30
0.0
 11
44.304232
 21
58.777654
 31
0.0
  0
LINE
  5
A4B
100
AcDbEntity
  8
BORDER
  6
CONTINUOUS
 62
     2
100
AcDbLine
 39
96.0
 10
44.773032
 20
58.777654
 30
0.0
 11
44.773032
 21
58.777654
 31
0.0
  0
LINE
  5
A4C
100
AcDbEntity
  8
BORDER
  6
CONTINUOUS
 62
     2
100
AcDbLine
 39
96.0
 10
43.601132
 20
58.308954
 30
0.0
 11
43.601132
 21
58.308954
 31
0.0
  0
LINE
  5
A4D
100
AcDbEntity
  8
BORDER
  6
CONTINUOUS
 62
     2
100
AcDbLine
 39
96.0
 10
44.069932
 20
58.308954
 30
0.0
 11
44.069932
 21
58.308954
 31
0.0
  0
LINE
  5
A4E
100
AcDbEntity
  8
BORDER
  6
CONTINUOUS
 62
     2
100
AcDbLine
 39
96.0
 10
44.538632
 20
58.308954
 30
0.0
 11
44.538632
 21
58.308954
 31
0.0
  0
LINE
  5
A4F
100
AcDbEntity
  8
BORDER
  6
CONTINUOUS
 62
     2
100
AcDbLine
 39
96.0
 10
43.366732
 20
59.715154
 30
0.0
 11
43.366732
 21
59.715154
 31
0.0
  0
LINE
  5
A50
100
AcDbEntity
  8
BORDER
  6
CONTINUOUS
 62
     2
100
AcDbLine
 39
96.0
 10
43.835532
 20
59.715154
 30
0.0
 11
43.835532
 21
59.715154
 31
0.0
  0
LINE
  5
A51
100
AcDbEntity
  8
BORDER
  6
CONTINUOUS
 62
     2
100
AcDbLine
 39
96.0
 10
44.304232
 20
59.715154
 30
0.0
 11
44.304232
 21
59.715154
 31
0.0
  0
LINE
  5
A52
100
AcDbEntity
  8
BORDER
  6
CONTINUOUS
 62
     2
100
AcDbLine
 39
96.0
 10
44.773032
 20
59.715154
 30
0.0
 11
44.773032
 21
59.715154
 31
0.0
  0
LINE
  5
A53
100
AcDbEntity
  8
BORDER
  6
CONTINUOUS
 62
     2
100
AcDbLine
 39
96.0
 10
43.601132
 20
59.246454
 30
0.0
 11
43.601132
 21
59.246454
 31
0.0
  0
LINE
  5
A54
100
AcDbEntity
  8
BORDER
  6
CONTINUOUS
 62
     2
100
AcDbLine
 39
96.0
 10
44.069932
 20
59.246454
 30
0.0
 11
44.069932
 21
59.246454
 31
0.0
  0
LINE
  5
A55
100
AcDbEntity
  8
BORDER
  6
CONTINUOUS
 62
     2
100
AcDbLine
 39
96.0
 10
44.538632
 20
59.246454
 30
0.0
 11
44.538632
 21
59.246454
 31
0.0
  0
LINE
  5
A56
100
AcDbEntity
  8
BORDER
  6
CONTINUOUS
 62
     2
100
AcDbLine
 39
96.0
 10
43.366732
 20
60.652654
 30
0.0
 11
43.366732
 21
60.652654
 31
0.0
  0
LINE
  5
A57
100
AcDbEntity
  8
BORDER
  6
CONTINUOUS
 62
     2
100
AcDbLine
 39
96.0
 10
43.835532
 20
60.652654
 30
0.0
 11
43.835532
 21
60.652654
 31
0.0
  0
LINE
  5
A58
100
AcDbEntity
  8
BORDER
  6
CONTINUOUS
 62
     2
100
AcDbLine
 39
96.0
 10
44.304232
 20
60.652654
 30
0.0
 11
44.304232
 21
60.652654
 31
0.0
  0
LINE
  5
A59
100
AcDbEntity
  8
BORDER
  6
CONTINUOUS
 62
     2
100
AcDbLine
 39
96.0
 10
44.773032
 20
60.652654
 30
0.0
 11
44.773032
 21
60.652654
 31
0.0
  0
LINE
  5
A5A
100
AcDbEntity
  8
BORDER
  6
CONTINUOUS
 62
     2
100
AcDbLine
 39
96.0
 10
43.601132
 20
60.183954
 30
0.0
 11
43.601132
 21
60.183954
 31
0.0
  0
LINE
  5
A5B
100
AcDbEntity
  8
BORDER
  6
CONTINUOUS
 62
     2
100
AcDbLine
 39
96.0
 10
44.069932
 20
60.183954
 30
0.0
 11
44.069932
 21
60.183954
 31
0.0
  0
LINE
  5
A5C
100
AcDbEntity
  8
BORDER
  6
CONTINUOUS
 62
     2
100
AcDbLine
 39
96.0
 10
44.538632
 20
60.183954
 30
0.0
 11
44.538632
 21
60.183954
 31
0.0
  0
LINE
  5
A5D
100
AcDbEntity
  8
BORDER
  6
CONTINUOUS
 62
     2
100
AcDbLine
 39
96.0
 10
43.366732
 20
61.590154
 30
0.0
 11
43.366732
 21
61.590154
 31
0.0
  0
LINE
  5
A5E
100
AcDbEntity
  8
BORDER
  6
CONTINUOUS
 62
     2
100
AcDbLine
 39
96.0
 10
43.835532
 20
61.590154
 30
0.0
 11
43.835532
 21
61.590154
 31
0.0
  0
LINE
  5
A5F
100
AcDbEntity
  8
BORDER
  6
CONTINUOUS
 62
     2
100
AcDbLine
 39
96.0
 10
43.601132
 20
61.121454
 30
0.0
 11
43.601132
 21
61.121454
 31
0.0
  0
LINE
  5
A60
100
AcDbEntity
  8
BORDER
  6
CONTINUOUS
 62
     2
100
AcDbLine
 39
96.0
 10
44.069932
 20
61.121454
 30
0.0
 11
44.069932
 21
61.121454
 31
0.0
  0
LINE
  5
A61
100
AcDbEntity
  8
BORDER
  6
CONTINUOUS
 62
     2
100
AcDbLine
 39
96.0
 10
44.538632
 20
61.121454
 30
0.0
 11
44.538632
 21
61.121454
 31
0.0
  0
LINE
  5
A62
100
AcDbEntity
  8
BORDER
  6
CONTINUOUS
 62
     1
100
AcDbLine
 39
96.0
 10
38.854032
 20
62.634254
 30
0.0
 11
38.912932
 21
62.655554
 31
0.0
  0
LINE
  5
A63
100
AcDbEntity
  8
BORDER
  6
CONTINUOUS
 62
     1
100
AcDbLine
 39
96.0
 10
37.359732
 20
59.429854
 30
0.0
 11
37.418532
 21
59.451254
 31
0.0
  0
LINE
  5
A64
100
AcDbEntity
  8
BORDER
  6
CONTINUOUS
 62
     1
100
AcDbLine
 39
96.0
 10
39.709032
 20
60.284954
 30
0.0
 11
39.767932
 21
60.306254
 31
0.0
  0
LINE
  5
A65
100
AcDbEntity
  8
BORDER
  6
CONTINUOUS
 62
     1
100
AcDbLine
 39
96.0
 10
40.564032
 20
57.935654
 30
0.0
 11
40.622832
 21
57.957054
 31
0.0
  0
LINE
  5
A66
100
AcDbEntity
  8
BORDER
  6
CONTINUOUS
 62
     1
100
AcDbLine
 39
96.0
 10
37.616332
 20
63.486054
 30
0.0
 11
37.652132
 21
63.537254
 31
0.0
  0
LINE
  5
A67
100
AcDbEntity
  8
BORDER
  6
CONTINUOUS
 62
     1
100
AcDbLine
 39
96.0
 10
38.230332
 20
60.004254
 30
0.0
 11
38.266232
 21
60.055354
 31
0.0
  0
LINE
  5
A68
100
AcDbEntity
  8
BORDER
  6
CONTINUOUS
 62
     1
100
AcDbLine
 39
96.0
 10
39.664432
 20
62.052054
 30
0.0
 11
39.700232
 21
62.103254
 31
0.0
  0
LINE
  5
A69
100
AcDbEntity
  8
BORDER
  6
CONTINUOUS
 62
     1
100
AcDbLine
 39
96.0
 10
40.278132
 20
58.570354
 30
0.0
 11
40.314032
 21
58.621554
 31
0.0
  0
LINE
  5
A6A
100
AcDbEntity
  8
BORDER
  6
CONTINUOUS
 62
     1
100
AcDbLine
 39
96.0
 10
38.528432
 20
58.588554
 30
0.0
 11
38.539132
 21
58.650054
 31
0.0
  0
LINE
  5
A6B
100
AcDbEntity
  8
BORDER
  6
CONTINUOUS
 62
     1
100
AcDbLine
 39
96.0
 10
38.962432
 20
61.050654
 30
0.0
 11
38.973232
 21
61.112154
 31
0.0
  0
LINE
  5
A6C
100
AcDbEntity
  8
BORDER
  6
CONTINUOUS
 62
     1
100
AcDbLine
 39
96.0
 10
40.990032
 20
58.154454
 30
0.0
 11
41.000832
 21
58.216054
 31
0.0
  0
LINE
  5
A6D
100
AcDbEntity
  8
BORDER
  6
CONTINUOUS
 62
    10
100
AcDbLine
 39
96.0
 10
40.470532
 20
63.824154
 30
0.0
 11
40.397032
 21
63.797454
 31
0.0
  0
LINE
  5
A6E
100
AcDbEntity
  8
BORDER
  6
CONTINUOUS
 62
    10
100
AcDbLine
 39
96.0
 10
40.201732
 20
64.656854
 30
0.0
 11
40.156832
 21
64.592854
 31
0.0
  0
LINE
  5
A6F
100
AcDbEntity
  8
BORDER
  6
CONTINUOUS
 62
    10
100
AcDbLine
 39
96.0
 10
39.056432
 20
63.684054
 30
0.0
 11
39.042832
 21
63.607154
 31
0.0
  0
LINE
  5
A70
100
AcDbEntity
  8
BORDER
  6
CONTINUOUS
 62
     1
100
AcDbLine
 39
96.0
 10
36.934632
 20
63.946754
 30
0.0
 11
36.945432
 21
64.008254
 31
0.0
  0
LINE
  5
A71
100
AcDbEntity
  8
BORDER
  6
CONTINUOUS
 62
     2
100
AcDbLine
 39
96.0
 10
35.163632
 20
65.808954
 30
0.0
 11
35.163632
 21
65.808954
 31
0.0
  0
LINE
  5
A72
100
AcDbEntity
  8
BORDER
  6
CONTINUOUS
 62
     2
100
AcDbLine
 39
96.0
 10
35.632432
 20
65.808954
 30
0.0
 11
35.632432
 21
65.808954
 31
0.0
  0
LINE
  5
A73
100
AcDbEntity
  8
BORDER
  6
CONTINUOUS
 62
     2
100
AcDbLine
 39
96.0
 10
36.101132
 20
65.808954
 30
0.0
 11
36.101132
 21
65.808954
 31
0.0
  0
LINE
  5
A74
100
AcDbEntity
  8
BORDER
  6
CONTINUOUS
 62
     2
100
AcDbLine
 39
96.0
 10
36.569932
 20
65.808954
 30
0.0
 11
36.569932
 21
65.808954
 31
0.0
  0
LINE
  5
A75
100
AcDbEntity
  8
BORDER
  6
CONTINUOUS
 62
     2
100
AcDbLine
 39
96.0
 10
35.398032
 20
65.340154
 30
0.0
 11
35.398032
 21
65.340154
 31
0.0
  0
LINE
  5
A76
100
AcDbEntity
  8
BORDER
  6
CONTINUOUS
 62
     2
100
AcDbLine
 39
96.0
 10
35.866732
 20
65.340154
 30
0.0
 11
35.866732
 21
65.340154
 31
0.0
  0
LINE
  5
A77
100
AcDbEntity
  8
BORDER
  6
CONTINUOUS
 62
     2
100
AcDbLine
 39
96.0
 10
36.335532
 20
65.340154
 30
0.0
 11
36.335532
 21
65.340154
 31
0.0
  0
LINE
  5
A78
100
AcDbEntity
  8
BORDER
  6
CONTINUOUS
 62
     2
100
AcDbLine
 39
96.0
 10
36.804232
 20
65.340154
 30
0.0
 11
36.804232
 21
65.340154
 31
0.0
  0
LINE
  5
A79
100
AcDbEntity
  8
BORDER
  6
CONTINUOUS
 62
     2
100
AcDbLine
 39
96.0
 10
35.163632
 20
64.871454
 30
0.0
 11
35.163632
 21
64.871454
 31
0.0
  0
LINE
  5
A7A
100
AcDbEntity
  8
BORDER
  6
CONTINUOUS
 62
     2
100
AcDbLine
 39
96.0
 10
35.632432
 20
64.871454
 30
0.0
 11
35.632432
 21
64.871454
 31
0.0
  0
LINE
  5
A7B
100
AcDbEntity
  8
BORDER
  6
CONTINUOUS
 62
     2
100
AcDbLine
 39
96.0
 10
36.101132
 20
64.871454
 30
0.0
 11
36.101132
 21
64.871454
 31
0.0
  0
LINE
  5
A7C
100
AcDbEntity
  8
BORDER
  6
CONTINUOUS
 62
     2
100
AcDbLine
 39
96.0
 10
36.569932
 20
64.871454
 30
0.0
 11
36.569932
 21
64.871454
 31
0.0
  0
LINE
  5
A7D
100
AcDbEntity
  8
BORDER
  6
CONTINUOUS
 62
     2
100
AcDbLine
 39
96.0
 10
35.398032
 20
64.402654
 30
0.0
 11
35.398032
 21
64.402654
 31
0.0
  0
LINE
  5
A7E
100
AcDbEntity
  8
BORDER
  6
CONTINUOUS
 62
     2
100
AcDbLine
 39
96.0
 10
35.866732
 20
64.402654
 30
0.0
 11
35.866732
 21
64.402654
 31
0.0
  0
LINE
  5
A7F
100
AcDbEntity
  8
BORDER
  6
CONTINUOUS
 62
     2
100
AcDbLine
 39
96.0
 10
36.335532
 20
64.402654
 30
0.0
 11
36.335532
 21
64.402654
 31
0.0
  0
LINE
  5
A80
100
AcDbEntity
  8
BORDER
  6
CONTINUOUS
 62
     2
100
AcDbLine
 39
96.0
 10
36.804232
 20
64.402654
 30
0.0
 11
36.804232
 21
64.402654
 31
0.0
  0
LINE
  5
A81
100
AcDbEntity
  8
BORDER
  6
CONTINUOUS
 62
     2
100
AcDbLine
 39
96.0
 10
35.163632
 20
63.933954
 30
0.0
 11
35.163632
 21
63.933954
 31
0.0
  0
LINE
  5
A82
100
AcDbEntity
  8
BORDER
  6
CONTINUOUS
 62
     2
100
AcDbLine
 39
96.0
 10
35.632432
 20
63.933954
 30
0.0
 11
35.632432
 21
63.933954
 31
0.0
  0
LINE
  5
A83
100
AcDbEntity
  8
BORDER
  6
CONTINUOUS
 62
     2
100
AcDbLine
 39
96.0
 10
36.101132
 20
63.933954
 30
0.0
 11
36.101132
 21
63.933954
 31
0.0
  0
LINE
  5
A84
100
AcDbEntity
  8
BORDER
  6
CONTINUOUS
 62
     2
100
AcDbLine
 39
96.0
 10
36.569932
 20
63.933954
 30
0.0
 11
36.569932
 21
63.933954
 31
0.0
  0
LINE
  5
A85
100
AcDbEntity
  8
BORDER
  6
CONTINUOUS
 62
     2
100
AcDbLine
 39
96.0
 10
35.398032
 20
63.465154
 30
0.0
 11
35.398032
 21
63.465154
 31
0.0
  0
LINE
  5
A86
100
AcDbEntity
  8
BORDER
  6
CONTINUOUS
 62
     2
100
AcDbLine
 39
96.0
 10
35.866732
 20
63.465154
 30
0.0
 11
35.866732
 21
63.465154
 31
0.0
  0
LINE
  5
A87
100
AcDbEntity
  8
BORDER
  6
CONTINUOUS
 62
     2
100
AcDbLine
 39
96.0
 10
36.335532
 20
63.465154
 30
0.0
 11
36.335532
 21
63.465154
 31
0.0
  0
LINE
  5
A88
100
AcDbEntity
  8
BORDER
  6
CONTINUOUS
 62
     2
100
AcDbLine
 39
96.0
 10
36.804232
 20
63.465154
 30
0.0
 11
36.804232
 21
63.465154
 31
0.0
  0
LINE
  5
A89
100
AcDbEntity
  8
BORDER
  6
CONTINUOUS
 62
     2
100
AcDbLine
 39
96.0
 10
35.163632
 20
62.996454
 30
0.0
 11
35.163632
 21
62.996454
 31
0.0
  0
LINE
  5
A8A
100
AcDbEntity
  8
BORDER
  6
CONTINUOUS
 62
     2
100
AcDbLine
 39
96.0
 10
35.632432
 20
62.996454
 30
0.0
 11
35.632432
 21
62.996454
 31
0.0
  0
LINE
  5
A8B
100
AcDbEntity
  8
BORDER
  6
CONTINUOUS
 62
     2
100
AcDbLine
 39
96.0
 10
36.101132
 20
62.996454
 30
0.0
 11
36.101132
 21
62.996454
 31
0.0
  0
LINE
  5
A8C
100
AcDbEntity
  8
BORDER
  6
CONTINUOUS
 62
     2
100
AcDbLine
 39
96.0
 10
36.569932
 20
62.996454
 30
0.0
 11
36.569932
 21
62.996454
 31
0.0
  0
LINE
  5
A8D
100
AcDbEntity
  8
BORDER
  6
CONTINUOUS
 62
     2
100
AcDbLine
 39
96.0
 10
35.398032
 20
62.527654
 30
0.0
 11
35.398032
 21
62.527654
 31
0.0
  0
LINE
  5
A8E
100
AcDbEntity
  8
BORDER
  6
CONTINUOUS
 62
     2
100
AcDbLine
 39
96.0
 10
35.866732
 20
62.527654
 30
0.0
 11
35.866732
 21
62.527654
 31
0.0
  0
LINE
  5
A8F
100
AcDbEntity
  8
BORDER
  6
CONTINUOUS
 62
     2
100
AcDbLine
 39
96.0
 10
36.335532
 20
62.527654
 30
0.0
 11
36.335532
 21
62.527654
 31
0.0
  0
LINE
  5
A90
100
AcDbEntity
  8
BORDER
  6
CONTINUOUS
 62
     2
100
AcDbLine
 39
96.0
 10
36.804232
 20
62.527654
 30
0.0
 11
36.804232
 21
62.527654
 31
0.0
  0
LINE
  5
A91
100
AcDbEntity
  8
BORDER
  6
CONTINUOUS
 62
     2
100
AcDbLine
 39
96.0
 10
35.163632
 20
62.058954
 30
0.0
 11
35.163632
 21
62.058954
 31
0.0
  0
LINE
  5
A92
100
AcDbEntity
  8
BORDER
  6
CONTINUOUS
 62
     2
100
AcDbLine
 39
96.0
 10
35.632432
 20
62.058954
 30
0.0
 11
35.632432
 21
62.058954
 31
0.0
  0
LINE
  5
A93
100
AcDbEntity
  8
BORDER
  6
CONTINUOUS
 62
     2
100
AcDbLine
 39
96.0
 10
36.101132
 20
62.058954
 30
0.0
 11
36.101132
 21
62.058954
 31
0.0
  0
LINE
  5
A94
100
AcDbEntity
  8
BORDER
  6
CONTINUOUS
 62
     2
100
AcDbLine
 39
96.0
 10
36.569932
 20
62.058954
 30
0.0
 11
36.569932
 21
62.058954
 31
0.0
  0
LINE
  5
A95
100
AcDbEntity
  8
BORDER
  6
CONTINUOUS
 62
     2
100
AcDbLine
 39
96.0
 10
35.398032
 20
61.590154
 30
0.0
 11
35.398032
 21
61.590154
 31
0.0
  0
LINE
  5
A96
100
AcDbEntity
  8
BORDER
  6
CONTINUOUS
 62
     2
100
AcDbLine
 39
96.0
 10
35.866732
 20
61.590154
 30
0.0
 11
35.866732
 21
61.590154
 31
0.0
  0
LINE
  5
A97
100
AcDbEntity
  8
BORDER
  6
CONTINUOUS
 62
     2
100
AcDbLine
 39
96.0
 10
36.335532
 20
61.590154
 30
0.0
 11
36.335532
 21
61.590154
 31
0.0
  0
LINE
  5
A98
100
AcDbEntity
  8
BORDER
  6
CONTINUOUS
 62
     2
100
AcDbLine
 39
96.0
 10
36.804232
 20
61.590154
 30
0.0
 11
36.804232
 21
61.590154
 31
0.0
  0
LINE
  5
A99
100
AcDbEntity
  8
BORDER
  6
CONTINUOUS
 62
     2
100
AcDbLine
 39
96.0
 10
35.163632
 20
61.121454
 30
0.0
 11
35.163632
 21
61.121454
 31
0.0
  0
LINE
  5
A9A
100
AcDbEntity
  8
BORDER
  6
CONTINUOUS
 62
     2
100
AcDbLine
 39
96.0
 10
35.632432
 20
61.121454
 30
0.0
 11
35.632432
 21
61.121454
 31
0.0
  0
LINE
  5
A9B
100
AcDbEntity
  8
BORDER
  6
CONTINUOUS
 62
     2
100
AcDbLine
 39
96.0
 10
36.101132
 20
61.121454
 30
0.0
 11
36.101132
 21
61.121454
 31
0.0
  0
LINE
  5
A9C
100
AcDbEntity
  8
BORDER
  6
CONTINUOUS
 62
     2
100
AcDbLine
 39
96.0
 10
36.569932
 20
61.121454
 30
0.0
 11
36.569932
 21
61.121454
 31
0.0
  0
LINE
  5
A9D
100
AcDbEntity
  8
BORDER
  6
CONTINUOUS
 62
     2
100
AcDbLine
 39
96.0
 10
35.398032
 20
60.652654
 30
0.0
 11
35.398032
 21
60.652654
 31
0.0
  0
LINE
  5
A9E
100
AcDbEntity
  8
BORDER
  6
CONTINUOUS
 62
     2
100
AcDbLine
 39
96.0
 10
35.866732
 20
60.652654
 30
0.0
 11
35.866732
 21
60.652654
 31
0.0
  0
LINE
  5
A9F
100
AcDbEntity
  8
BORDER
  6
CONTINUOUS
 62
     2
100
AcDbLine
 39
96.0
 10
36.335532
 20
60.652654
 30
0.0
 11
36.335532
 21
60.652654
 31
0.0
  0
LINE
  5
AA0
100
AcDbEntity
  8
BORDER
  6
CONTINUOUS
 62
     2
100
AcDbLine
 39
96.0
 10
36.804232
 20
60.652654
 30
0.0
 11
36.804232
 21
60.652654
 31
0.0
  0
LINE
  5
AA1
100
AcDbEntity
  8
BORDER
  6
CONTINUOUS
 62
     2
100
AcDbLine
 39
96.0
 10
35.163632
 20
60.183954
 30
0.0
 11
35.163632
 21
60.183954
 31
0.0
  0
LINE
  5
AA2
100
AcDbEntity
  8
BORDER
  6
CONTINUOUS
 62
     2
100
AcDbLine
 39
96.0
 10
35.632432
 20
60.183954
 30
0.0
 11
35.632432
 21
60.183954
 31
0.0
  0
LINE
  5
AA3
100
AcDbEntity
  8
BORDER
  6
CONTINUOUS
 62
     2
100
AcDbLine
 39
96.0
 10
36.101132
 20
60.183954
 30
0.0
 11
36.101132
 21
60.183954
 31
0.0
  0
LINE
  5
AA4
100
AcDbEntity
  8
BORDER
  6
CONTINUOUS
 62
     2
100
AcDbLine
 39
96.0
 10
36.569932
 20
60.183954
 30
0.0
 11
36.569932
 21
60.183954
 31
0.0
  0
LINE
  5
AA5
100
AcDbEntity
  8
BORDER
  6
CONTINUOUS
 62
     2
100
AcDbLine
 39
96.0
 10
35.398032
 20
59.715154
 30
0.0
 11
35.398032
 21
59.715154
 31
0.0
  0
LINE
  5
AA6
100
AcDbEntity
  8
BORDER
  6
CONTINUOUS
 62
     2
100
AcDbLine
 39
96.0
 10
35.866732
 20
59.715154
 30
0.0
 11
35.866732
 21
59.715154
 31
0.0
  0
LINE
  5
AA7
100
AcDbEntity
  8
BORDER
  6
CONTINUOUS
 62
     2
100
AcDbLine
 39
96.0
 10
36.335532
 20
59.715154
 30
0.0
 11
36.335532
 21
59.715154
 31
0.0
  0
LINE
  5
AA8
100
AcDbEntity
  8
BORDER
  6
CONTINUOUS
 62
     2
100
AcDbLine
 39
96.0
 10
36.804232
 20
59.715154
 30
0.0
 11
36.804232
 21
59.715154
 31
0.0
  0
LINE
  5
AA9
100
AcDbEntity
  8
BORDER
  6
CONTINUOUS
 62
     2
100
AcDbLine
 39
96.0
 10
35.163632
 20
59.246454
 30
0.0
 11
35.163632
 21
59.246454
 31
0.0
  0
LINE
  5
AAA
100
AcDbEntity
  8
BORDER
  6
CONTINUOUS
 62
     2
100
AcDbLine
 39
96.0
 10
35.632432
 20
59.246454
 30
0.0
 11
35.632432
 21
59.246454
 31
0.0
  0
LINE
  5
AAB
100
AcDbEntity
  8
BORDER
  6
CONTINUOUS
 62
     2
100
AcDbLine
 39
96.0
 10
36.101132
 20
59.246454
 30
0.0
 11
36.101132
 21
59.246454
 31
0.0
  0
LINE
  5
AAC
100
AcDbEntity
  8
BORDER
  6
CONTINUOUS
 62
     2
100
AcDbLine
 39
96.0
 10
36.569932
 20
59.246454
 30
0.0
 11
36.569932
 21
59.246454
 31
0.0
  0
LINE
  5
AAD
100
AcDbEntity
  8
BORDER
  6
CONTINUOUS
 62
     2
100
AcDbLine
 39
96.0
 10
35.398032
 20
58.777654
 30
0.0
 11
35.398032
 21
58.777654
 31
0.0
  0
LINE
  5
AAE
100
AcDbEntity
  8
BORDER
  6
CONTINUOUS
 62
     2
100
AcDbLine
 39
96.0
 10
35.866732
 20
58.777654
 30
0.0
 11
35.866732
 21
58.777654
 31
0.0
  0
LINE
  5
AAF
100
AcDbEntity
  8
BORDER
  6
CONTINUOUS
 62
     2
100
AcDbLine
 39
96.0
 10
36.335532
 20
58.777654
 30
0.0
 11
36.335532
 21
58.777654
 31
0.0
  0
LINE
  5
AB0
100
AcDbEntity
  8
BORDER
  6
CONTINUOUS
 62
     2
100
AcDbLine
 39
96.0
 10
36.804232
 20
58.777654
 30
0.0
 11
36.804232
 21
58.777654
 31
0.0
  0
LINE
  5
AB1
100
AcDbEntity
  8
BORDER
  6
CONTINUOUS
 62
     2
100
AcDbLine
 39
96.0
 10
35.163632
 20
58.308954
 30
0.0
 11
35.163632
 21
58.308954
 31
0.0
  0
LINE
  5
AB2
100
AcDbEntity
  8
BORDER
  6
CONTINUOUS
 62
     2
100
AcDbLine
 39
96.0
 10
35.632432
 20
58.308954
 30
0.0
 11
35.632432
 21
58.308954
 31
0.0
  0
LINE
  5
AB3
100
AcDbEntity
  8
BORDER
  6
CONTINUOUS
 62
     2
100
AcDbLine
 39
96.0
 10
36.101132
 20
58.308954
 30
0.0
 11
36.101132
 21
58.308954
 31
0.0
  0
LINE
  5
AB4
100
AcDbEntity
  8
BORDER
  6
CONTINUOUS
 62
     2
100
AcDbLine
 39
96.0
 10
36.569932
 20
58.308954
 30
0.0
 11
36.569932
 21
58.308954
 31
0.0
  0
LINE
  5
AB5
100
AcDbEntity
  8
BORDER
  6
CONTINUOUS
 62
     2
100
AcDbLine
 39
96.0
 10
35.398032
 20
57.840154
 30
0.0
 11
35.398032
 21
57.840154
 31
0.0
  0
LINE
  5
AB6
100
AcDbEntity
  8
BORDER
  6
CONTINUOUS
 62
     2
100
AcDbLine
 39
96.0
 10
35.866732
 20
57.840154
 30
0.0
 11
35.866732
 21
57.840154
 31
0.0
  0
LINE
  5
AB7
100
AcDbEntity
  8
BORDER
  6
CONTINUOUS
 62
     2
100
AcDbLine
 39
96.0
 10
36.335532
 20
57.840154
 30
0.0
 11
36.335532
 21
57.840154
 31
0.0
  0
LINE
  5
AB8
100
AcDbEntity
  8
BORDER
  6
CONTINUOUS
 62
     2
100
AcDbLine
 39
96.0
 10
36.804232
 20
57.840154
 30
0.0
 11
36.804232
 21
57.840154
 31
0.0
  0
ARC
  5
AB9
100
AcDbEntity
  8
BORDER
  6
CONTINUOUS
 62
     3
100
AcDbCircle
 39
96.0
 10
39.951232
 20
65.828454
 30
0.0
 40
3.0
100
AcDbArc
 50
180.0
 51
0.0
  0
LINE
  5
ABA
100
AcDbEntity
  8
BORDER
  6
CONTINUOUS
 62
     3
100
AcDbLine
 39
96.0
 10
34.951232
 20
65.832061
 30
0.0
 11
34.951232
 21
50.944754
 31
0.0
  0
LINE
  5
ABB
100
AcDbEntity
  8
BORDER
  6
CONTINUOUS
 62
     3
100
AcDbLine
 39
96.0
 10
36.826232
 20
65.832061
 30
0.0
 11
36.826232
 21
50.944754
 31
0.0
  0
LINE
  5
ABC
100
AcDbEntity
  8
BORDER
  6
CONTINUOUS
 62
     7
100
AcDbLine
 39
96.0
 10
40.735631
 20
28.087554
 30
0.0
 11
40.735631
 21
65.421639
 31
0.0
  0
LINE
  5
ABD
100
AcDbEntity
  8
BORDER
  6
CONTINUOUS
 62
     3
100
AcDbLine
 39
96.0
 10
43.076232
 20
50.944754
 30
0.0
 11
43.076232
 21
65.832061
 31
0.0
  0
LINE
  5
ABE
100
AcDbEntity
  8
BORDER
  6
CONTINUOUS
 62
     3
100
AcDbLine
 39
96.0
 10
44.951232
 20
50.806054
 30
0.0
 11
44.951834
 21
65.832061
 31
0.0
  0
LEADER
  5
ABF
100
AcDbEntity
  8
0
  6
CONTINUOUS
 62
     6
100
AcDbLeader
  3
STANDARD
 76
     3
 10
37.989203
 20
67.332061
 30
0.0
 10
42.56628
 20
79.96928
 30
0.0
 10
45.445431
 20
79.96928
 30
0.0
 77
     6
1001
ACAD
1000
DSTYLE
1002
{
1070
    78
1070
     1
1070
   140
1040
6.0
1070
    73
1070
     0
1070
    77
1070
     1
1070
    40
1040
12.0
1070
   173
1070
     1
1070
    42
1040
6.0
1070
    44
1040
0.0
1070
    43
1040
24.0
1070
   176
1070
     6
1070
   141
1040
3.0
1070
     6
1000
_CLOSEDBLANK
1070
    41
1040
0.125
1002
}
  0
LEADER
  5
AC0
100
AcDbEntity
  8
0
  6
CONTINUOUS
 62
     6
100
AcDbLeader
  3
STANDARD
 76
     3
 10
40.066511
 20
68.30203
 30
0.0
 10
42.990699
 20
73.180706
 30
0.0
 10
45.86985
 20
73.180706
 30
0.0
 77
     6
1001
ACAD
1000
DSTYLE
1002
{
1070
    78
1070
     1
1070
   140
1040
6.0
1070
    73
1070
     0
1070
    77
1070
     1
1070
    40
1040
12.0
1070
   173
1070
     1
1070
    42
1040
6.0
1070
    44
1040
0.0
1070
    43
1040
24.0
1070
   176
1070
     6
1070
   141
1040
3.0
1070
     6
1000
_CLOSEDBLANK
1070
    41
1040
0.125
1002
}
  0
LEADER
  5
AC1
100
AcDbEntity
  8
0
  6
CONTINUOUS
 62
     6
100
AcDbLeader
  3
STANDARD
 76
     3
 10
40.743456
 20
41.266247
 30
0.0
 10
30.141428
 20
46.058561
 30
0.0
 10
27.262277
 20
46.058561
 30
0.0
 77
     6
211
-1.0
221
0.0
231
0.0
1001
ACAD
1000
DSTYLE
1002
{
1070
    78
1070
     1
1070
   140
1040
6.0
1070
    73
1070
     0
1070
    77
1070
     1
1070
    40
1040
12.0
1070
   173
1070
     1
1070
    42
1040
6.0
1070
    44
1040
0.0
1070
    43
1040
24.0
1070
   176
1070
     6
1070
   141
1040
3.0
1070
     6
1000
_CLOSEDBLANK
1070
    41
1040
0.125
1002
}
  0
TEXT
  5
AC2
100
AcDbEntity
  8
DIM_TEXT
100
AcDbText
 10
8.928159
 20
43.629504
 30
0.0
 40
1.125
  1
(MIN #4 @ 30" O.C.
 51
15.0
  7
ROMANS
100
AcDbText
  0
TEXT
  5
AC3
100
AcDbEntity
  8
DIM_TEXT
100
AcDbText
 10
6.46451
 20
41.556122
 30
0.0
 40
1.125
  1
REQUIRED, PER DESIGN)
 51
15.0
  7
ROMANS
100
AcDbText
  0
TEXT
  5
AC4
100
AcDbEntity
  8
DIM_TEXT
100
AcDbText
 10
5.994697
 20
53.40429
 30
0.0
 40
1.125
  1
REQUIRED, PER DESIGN)
 51
15.0
  7
ROMANS
100
AcDbText
  0
TEXT
  5
AC5
100
AcDbEntity
  8
DIM_TEXT
100
AcDbText
 10
8.458345
 20
55.477672
 30
0.0
 40
1.125
  1
(MIN #4 @ 30" O.C.
 51
15.0
  7
ROMANS
100
AcDbText
  0
TEXT
  5
AC6
100
AcDbEntity
  8
DIM_TEXT
100
AcDbText
 10
14.994959
 20
57.536866
 30
0.0
 40
1.125
  1
HORIZ. REINF. 
 51
15.0
  7
ROMANS
100
AcDbText
  0
TEXT
  5
AC7
100
AcDbEntity
  8
DIM_TEXT
100
AcDbText
 10
16.210121
 20
45.688698
 30
0.0
 40
1.125
  1
VERT. REINF. 
 51
15.0
  7
ROMANS
100
AcDbText
  0
LEADER
  5
AC8
100
AcDbEntity
  8
0
  6
CONTINUOUS
 62
     6
100
AcDbLeader
  3
STANDARD
 76
     3
 10
39.308095
 20
64.557269
 30
0.0
 10
29.671615
 20
57.906729
 30
0.0
 10
26.792464
 20
57.906729
 30
0.0
 77
     6
211
-1.0
221
0.0
231
0.0
1001
ACAD
1000
DSTYLE
1002
{
1070
    78
1070
     1
1070
   140
1040
6.0
1070
    73
1070
     0
1070
    77
1070
     1
1070
    40
1040
12.0
1070
   173
1070
     1
1070
    42
1040
6.0
1070
    44
1040
0.0
1070
    43
1040
24.0
1070
   176
1070
     6
1070
   141
1040
3.0
1070
     6
1000
_CLOSEDBLANK
1070
    41
1040
0.125
1002
}
  0
TEXT
  5
AC9
100
AcDbEntity
  8
DIM_TEXT
100
AcDbText
 10
45.646459
 20
79.631921
 30
0.0
 40
1.125
  1
2 X 6 PL. WITH ANCHOR BOLTS
 51
15.0
  7
ROMANS
100
AcDbText
  0
TEXT
  5
ACA
100
AcDbEntity
  8
DIM_TEXT
100
AcDbText
 10
45.646459
 20
77.840652
 30
0.0
 40
1.125
  1
(MIN.-5/8"%%C A.B. @ 45" O.C.)
 51
15.0
  7
ROMANS
100
AcDbText
  0
TEXT
  5
ACB
100
AcDbEntity
  8
DIM_TEXT
100
AcDbText
 10
46.054938
 20
70.935843
 30
0.0
 40
1.125
  1
PLACED IN VERTICAL CELL
 51
15.0
  7
ROMANS
100
AcDbText
  0
TEXT
  5
ACC
100
AcDbEntity
  8
DIM_TEXT
100
AcDbText
 10
52.341822
 20
62.037072
 30
0.0
 40
1.125
  1
RASTRA WALL
 51
15.0
  7
ROMANS
100
AcDbText
  0
LEADER
  5
ACD
100
AcDbEntity
  8
0
  6
CONTINUOUS
 62
     6
100
AcDbLeader
  3
STANDARD
 76
     3
 10
44.700505
 20
56.481348
 30
0.0
 10
49.277582
 20
62.406935
 30
0.0
 10
52.156733
 20
62.406935
 30
0.0
 77
     6
1001
ACAD
1000
DSTYLE
1002
{
1070
    78
1070
     1
1070
   140
1040
6.0
1070
    73
1070
     0
1070
    77
1070
     1
1070
    40
1040
12.0
1070
   173
1070
     1
1070
    42
1040
6.0
1070
    44
1040
0.0
1070
    43
1040
24.0
1070
   176
1070
     6
1070
   141
1040
3.0
1070
     6
1000
_CLOSEDBLANK
1070
    41
1040
0.125
1002
}
  0
TEXT
  5
ACE
100
AcDbEntity
  8
DIM_TEXT
 62
     6
100
AcDbText
 10
46.054938
 20
72.810843
 30
0.0
 40
1.125
  1
ANCHOR BOLT SHALL BE
 51
15.0
100
AcDbText
  0
ENDSEC
  0
SECTION
  2
OBJECTS
  0
DICTIONARY
  5
C
100
AcDbDictionary
  3
ACAD_GROUP
350
D
  3
ACAD_MLINESTYLE
350
1A
  3
ACDBVARIABLEDICTIONARY
350
2D
  0
DICTIONARY
  5
D
102
{ACAD_REACTORS
330
C
102
}
100
AcDbDictionary
  0
DICTIONARY
  5
1A
102
{ACAD_REACTORS
330
C
102
}
100
AcDbDictionary
  3
STANDARD
350
1B
  0
DICTIONARY
  5
2D
102
{ACAD_REACTORS
330
C
102
}
100
AcDbDictionary
  3
DIMADEC
350
2E
  0
MLINESTYLE
  5
1B
102
{ACAD_REACTORS
330
1A
102
}
100
AcDbMlineStyle
  2
STANDARD
 70
     0
  3

 62
   256
 51
90.0
 52
90.0
 71
     2
 49
0.5
 62
   256
  6
BYLAYER
 49
-0.5
 62
   256
  6
BYLAYER
  0
DICTIONARYVAR
  5
2E
102
{ACAD_REACTORS
330
2D
102
}
100
DictionaryVariables
280
     0
  1
0
  0
ENDSEC
  0
EOF
