  0
SECTION
  2
HEADER
  9
$ACADVER
  1
AC1014
  9
$ACADMAINTVER
 70
     8
  9
$DWGCODEPAGE
  3
ANSI_1252
  9
$INSBASE
 10
0.0
 20
0.0
 30
0.0
  9
$EXTMIN
 10
-4.340635
 20
4.961431
 30
0.0
  9
$EXTMAX
 10
72.208767
 20
59.745576
 30
96.0
  9
$LIMMIN
 10
0.0
 20
0.0
  9
$LIMMAX
 10
85.0
 20
110.0
  9
$ORTHOMODE
 70
     1
  9
$REGENMODE
 70
     1
  9
$FILLMODE
 70
     1
  9
$QTEXTMODE
 70
     0
  9
$MIRRTEXT
 70
     1
  9
$DRAGMODE
 70
     2
  9
$LTSCALE
 40
3.0
  9
$OSMODE
 70
    37
  9
$ATTMODE
 70
     1
  9
$TEXTSIZE
 40
0.2
  9
$TRACEWID
 40
0.05
  9
$TEXTSTYLE
  7
STANDARD
  9
$CLAYER
  8
0
  9
$CELTYPE
  6
BYLAYER
  9
$CECOLOR
 62
   256
  9
$CELTSCALE
 40
1.0
  9
$DELOBJ
 70
     1
  9
$DISPSILH
 70
     0
  9
$DIMSCALE
 40
1.0
  9
$DIMASZ
 40
0.0
  9
$DIMEXO
 40
0.5
  9
$DIMDLI
 40
1.0
  9
$DIMRND
 40
0.0
  9
$DIMDLE
 40
0.0
  9
$DIMEXE
 40
0.5
  9
$DIMTP
 40
0.0
  9
$DIMTM
 40
0.0
  9
$DIMTXT
 40
1.125
  9
$DIMCEN
 40
0.0625
  9
$DIMTSZ
 40
0.5
  9
$DIMTOL
 70
     0
  9
$DIMLIM
 70
     0
  9
$DIMTIH
 70
     1
  9
$DIMTOH
 70
     1
  9
$DIMSE1
 70
     0
  9
$DIMSE2
 70
     0
  9
$DIMTAD
 70
     0
  9
$DIMZIN
 70
     0
  9
$DIMBLK
  1

  9
$DIMASO
 70
     1
  9
$DIMSHO
 70
     1
  9
$DIMPOST
  1

  9
$DIMAPOST
  1

  9
$DIMALT
 70
     0
  9
$DIMALTD
 70
     2
  9
$DIMALTF
 40
25.4
  9
$DIMLFAC
 40
1.0
  9
$DIMTOFL
 70
     0
  9
$DIMTVP
 40
0.0
  9
$DIMTIX
 70
     0
  9
$DIMSOXD
 70
     0
  9
$DIMSAH
 70
     0
  9
$DIMBLK1
  1

  9
$DIMBLK2
  1

  9
$DIMSTYLE
  2
STANDARD
  9
$DIMCLRD
 70
     0
  9
$DIMCLRE
 70
     0
  9
$DIMCLRT
 70
     0
  9
$DIMTFAC
 40
0.666667
  9
$DIMGAP
 40
0.5
  9
$DIMJUST
 70
     0
  9
$DIMSD1
 70
     0
  9
$DIMSD2
 70
     0
  9
$DIMTOLJ
 70
     1
  9
$DIMTZIN
 70
     0
  9
$DIMALTZ
 70
     0
  9
$DIMALTTZ
 70
     0
  9
$DIMFIT
 70
     5
  9
$DIMUPT
 70
     0
  9
$DIMUNIT
 70
     4
  9
$DIMDEC
 70
     4
  9
$DIMTDEC
 70
     4
  9
$DIMALTU
 70
     4
  9
$DIMALTTD
 70
     2
  9
$DIMTXSTY
  7
STANDARD
  9
$DIMAUNIT
 70
     2
  9
$LUNITS
 70
     4
  9
$LUPREC
 70
     4
  9
$SKETCHINC
 40
0.1
  9
$FILLETRAD
 40
0.0
  9
$AUNITS
 70
     2
  9
$AUPREC
 70
     0
  9
$MENU
  1
acad
  9
$ELEVATION
 40
0.0
  9
$PELEVATION
 40
0.0
  9
$THICKNESS
 40
0.0
  9
$LIMCHECK
 70
     0
  9
$BLIPMODE
 70
     1
  9
$CHAMFERA
 40
0.0
  9
$CHAMFERB
 40
0.0
  9
$CHAMFERC
 40
0.0
  9
$CHAMFERD
 40
0.0
  9
$SKPOLY
 70
     0
  9
$TDCREATE
 40
2451170.482884028
  9
$TDUPDATE
 40
2452250.676530092
  9
$TDINDWG
 40
0.0100729167
  9
$TDUSRTIMER
 40
0.0100729167
  9
$USRTIMER
 70
     1
  9
$ANGBASE
 50
0.0
  9
$ANGDIR
 70
     0
  9
$PDMODE
 70
     0
  9
$PDSIZE
 40
0.0
  9
$PLINEWID
 40
0.0
  9
$COORDS
 70
     1
  9
$SPLFRAME
 70
     0
  9
$SPLINETYPE
 70
     6
  9
$SPLINESEGS
 70
     8
  9
$ATTDIA
 70
     0
  9
$ATTREQ
 70
     1
  9
$HANDLING
 70
     1
  9
$HANDSEED
  5
A58
  9
$SURFTAB1
 70
     6
  9
$SURFTAB2
 70
     6
  9
$SURFTYPE
 70
     6
  9
$SURFU
 70
     6
  9
$SURFV
 70
     6
  9
$UCSNAME
  2

  9
$UCSORG
 10
0.0
 20
0.0
 30
0.0
  9
$UCSXDIR
 10
1.0
 20
0.0
 30
0.0
  9
$UCSYDIR
 10
0.0
 20
1.0
 30
0.0
  9
$PUCSNAME
  2

  9
$PUCSORG
 10
0.0
 20
0.0
 30
0.0
  9
$PUCSXDIR
 10
1.0
 20
0.0
 30
0.0
  9
$PUCSYDIR
 10
0.0
 20
1.0
 30
0.0
  9
$USERI1
 70
     0
  9
$USERI2
 70
     0
  9
$USERI3
 70
     0
  9
$USERI4
 70
     0
  9
$USERI5
 70
     0
  9
$USERR1
 40
0.0
  9
$USERR2
 40
0.0
  9
$USERR3
 40
0.0
  9
$USERR4
 40
0.0
  9
$USERR5
 40
0.0
  9
$WORLDVIEW
 70
     1
  9
$SHADEDGE
 70
     3
  9
$SHADEDIF
 70
    70
  9
$TILEMODE
 70
     1
  9
$MAXACTVP
 70
    16
  9
$PINSBASE
 10
0.0
 20
0.0
 30
0.0
  9
$PLIMCHECK
 70
     0
  9
$PEXTMIN
 10
1.000000E+20
 20
1.000000E+20
 30
1.000000E+20
  9
$PEXTMAX
 10
-1.000000E+20
 20
-1.000000E+20
 30
-1.000000E+20
  9
$PLIMMIN
 10
0.0
 20
0.0
  9
$PLIMMAX
 10
12.0
 20
9.0
  9
$UNITMODE
 70
     0
  9
$VISRETAIN
 70
     0
  9
$PLINEGEN
 70
     0
  9
$PSLTSCALE
 70
     1
  9
$TREEDEPTH
 70
  3020
  9
$PICKSTYLE
 70
     1
  9
$CMLSTYLE
  2
STANDARD
  9
$CMLJUST
 70
     0
  9
$CMLSCALE
 40
1.0
  9
$PROXYGRAPHICS
 70
     1
  9
$MEASUREMENT
 70
     0
  0
ENDSEC
  0
SECTION
  2
CLASSES
  0
CLASS
  1
DICTIONARYVAR
  2
AcDbDictionaryVar
  3
"AutoCAD"
 90
        0
280
     0
281
     0
  0
CLASS
  1
LWPOLYLINE
  2
AcDbPolyline
  3
"AutoCAD"
 90
        0
280
     0
281
     1
  0
ENDSEC
  0
SECTION
  2
TABLES
  0
TABLE
  2
VPORT
  5
8
100
AcDbSymbolTable
 70
     1
  0
VPORT
  5
A51
100
AcDbSymbolTableRecord
100
AcDbViewportTableRecord
  2
*ACTIVE
 70
     0
 10
0.0
 20
0.0
 11
1.0
 21
1.0
 12
34.042402
 22
32.47212
 13
0.0
 23
0.0
 14
1.0
 24
1.0
 15
1.0
 25
1.0
 16
0.0
 26
0.0
 36
1.0
 17
0.0
 27
0.0
 37
0.0
 40
60.925403
 41
1.474388
 42
50.0
 43
0.0
 44
0.0
 50
0.0
 51
0.0
 71
     0
 72
   100
 73
     1
 74
     1
 75
     0
 76
     0
 77
     0
 78
     0
  0
ENDTAB
  0
TABLE
  2
LTYPE
  5
5
100
AcDbSymbolTable
 70
     1
  0
LTYPE
  5
11
100
AcDbSymbolTableRecord
100
AcDbLinetypeTableRecord
  2
BYBLOCK
 70
     0
  3

 72
    65
 73
     0
 40
0.0
  0
LTYPE
  5
12
100
AcDbSymbolTableRecord
100
AcDbLinetypeTableRecord
  2
BYLAYER
 70
     0
  3

 72
    65
 73
     0
 40
0.0
  0
LTYPE
  5
13
100
AcDbSymbolTableRecord
100
AcDbLinetypeTableRecord
  2
CONTINUOUS
 70
     0
  3
Solid line
 72
    65
 73
     0
 40
0.0
  0
ENDTAB
  0
TABLE
  2
LAYER
  5
2
100
AcDbSymbolTable
 70
     6
  0
LAYER
  5
E
100
AcDbSymbolTableRecord
100
AcDbLayerTableRecord
  2
0
 70
     0
 62
     7
  6
CONTINUOUS
  0
LAYER
  5
26
100
AcDbSymbolTableRecord
100
AcDbLayerTableRecord
  2
DRAWING
 70
     0
 62
     7
  6
CONTINUOUS
  0
LAYER
  5
27
100
AcDbSymbolTableRecord
100
AcDbLayerTableRecord
  2
HATCH
 70
     0
 62
     3
  6
CONTINUOUS
  0
LAYER
  5
28
100
AcDbSymbolTableRecord
100
AcDbLayerTableRecord
  2
DIM_TEXT
 70
     0
 62
     6
  6
CONTINUOUS
  0
LAYER
  5
29
100
AcDbSymbolTableRecord
100
AcDbLayerTableRecord
  2
DEFPOINTS
 70
     0
 62
     7
  6
CONTINUOUS
  0
LAYER
  5
375
100
AcDbSymbolTableRecord
100
AcDbLayerTableRecord
  2
BORDER
 70
     0
 62
    14
  6
CONTINUOUS
  0
ENDTAB
  0
TABLE
  2
STYLE
  5
3
100
AcDbSymbolTable
 70
     4
  0
STYLE
  5
F
100
AcDbSymbolTableRecord
100
AcDbTextStyleTableRecord
  2
STANDARD
 70
     0
 40
0.0
 41
1.0
 50
0.0
 71
     0
 42
0.2
  3
txt
  4

  0
STYLE
  5
20
100
AcDbSymbolTableRecord
100
AcDbTextStyleTableRecord
  2
INFO
 70
     0
 40
0.0
 41
1.0
 50
15.0
 71
     0
 42
1.08
  3
C:\ACADWIN\FONTS\ROMANS.SHX
  4

  0
STYLE
  5
21
100
AcDbSymbolTableRecord
100
AcDbTextStyleTableRecord
  2
TITLE
 70
     0
 40
0.0
 41
1.0
 50
0.0
 71
     0
 42
2.8
  3
C:\ACADWIN\FONTS\ROMANC.SHX
  4

  0
STYLE
  5
376
100
AcDbSymbolTableRecord
100
AcDbTextStyleTableRecord
  2
ROMANS
 70
     0
 40
0.0
 41
1.0
 50
0.0
 71
     0
 42
2.25
  3
romans
  4

  0
ENDTAB
  0
TABLE
  2
VIEW
  5
6
100
AcDbSymbolTable
 70
     0
  0
ENDTAB
  0
TABLE
  2
UCS
  5
7
100
AcDbSymbolTable
 70
     0
  0
ENDTAB
  0
TABLE
  2
APPID
  5
9
100
AcDbSymbolTable
 70
     2
  0
APPID
  5
10
100
AcDbSymbolTableRecord
100
AcDbRegAppTableRecord
  2
ACAD
 70
     0
  0
APPID
  5
25
100
AcDbSymbolTableRecord
100
AcDbRegAppTableRecord
  2
ZIMM
 70
     0
  0
ENDTAB
  0
TABLE
  2
DIMSTYLE
  5
A
100
AcDbSymbolTable
 70
     1
  0
DIMSTYLE
105
372
100
AcDbSymbolTableRecord
100
AcDbDimStyleTableRecord
  2
STANDARD
 70
     0
  3

  4

  5

  6

  7

 40
1.0
 41
0.18
 42
0.0625
 43
0.38
 44
0.18
 45
0.0
 46
0.0
 47
0.0
 48
0.0
140
0.18
141
0.09
142
0.0
143
25.4
144
1.0
145
0.0
146
1.0
147
0.09
 71
     0
 72
     0
 73
     1
 74
     1
 75
     0
 76
     0
 77
     0
 78
     0
170
     0
171
     2
172
     0
173
     0
174
     0
175
     0
176
     0
177
     0
178
     0
270
     2
271
     4
272
     4
273
     2
274
     2
340
F
275
     0
280
     0
281
     0
282
     0
283
     1
284
     0
285
     0
286
     0
287
     3
288
     0
  0
ENDTAB
  0
TABLE
  2
BLOCK_RECORD
  5
1
100
AcDbSymbolTable
 70
     5
  0
BLOCK_RECORD
  5
17
100
AcDbSymbolTableRecord
100
AcDbBlockTableRecord
  2
*MODEL_SPACE
  0
BLOCK_RECORD
  5
14
100
AcDbSymbolTableRecord
100
AcDbBlockTableRecord
  2
*PAPER_SPACE
  0
BLOCK_RECORD
  5
377
100
AcDbSymbolTableRecord
100
AcDbBlockTableRecord
  2
A$C05840887
  0
ENDTAB
  0
ENDSEC
  0
SECTION
  2
BLOCKS
  0
BLOCK
  5
2C
100
AcDbEntity
  8
0
100
AcDbBlockBegin
  2
*MODEL_SPACE
 70
     0
 10
0.0
 20
0.0
 30
0.0
  3
*MODEL_SPACE
  1

  0
ENDBLK
  5
2D
100
AcDbEntity
  8
0
100
AcDbBlockEnd
  0
BLOCK
  5
2A
100
AcDbEntity
 67
     1
  8
0
100
AcDbBlockBegin
  2
*PAPER_SPACE
 70
     0
 10
0.0
 20
0.0
 30
0.0
  3
*PAPER_SPACE
  1

  0
ENDBLK
  5
2B
100
AcDbEntity
 67
     1
  8
0
100
AcDbBlockEnd
  0
BLOCK
  5
6E2
100
AcDbEntity
  8
0
100
AcDbBlockBegin
  2
A$C05840887
 70
     0
 10
0.0
 20
0.0
 30
0.0
  3
A$C05840887
  1

  0
CIRCLE
  5
378
100
AcDbEntity
  8
0
  6
CONTINUOUS
100
AcDbCircle
 39
96.0
 10
42.601523
 20
24.625522
 30
0.0
 40
0.565309
  0
LINE
  5
379
100
AcDbEntity
  8
BORDER
  6
CONTINUOUS
 62
     2
100
AcDbLine
 39
96.0
 10
40.878229
 20
43.356691
 30
0.0
 11
40.878229
 21
43.356691
 31
0.0
  0
LINE
  5
37A
100
AcDbEntity
  8
BORDER
  6
CONTINUOUS
 62
     2
100
AcDbLine
 39
96.0
 10
40.409429
 20
43.356691
 30
0.0
 11
40.409429
 21
43.356691
 31
0.0
  0
LINE
  5
37B
100
AcDbEntity
  8
BORDER
  6
CONTINUOUS
 62
     2
100
AcDbLine
 39
96.0
 10
39.940729
 20
43.356691
 30
0.0
 11
39.940729
 21
43.356691
 31
0.0
  0
LINE
  5
37C
100
AcDbEntity
  8
BORDER
  6
CONTINUOUS
 62
     2
100
AcDbLine
 39
96.0
 10
41.112629
 20
43.825491
 30
0.0
 11
41.112629
 21
43.825491
 31
0.0
  0
LINE
  5
37D
100
AcDbEntity
  8
BORDER
  6
CONTINUOUS
 62
     2
100
AcDbLine
 39
96.0
 10
40.643829
 20
43.825491
 30
0.0
 11
40.643829
 21
43.825491
 31
0.0
  0
LINE
  5
37E
100
AcDbEntity
  8
BORDER
  6
CONTINUOUS
 62
     2
100
AcDbLine
 39
96.0
 10
40.175129
 20
43.825491
 30
0.0
 11
40.175129
 21
43.825491
 31
0.0
  0
LINE
  5
37F
100
AcDbEntity
  8
BORDER
  6
CONTINUOUS
 62
     2
100
AcDbLine
 39
96.0
 10
39.706329
 20
43.825491
 30
0.0
 11
39.706329
 21
43.825491
 31
0.0
  0
LINE
  5
380
100
AcDbEntity
  8
BORDER
  6
CONTINUOUS
 62
     2
100
AcDbLine
 39
96.0
 10
40.878229
 20
42.419191
 30
0.0
 11
40.878229
 21
42.419191
 31
0.0
  0
LINE
  5
381
100
AcDbEntity
  8
BORDER
  6
CONTINUOUS
 62
     2
100
AcDbLine
 39
96.0
 10
40.409429
 20
42.419191
 30
0.0
 11
40.409429
 21
42.419191
 31
0.0
  0
LINE
  5
382
100
AcDbEntity
  8
BORDER
  6
CONTINUOUS
 62
     2
100
AcDbLine
 39
96.0
 10
39.940729
 20
42.419191
 30
0.0
 11
39.940729
 21
42.419191
 31
0.0
  0
LINE
  5
383
100
AcDbEntity
  8
BORDER
  6
CONTINUOUS
 62
     2
100
AcDbLine
 39
96.0
 10
41.112629
 20
42.887991
 30
0.0
 11
41.112629
 21
42.887991
 31
0.0
  0
LINE
  5
384
100
AcDbEntity
  8
BORDER
  6
CONTINUOUS
 62
     2
100
AcDbLine
 39
96.0
 10
40.643829
 20
42.887991
 30
0.0
 11
40.643829
 21
42.887991
 31
0.0
  0
LINE
  5
385
100
AcDbEntity
  8
BORDER
  6
CONTINUOUS
 62
     2
100
AcDbLine
 39
96.0
 10
40.175129
 20
42.887991
 30
0.0
 11
40.175129
 21
42.887991
 31
0.0
  0
LINE
  5
386
100
AcDbEntity
  8
BORDER
  6
CONTINUOUS
 62
     2
100
AcDbLine
 39
96.0
 10
39.706329
 20
42.887991
 30
0.0
 11
39.706329
 21
42.887991
 31
0.0
  0
LINE
  5
387
100
AcDbEntity
  8
BORDER
  6
CONTINUOUS
 62
     2
100
AcDbLine
 39
96.0
 10
41.112629
 20
41.950491
 30
0.0
 11
41.112629
 21
41.950491
 31
0.0
  0
LINE
  5
388
100
AcDbEntity
  8
BORDER
  6
CONTINUOUS
 62
     2
100
AcDbLine
 39
96.0
 10
40.643829
 20
41.950491
 30
0.0
 11
40.643829
 21
41.950491
 31
0.0
  0
LINE
  5
389
100
AcDbEntity
  8
BORDER
  6
CONTINUOUS
 62
     2
100
AcDbLine
 39
96.0
 10
40.175129
 20
41.950491
 30
0.0
 11
40.175129
 21
41.950491
 31
0.0
  0
LINE
  5
38A
100
AcDbEntity
  8
BORDER
  6
CONTINUOUS
 62
     2
100
AcDbLine
 39
96.0
 10
39.706329
 20
41.950491
 30
0.0
 11
39.706329
 21
41.950491
 31
0.0
  0
LINE
  5
38B
100
AcDbEntity
  8
BORDER
  6
CONTINUOUS
 62
     1
100
AcDbLine
 39
96.0
 10
47.533729
 20
42.839791
 30
0.0
 11
47.472229
 21
42.850491
 31
0.0
  0
LINE
  5
38C
100
AcDbEntity
  8
BORDER
  6
CONTINUOUS
 62
     2
100
AcDbLine
 39
96.0
 10
48.553229
 20
41.841992
 30
0.0
 11
48.553229
 21
41.841992
 31
0.0
  0
LINE
  5
38D
100
AcDbEntity
  8
BORDER
  6
CONTINUOUS
 62
     2
100
AcDbLine
 39
96.0
 10
49.490729
 20
41.841992
 30
0.0
 11
49.490729
 21
41.841992
 31
0.0
  0
LINE
  5
38E
100
AcDbEntity
  8
BORDER
  6
CONTINUOUS
 62
     2
100
AcDbLine
 39
96.0
 10
47.909429
 20
42.291142
 30
0.0
 11
47.909429
 21
42.291142
 31
0.0
  0
LINE
  5
38F
100
AcDbEntity
  8
BORDER
  6
CONTINUOUS
 62
     2
100
AcDbLine
 39
96.0
 10
48.378229
 20
42.291142
 30
0.0
 11
48.378229
 21
42.291142
 31
0.0
  0
LINE
  5
390
100
AcDbEntity
  8
BORDER
  6
CONTINUOUS
 62
     2
100
AcDbLine
 39
96.0
 10
48.846929
 20
42.291142
 30
0.0
 11
48.846929
 21
42.291142
 31
0.0
  0
LINE
  5
391
100
AcDbEntity
  8
BORDER
  6
CONTINUOUS
 62
     2
100
AcDbLine
 39
96.0
 10
49.315729
 20
42.291142
 30
0.0
 11
49.315729
 21
42.291142
 31
0.0
  0
LINE
  5
392
100
AcDbEntity
  8
BORDER
  6
CONTINUOUS
 62
     2
100
AcDbLine
 39
96.0
 10
48.143829
 20
41.822442
 30
0.0
 11
48.143829
 21
41.822442
 31
0.0
  0
LINE
  5
393
100
AcDbEntity
  8
BORDER
  6
CONTINUOUS
 62
     2
100
AcDbLine
 39
96.0
 10
48.612629
 20
41.822442
 30
0.0
 11
48.612629
 21
41.822442
 31
0.0
  0
LINE
  5
394
100
AcDbEntity
  8
BORDER
  6
CONTINUOUS
 62
     2
100
AcDbLine
 39
96.0
 10
49.081329
 20
41.822442
 30
0.0
 11
49.081329
 21
41.822442
 31
0.0
  0
LINE
  5
395
100
AcDbEntity
  8
BORDER
  6
CONTINUOUS
 62
     2
100
AcDbLine
 39
96.0
 10
47.909429
 20
43.228642
 30
0.0
 11
47.909429
 21
43.228642
 31
0.0
  0
LINE
  5
396
100
AcDbEntity
  8
BORDER
  6
CONTINUOUS
 62
     2
100
AcDbLine
 39
96.0
 10
48.378229
 20
43.228642
 30
0.0
 11
48.378229
 21
43.228642
 31
0.0
  0
LINE
  5
397
100
AcDbEntity
  8
BORDER
  6
CONTINUOUS
 62
     2
100
AcDbLine
 39
96.0
 10
48.846929
 20
43.228642
 30
0.0
 11
48.846929
 21
43.228642
 31
0.0
  0
LINE
  5
398
100
AcDbEntity
  8
BORDER
  6
CONTINUOUS
 62
     2
100
AcDbLine
 39
96.0
 10
49.315729
 20
43.228642
 30
0.0
 11
49.315729
 21
43.228642
 31
0.0
  0
LINE
  5
399
100
AcDbEntity
  8
BORDER
  6
CONTINUOUS
 62
     2
100
AcDbLine
 39
96.0
 10
48.143829
 20
42.759942
 30
0.0
 11
48.143829
 21
42.759942
 31
0.0
  0
LINE
  5
39A
100
AcDbEntity
  8
BORDER
  6
CONTINUOUS
 62
     2
100
AcDbLine
 39
96.0
 10
48.612629
 20
42.759942
 30
0.0
 11
48.612629
 21
42.759942
 31
0.0
  0
LINE
  5
39B
100
AcDbEntity
  8
BORDER
  6
CONTINUOUS
 62
     2
100
AcDbLine
 39
96.0
 10
49.081329
 20
42.759942
 30
0.0
 11
49.081329
 21
42.759942
 31
0.0
  0
LINE
  5
39C
100
AcDbEntity
  8
BORDER
  6
CONTINUOUS
 62
     2
100
AcDbLine
 39
96.0
 10
48.143829
 20
43.697442
 30
0.0
 11
48.143829
 21
43.697442
 31
0.0
  0
LINE
  5
39D
100
AcDbEntity
  8
BORDER
  6
CONTINUOUS
 62
     2
100
AcDbLine
 39
96.0
 10
48.612629
 20
43.697442
 30
0.0
 11
48.612629
 21
43.697442
 31
0.0
  0
LINE
  5
39E
100
AcDbEntity
  8
BORDER
  6
CONTINUOUS
 62
     2
100
AcDbLine
 39
96.0
 10
49.081329
 20
43.697442
 30
0.0
 11
49.081329
 21
43.697442
 31
0.0
  0
LINE
  5
39F
100
AcDbEntity
  8
BORDER
  6
CONTINUOUS
 62
    15
100
AcDbLine
 39
96.0
 10
50.627029
 20
44.001892
 30
0.0
 11
46.197329
 21
44.001892
 31
0.0
  0
LINE
  5
3A0
100
AcDbEntity
  8
BORDER
  6
CONTINUOUS
 62
    15
100
AcDbLine
 39
96.0
 10
42.771529
 20
44.001892
 30
0.0
 11
43.598429
 21
45.655692
 31
0.0
  0
LINE
  5
3A1
100
AcDbEntity
  8
BORDER
  6
CONTINUOUS
 62
    15
100
AcDbLine
 39
96.0
 10
42.771529
 20
44.001892
 30
0.0
 11
38.341829
 21
44.001892
 31
0.0
  0
LINE
  5
3A2
100
AcDbEntity
  8
BORDER
  6
CONTINUOUS
 62
    15
100
AcDbLine
 39
96.0
 10
45.547429
 20
42.348192
 30
0.0
 11
46.197329
 21
44.001892
 31
0.0
  0
LINE
  5
3A3
100
AcDbEntity
  8
BORDER
  6
CONTINUOUS
 62
    15
100
AcDbLine
 39
96.0
 10
43.598429
 20
45.655692
 30
0.0
 11
45.547429
 21
42.348192
 31
0.0
  0
CIRCLE
  5
3A4
100
AcDbEntity
  8
0
  6
CONTINUOUS
100
AcDbCircle
 39
96.0
 10
39.796122
 20
36.974102
 30
0.0
 40
0.138805
  0
CIRCLE
  5
3A5
100
AcDbEntity
  8
0
  6
CONTINUOUS
100
AcDbCircle
 39
96.0
 10
40.238499
 20
36.974102
 30
0.0
 40
0.138805
  0
CIRCLE
  5
3A6
100
AcDbEntity
  8
0
  6
CONTINUOUS
100
AcDbCircle
 39
96.0
 10
40.663862
 20
36.974102
 30
0.0
 40
0.138805
  0
CIRCLE
  5
3A7
100
AcDbEntity
  8
0
  6
CONTINUOUS
100
AcDbCircle
 39
96.0
 10
39.796122
 20
36.515099
 30
0.0
 40
0.138805
  0
CIRCLE
  5
3A8
100
AcDbEntity
  8
0
  6
CONTINUOUS
100
AcDbCircle
 39
96.0
 10
40.238499
 20
36.515099
 30
0.0
 40
0.138805
  0
LINE
  5
3A9
100
AcDbEntity
  8
BORDER
  6
CONTINUOUS
 62
     3
100
AcDbLine
 39
96.0
 10
39.493929
 20
20.593341
 30
0.0
 11
39.493929
 21
9.6844
 31
0.0
  0
CIRCLE
  5
3AA
100
AcDbEntity
  8
0
  6
CONTINUOUS
100
AcDbCircle
 39
96.0
 10
40.663862
 20
36.515099
 30
0.0
 40
0.138805
  0
LINE
  5
3AB
100
AcDbEntity
  8
0
  6
CONTINUOUS
 62
     1
100
AcDbLine
 39
90.0
 10
44.365554
 20
32.166187
 30
0.0
 11
44.331864
 21
32.214161
 31
0.0
  0
ARC
  5
3AC
100
AcDbEntity
  8
BORDER
  6
CONTINUOUS
 62
     3
100
AcDbCircle
 39
96.0
 10
44.493929
 20
39.5681
 30
0.0
 40
3.0
100
AcDbArc
 50
69.8843
 51
180.0
  0
LINE
  5
3AD
100
AcDbEntity
  8
BORDER
  6
CONTINUOUS
 62
     2
100
AcDbLine
 39
96.0
 10
49.081329
 20
42.233051
 30
0.0
 11
49.081329
 21
42.233051
 31
0.0
  0
LINE
  5
3AE
100
AcDbEntity
  8
BORDER
  6
CONTINUOUS
 62
     2
100
AcDbLine
 39
96.0
 10
48.612629
 20
42.233051
 30
0.0
 11
48.612629
 21
42.233051
 31
0.0
  0
LINE
  5
3AF
100
AcDbEntity
  8
BORDER
  6
CONTINUOUS
 62
     2
100
AcDbLine
 39
96.0
 10
48.143829
 20
42.233051
 30
0.0
 11
48.143829
 21
42.233051
 31
0.0
  0
LINE
  5
3B0
100
AcDbEntity
  8
BORDER
  6
CONTINUOUS
 62
     2
100
AcDbLine
 39
96.0
 10
49.081329
 20
41.295551
 30
0.0
 11
49.081329
 21
41.295551
 31
0.0
  0
LINE
  5
3B1
100
AcDbEntity
  8
BORDER
  6
CONTINUOUS
 62
     2
100
AcDbLine
 39
96.0
 10
48.612629
 20
41.295551
 30
0.0
 11
48.612629
 21
41.295551
 31
0.0
  0
LINE
  5
3B2
100
AcDbEntity
  8
BORDER
  6
CONTINUOUS
 62
     2
100
AcDbLine
 39
96.0
 10
48.143829
 20
41.295551
 30
0.0
 11
48.143829
 21
41.295551
 31
0.0
  0
LINE
  5
3B3
100
AcDbEntity
  8
BORDER
  6
CONTINUOUS
 62
     2
100
AcDbLine
 39
96.0
 10
49.315729
 20
41.764251
 30
0.0
 11
49.315729
 21
41.764251
 31
0.0
  0
LINE
  5
3B4
100
AcDbEntity
  8
BORDER
  6
CONTINUOUS
 62
     2
100
AcDbLine
 39
96.0
 10
48.846929
 20
41.764251
 30
0.0
 11
48.846929
 21
41.764251
 31
0.0
  0
LINE
  5
3B5
100
AcDbEntity
  8
BORDER
  6
CONTINUOUS
 62
     2
100
AcDbLine
 39
96.0
 10
48.378229
 20
41.764251
 30
0.0
 11
48.378229
 21
41.764251
 31
0.0
  0
LINE
  5
3B6
100
AcDbEntity
  8
BORDER
  6
CONTINUOUS
 62
     2
100
AcDbLine
 39
96.0
 10
47.909429
 20
41.764251
 30
0.0
 11
47.909429
 21
41.764251
 31
0.0
  0
LINE
  5
3B7
100
AcDbEntity
  8
BORDER
  6
CONTINUOUS
 62
     2
100
AcDbLine
 39
96.0
 10
49.081329
 20
40.358051
 30
0.0
 11
49.081329
 21
40.358051
 31
0.0
  0
LINE
  5
3B8
100
AcDbEntity
  8
BORDER
  6
CONTINUOUS
 62
     2
100
AcDbLine
 39
96.0
 10
48.612629
 20
40.358051
 30
0.0
 11
48.612629
 21
40.358051
 31
0.0
  0
LINE
  5
3B9
100
AcDbEntity
  8
BORDER
  6
CONTINUOUS
 62
     2
100
AcDbLine
 39
96.0
 10
48.143829
 20
40.358051
 30
0.0
 11
48.143829
 21
40.358051
 31
0.0
  0
LINE
  5
3BA
100
AcDbEntity
  8
BORDER
  6
CONTINUOUS
 62
     2
100
AcDbLine
 39
96.0
 10
49.315729
 20
40.826751
 30
0.0
 11
49.315729
 21
40.826751
 31
0.0
  0
LINE
  5
3BB
100
AcDbEntity
  8
BORDER
  6
CONTINUOUS
 62
     2
100
AcDbLine
 39
96.0
 10
48.846929
 20
40.826751
 30
0.0
 11
48.846929
 21
40.826751
 31
0.0
  0
LINE
  5
3BC
100
AcDbEntity
  8
BORDER
  6
CONTINUOUS
 62
     2
100
AcDbLine
 39
96.0
 10
48.378229
 20
40.826751
 30
0.0
 11
48.378229
 21
40.826751
 31
0.0
  0
LINE
  5
3BD
100
AcDbEntity
  8
BORDER
  6
CONTINUOUS
 62
     2
100
AcDbLine
 39
96.0
 10
47.909429
 20
40.826751
 30
0.0
 11
47.909429
 21
40.826751
 31
0.0
  0
LINE
  5
3BE
100
AcDbEntity
  8
BORDER
  6
CONTINUOUS
 62
     2
100
AcDbLine
 39
96.0
 10
49.081329
 20
39.151601
 30
0.0
 11
49.081329
 21
39.151601
 31
0.0
  0
LINE
  5
3BF
100
AcDbEntity
  8
BORDER
  6
CONTINUOUS
 62
     2
100
AcDbLine
 39
96.0
 10
48.612629
 20
39.151601
 30
0.0
 11
48.612629
 21
39.151601
 31
0.0
  0
LINE
  5
3C0
100
AcDbEntity
  8
BORDER
  6
CONTINUOUS
 62
     2
100
AcDbLine
 39
96.0
 10
48.143829
 20
39.151601
 30
0.0
 11
48.143829
 21
39.151601
 31
0.0
  0
LINE
  5
3C1
100
AcDbEntity
  8
BORDER
  6
CONTINUOUS
 62
     2
100
AcDbLine
 39
96.0
 10
48.378229
 20
39.620301
 30
0.0
 11
48.378229
 21
39.620301
 31
0.0
  0
LINE
  5
3C2
100
AcDbEntity
  8
BORDER
  6
CONTINUOUS
 62
     2
100
AcDbLine
 39
96.0
 10
47.909429
 20
39.620301
 30
0.0
 11
47.909429
 21
39.620301
 31
0.0
  0
LINE
  5
3C3
100
AcDbEntity
  8
BORDER
  6
CONTINUOUS
 62
     2
100
AcDbLine
 39
96.0
 10
49.081329
 20
38.214101
 30
0.0
 11
49.081329
 21
38.214101
 31
0.0
  0
LINE
  5
3C4
100
AcDbEntity
  8
BORDER
  6
CONTINUOUS
 62
     2
100
AcDbLine
 39
96.0
 10
48.612629
 20
38.214101
 30
0.0
 11
48.612629
 21
38.214101
 31
0.0
  0
LINE
  5
3C5
100
AcDbEntity
  8
BORDER
  6
CONTINUOUS
 62
     2
100
AcDbLine
 39
96.0
 10
48.143829
 20
38.214101
 30
0.0
 11
48.143829
 21
38.214101
 31
0.0
  0
LINE
  5
3C6
100
AcDbEntity
  8
BORDER
  6
CONTINUOUS
 62
     2
100
AcDbLine
 39
96.0
 10
49.315729
 20
38.682801
 30
0.0
 11
49.315729
 21
38.682801
 31
0.0
  0
LINE
  5
3C7
100
AcDbEntity
  8
BORDER
  6
CONTINUOUS
 62
     2
100
AcDbLine
 39
96.0
 10
48.846929
 20
38.682801
 30
0.0
 11
48.846929
 21
38.682801
 31
0.0
  0
LINE
  5
3C8
100
AcDbEntity
  8
BORDER
  6
CONTINUOUS
 62
     2
100
AcDbLine
 39
96.0
 10
48.378229
 20
38.682801
 30
0.0
 11
48.378229
 21
38.682801
 31
0.0
  0
LINE
  5
3C9
100
AcDbEntity
  8
BORDER
  6
CONTINUOUS
 62
     2
100
AcDbLine
 39
96.0
 10
47.909429
 20
38.682801
 30
0.0
 11
47.909429
 21
38.682801
 31
0.0
  0
LINE
  5
3CA
100
AcDbEntity
  8
BORDER
  6
CONTINUOUS
 62
     2
100
AcDbLine
 39
96.0
 10
49.081329
 20
37.276601
 30
0.0
 11
49.081329
 21
37.276601
 31
0.0
  0
LINE
  5
3CB
100
AcDbEntity
  8
BORDER
  6
CONTINUOUS
 62
     2
100
AcDbLine
 39
96.0
 10
48.612629
 20
37.276601
 30
0.0
 11
48.612629
 21
37.276601
 31
0.0
  0
LINE
  5
3CC
100
AcDbEntity
  8
BORDER
  6
CONTINUOUS
 62
     2
100
AcDbLine
 39
96.0
 10
48.143829
 20
37.276601
 30
0.0
 11
48.143829
 21
37.276601
 31
0.0
  0
LINE
  5
3CD
100
AcDbEntity
  8
BORDER
  6
CONTINUOUS
 62
     2
100
AcDbLine
 39
96.0
 10
49.315729
 20
37.745301
 30
0.0
 11
49.315729
 21
37.745301
 31
0.0
  0
LINE
  5
3CE
100
AcDbEntity
  8
BORDER
  6
CONTINUOUS
 62
     2
100
AcDbLine
 39
96.0
 10
48.846929
 20
37.745301
 30
0.0
 11
48.846929
 21
37.745301
 31
0.0
  0
LINE
  5
3CF
100
AcDbEntity
  8
BORDER
  6
CONTINUOUS
 62
     2
100
AcDbLine
 39
96.0
 10
48.378229
 20
37.745301
 30
0.0
 11
48.378229
 21
37.745301
 31
0.0
  0
LINE
  5
3D0
100
AcDbEntity
  8
BORDER
  6
CONTINUOUS
 62
     2
100
AcDbLine
 39
96.0
 10
47.909429
 20
37.745301
 30
0.0
 11
47.909429
 21
37.745301
 31
0.0
  0
LINE
  5
3D1
100
AcDbEntity
  8
BORDER
  6
CONTINUOUS
 62
     2
100
AcDbLine
 39
96.0
 10
49.081329
 20
36.339101
 30
0.0
 11
49.081329
 21
36.339101
 31
0.0
  0
LINE
  5
3D2
100
AcDbEntity
  8
BORDER
  6
CONTINUOUS
 62
     2
100
AcDbLine
 39
96.0
 10
48.612629
 20
36.339101
 30
0.0
 11
48.612629
 21
36.339101
 31
0.0
  0
LINE
  5
3D3
100
AcDbEntity
  8
BORDER
  6
CONTINUOUS
 62
     2
100
AcDbLine
 39
96.0
 10
48.143829
 20
36.339101
 30
0.0
 11
48.143829
 21
36.339101
 31
0.0
  0
LINE
  5
3D4
100
AcDbEntity
  8
BORDER
  6
CONTINUOUS
 62
     2
100
AcDbLine
 39
96.0
 10
49.315729
 20
36.807801
 30
0.0
 11
49.315729
 21
36.807801
 31
0.0
  0
LINE
  5
3D5
100
AcDbEntity
  8
BORDER
  6
CONTINUOUS
 62
     2
100
AcDbLine
 39
96.0
 10
48.846929
 20
36.807801
 30
0.0
 11
48.846929
 21
36.807801
 31
0.0
  0
LINE
  5
3D6
100
AcDbEntity
  8
BORDER
  6
CONTINUOUS
 62
     2
100
AcDbLine
 39
96.0
 10
48.378229
 20
36.807801
 30
0.0
 11
48.378229
 21
36.807801
 31
0.0
  0
LINE
  5
3D7
100
AcDbEntity
  8
BORDER
  6
CONTINUOUS
 62
     2
100
AcDbLine
 39
96.0
 10
47.909429
 20
36.807801
 30
0.0
 11
47.909429
 21
36.807801
 31
0.0
  0
LINE
  5
3D8
100
AcDbEntity
  8
BORDER
  6
CONTINUOUS
 62
     2
100
AcDbLine
 39
96.0
 10
49.490729
 20
40.377601
 30
0.0
 11
49.490729
 21
40.377601
 31
0.0
  0
LINE
  5
3D9
100
AcDbEntity
  8
BORDER
  6
CONTINUOUS
 62
     2
100
AcDbLine
 39
96.0
 10
49.490729
 20
39.908801
 30
0.0
 11
49.490729
 21
39.908801
 31
0.0
  0
LINE
  5
3DA
100
AcDbEntity
  8
BORDER
  6
CONTINUOUS
 62
     2
100
AcDbLine
 39
96.0
 10
49.490729
 20
39.440101
 30
0.0
 11
49.490729
 21
39.440101
 31
0.0
  0
LINE
  5
3DB
100
AcDbEntity
  8
BORDER
  6
CONTINUOUS
 62
     2
100
AcDbLine
 39
96.0
 10
49.490729
 20
38.971301
 30
0.0
 11
49.490729
 21
38.971301
 31
0.0
  0
LINE
  5
3DC
100
AcDbEntity
  8
BORDER
  6
CONTINUOUS
 62
     2
100
AcDbLine
 39
96.0
 10
49.022029
 20
40.143201
 30
0.0
 11
49.022029
 21
40.143201
 31
0.0
  0
LINE
  5
3DD
100
AcDbEntity
  8
BORDER
  6
CONTINUOUS
 62
     2
100
AcDbLine
 39
96.0
 10
49.022029
 20
39.674401
 30
0.0
 11
49.022029
 21
39.674401
 31
0.0
  0
LINE
  5
3DE
100
AcDbEntity
  8
BORDER
  6
CONTINUOUS
 62
     2
100
AcDbLine
 39
96.0
 10
48.553229
 20
40.377601
 30
0.0
 11
48.553229
 21
40.377601
 31
0.0
  0
LINE
  5
3DF
100
AcDbEntity
  8
BORDER
  6
CONTINUOUS
 62
     3
100
AcDbLine
 39
96.0
 10
49.493929
 20
24.6844
 30
0.0
 11
47.618929
 21
24.6844
 31
0.0
  0
LINE
  5
3E0
100
AcDbEntity
  8
BORDER
  6
CONTINUOUS
 62
     3
100
AcDbLine
 39
96.0
 10
41.368929
 20
24.6844
 30
0.0
 11
39.493929
 21
24.6844
 31
0.0
  0
LINE
  5
3E1
100
AcDbEntity
  8
BORDER
  6
CONTINUOUS
 62
     3
100
AcDbLine
 39
96.0
 10
39.493929
 20
24.6844
 30
0.0
 11
41.368929
 21
24.6844
 31
0.0
  0
ARC
  5
3E2
100
AcDbEntity
  8
BORDER
  6
CONTINUOUS
 62
     3
100
AcDbCircle
 39
96.0
 10
44.493929
 20
24.6844
 30
0.0
 40
3.0
100
AcDbArc
 50
0.0
 51
180.0
  0
LINE
  5
3E3
100
AcDbEntity
  8
BORDER
  6
CONTINUOUS
 62
     3
100
AcDbLine
 39
96.0
 10
47.618929
 20
24.6844
 30
0.0
 11
49.493929
 21
24.6844
 31
0.0
  0
LINE
  5
3E4
100
AcDbEntity
  8
BORDER
  6
CONTINUOUS
 62
     1
100
AcDbLine
 39
96.0
 10
42.757329
 20
30.8203
 30
0.0
 11
42.816229
 21
30.8416
 31
0.0
  0
LINE
  5
3E5
100
AcDbEntity
  8
BORDER
  6
CONTINUOUS
 62
     1
100
AcDbLine
 39
96.0
 10
43.612329
 20
28.471
 30
0.0
 11
43.671229
 21
28.4924
 31
0.0
  0
LINE
  5
3E6
100
AcDbEntity
  8
BORDER
  6
CONTINUOUS
 62
     1
100
AcDbLine
 39
96.0
 10
45.961729
 20
29.3261
 30
0.0
 11
46.020529
 21
29.3475
 31
0.0
  0
LINE
  5
3E7
100
AcDbEntity
  8
BORDER
  6
CONTINUOUS
 62
     1
100
AcDbLine
 39
96.0
 10
46.816429
 20
26.9769
 30
0.0
 11
46.875329
 21
26.9983
 31
0.0
  0
LINE
  5
3E8
100
AcDbEntity
  8
BORDER
  6
CONTINUOUS
 62
     1
100
AcDbLine
 39
96.0
 10
41.952729
 20
28.2142
 30
0.0
 11
41.988529
 21
28.2654
 31
0.0
  0
LINE
  5
3E9
100
AcDbEntity
  8
BORDER
  6
CONTINUOUS
 62
     1
100
AcDbLine
 39
96.0
 10
43.386729
 20
30.2621
 30
0.0
 11
43.422629
 21
30.3133
 31
0.0
  0
LINE
  5
3EA
100
AcDbEntity
  8
BORDER
  6
CONTINUOUS
 62
     1
100
AcDbLine
 39
96.0
 10
45.434629
 20
28.8282
 30
0.0
 11
45.470529
 21
28.8794
 31
0.0
  0
LINE
  5
3EB
100
AcDbEntity
  8
BORDER
  6
CONTINUOUS
 62
     1
100
AcDbLine
 39
96.0
 10
46.868729
 20
30.8761
 30
0.0
 11
46.904629
 21
30.9272
 31
0.0
  0
LINE
  5
3EC
100
AcDbEntity
  8
BORDER
  6
CONTINUOUS
 62
     1
100
AcDbLine
 39
96.0
 10
47.482229
 20
27.3944
 30
0.0
 11
47.518129
 21
27.4456
 31
0.0
  0
LINE
  5
3ED
100
AcDbEntity
  8
BORDER
  6
CONTINUOUS
 62
     1
100
AcDbLine
 39
96.0
 10
42.202929
 20
27.4041
 30
0.0
 11
42.213629
 21
27.4657
 31
0.0
  0
LINE
  5
3EE
100
AcDbEntity
  8
BORDER
  6
CONTINUOUS
 62
     1
100
AcDbLine
 39
96.0
 10
42.637029
 20
29.8662
 30
0.0
 11
42.647729
 21
29.9277
 31
0.0
  0
LINE
  5
3EF
100
AcDbEntity
  8
BORDER
  6
CONTINUOUS
 62
     1
100
AcDbLine
 39
96.0
 10
45.098729
 20
29.4321
 30
0.0
 11
45.109429
 21
29.4936
 31
0.0
  0
LINE
  5
3F0
100
AcDbEntity
  8
BORDER
  6
CONTINUOUS
 62
     1
100
AcDbLine
 39
96.0
 10
47.126529
 20
26.536
 30
0.0
 11
47.137229
 21
26.5975
 31
0.0
  0
LINE
  5
3F1
100
AcDbEntity
  8
BORDER
  6
CONTINUOUS
 62
     1
100
AcDbLine
 39
96.0
 10
47.560629
 20
28.998
 30
0.0
 11
47.571329
 21
29.0595
 31
0.0
  0
LINE
  5
3F2
100
AcDbEntity
  8
BORDER
  6
CONTINUOUS
 62
     2
100
AcDbLine
 39
96.0
 10
39.706329
 20
31.1111
 30
0.0
 11
39.706329
 21
31.1111
 31
0.0
  0
LINE
  5
3F3
100
AcDbEntity
  8
BORDER
  6
CONTINUOUS
 62
     2
100
AcDbLine
 39
96.0
 10
40.175129
 20
31.1111
 30
0.0
 11
40.175129
 21
31.1111
 31
0.0
  0
LINE
  5
3F4
100
AcDbEntity
  8
BORDER
  6
CONTINUOUS
 62
     2
100
AcDbLine
 39
96.0
 10
40.643829
 20
31.1111
 30
0.0
 11
40.643829
 21
31.1111
 31
0.0
  0
LINE
  5
3F5
100
AcDbEntity
  8
BORDER
  6
CONTINUOUS
 62
     2
100
AcDbLine
 39
96.0
 10
41.112629
 20
31.1111
 30
0.0
 11
41.112629
 21
31.1111
 31
0.0
  0
LINE
  5
3F6
100
AcDbEntity
  8
BORDER
  6
CONTINUOUS
 62
     2
100
AcDbLine
 39
96.0
 10
39.940729
 20
30.6423
 30
0.0
 11
39.940729
 21
30.6423
 31
0.0
  0
LINE
  5
3F7
100
AcDbEntity
  8
BORDER
  6
CONTINUOUS
 62
     2
100
AcDbLine
 39
96.0
 10
40.409429
 20
30.6423
 30
0.0
 11
40.409429
 21
30.6423
 31
0.0
  0
LINE
  5
3F8
100
AcDbEntity
  8
BORDER
  6
CONTINUOUS
 62
     2
100
AcDbLine
 39
96.0
 10
40.878229
 20
30.6423
 30
0.0
 11
40.878229
 21
30.6423
 31
0.0
  0
LINE
  5
3F9
100
AcDbEntity
  8
BORDER
  6
CONTINUOUS
 62
     2
100
AcDbLine
 39
96.0
 10
41.346929
 20
30.6423
 30
0.0
 11
41.346929
 21
30.6423
 31
0.0
  0
LINE
  5
3FA
100
AcDbEntity
  8
BORDER
  6
CONTINUOUS
 62
     2
100
AcDbLine
 39
96.0
 10
39.706329
 20
30.1736
 30
0.0
 11
39.706329
 21
30.1736
 31
0.0
  0
LINE
  5
3FB
100
AcDbEntity
  8
BORDER
  6
CONTINUOUS
 62
     2
100
AcDbLine
 39
96.0
 10
40.175129
 20
30.1736
 30
0.0
 11
40.175129
 21
30.1736
 31
0.0
  0
LINE
  5
3FC
100
AcDbEntity
  8
BORDER
  6
CONTINUOUS
 62
     2
100
AcDbLine
 39
96.0
 10
40.643829
 20
30.1736
 30
0.0
 11
40.643829
 21
30.1736
 31
0.0
  0
LINE
  5
3FD
100
AcDbEntity
  8
BORDER
  6
CONTINUOUS
 62
     2
100
AcDbLine
 39
96.0
 10
41.112629
 20
30.1736
 30
0.0
 11
41.112629
 21
30.1736
 31
0.0
  0
LINE
  5
3FE
100
AcDbEntity
  8
BORDER
  6
CONTINUOUS
 62
     2
100
AcDbLine
 39
96.0
 10
39.940729
 20
29.7048
 30
0.0
 11
39.940729
 21
29.7048
 31
0.0
  0
LINE
  5
3FF
100
AcDbEntity
  8
BORDER
  6
CONTINUOUS
 62
     2
100
AcDbLine
 39
96.0
 10
40.409429
 20
29.7048
 30
0.0
 11
40.409429
 21
29.7048
 31
0.0
  0
LINE
  5
400
100
AcDbEntity
  8
BORDER
  6
CONTINUOUS
 62
     2
100
AcDbLine
 39
96.0
 10
40.878229
 20
29.7048
 30
0.0
 11
40.878229
 21
29.7048
 31
0.0
  0
LINE
  5
401
100
AcDbEntity
  8
BORDER
  6
CONTINUOUS
 62
     2
100
AcDbLine
 39
96.0
 10
41.346929
 20
29.7048
 30
0.0
 11
41.346929
 21
29.7048
 31
0.0
  0
LINE
  5
402
100
AcDbEntity
  8
BORDER
  6
CONTINUOUS
 62
     2
100
AcDbLine
 39
96.0
 10
39.706329
 20
29.2361
 30
0.0
 11
39.706329
 21
29.2361
 31
0.0
  0
LINE
  5
403
100
AcDbEntity
  8
BORDER
  6
CONTINUOUS
 62
     2
100
AcDbLine
 39
96.0
 10
40.175129
 20
29.2361
 30
0.0
 11
40.175129
 21
29.2361
 31
0.0
  0
LINE
  5
404
100
AcDbEntity
  8
BORDER
  6
CONTINUOUS
 62
     2
100
AcDbLine
 39
96.0
 10
40.643829
 20
29.2361
 30
0.0
 11
40.643829
 21
29.2361
 31
0.0
  0
LINE
  5
405
100
AcDbEntity
  8
BORDER
  6
CONTINUOUS
 62
     2
100
AcDbLine
 39
96.0
 10
41.112629
 20
29.2361
 30
0.0
 11
41.112629
 21
29.2361
 31
0.0
  0
LINE
  5
406
100
AcDbEntity
  8
BORDER
  6
CONTINUOUS
 62
     2
100
AcDbLine
 39
96.0
 10
39.940729
 20
28.7673
 30
0.0
 11
39.940729
 21
28.7673
 31
0.0
  0
LINE
  5
407
100
AcDbEntity
  8
BORDER
  6
CONTINUOUS
 62
     2
100
AcDbLine
 39
96.0
 10
40.409429
 20
28.7673
 30
0.0
 11
40.409429
 21
28.7673
 31
0.0
  0
LINE
  5
408
100
AcDbEntity
  8
BORDER
  6
CONTINUOUS
 62
     2
100
AcDbLine
 39
96.0
 10
40.878229
 20
28.7673
 30
0.0
 11
40.878229
 21
28.7673
 31
0.0
  0
LINE
  5
409
100
AcDbEntity
  8
BORDER
  6
CONTINUOUS
 62
     2
100
AcDbLine
 39
96.0
 10
41.346929
 20
28.7673
 30
0.0
 11
41.346929
 21
28.7673
 31
0.0
  0
LINE
  5
40A
100
AcDbEntity
  8
BORDER
  6
CONTINUOUS
 62
     2
100
AcDbLine
 39
96.0
 10
39.706329
 20
28.2986
 30
0.0
 11
39.706329
 21
28.2986
 31
0.0
  0
LINE
  5
40B
100
AcDbEntity
  8
BORDER
  6
CONTINUOUS
 62
     2
100
AcDbLine
 39
96.0
 10
40.175129
 20
28.2986
 30
0.0
 11
40.175129
 21
28.2986
 31
0.0
  0
LINE
  5
40C
100
AcDbEntity
  8
BORDER
  6
CONTINUOUS
 62
     2
100
AcDbLine
 39
96.0
 10
40.643829
 20
28.2986
 30
0.0
 11
40.643829
 21
28.2986
 31
0.0
  0
LINE
  5
40D
100
AcDbEntity
  8
BORDER
  6
CONTINUOUS
 62
     2
100
AcDbLine
 39
96.0
 10
41.112629
 20
28.2986
 30
0.0
 11
41.112629
 21
28.2986
 31
0.0
  0
LINE
  5
40E
100
AcDbEntity
  8
BORDER
  6
CONTINUOUS
 62
     2
100
AcDbLine
 39
96.0
 10
39.940729
 20
27.8298
 30
0.0
 11
39.940729
 21
27.8298
 31
0.0
  0
LINE
  5
40F
100
AcDbEntity
  8
BORDER
  6
CONTINUOUS
 62
     2
100
AcDbLine
 39
96.0
 10
40.409429
 20
27.8298
 30
0.0
 11
40.409429
 21
27.8298
 31
0.0
  0
LINE
  5
410
100
AcDbEntity
  8
BORDER
  6
CONTINUOUS
 62
     2
100
AcDbLine
 39
96.0
 10
40.878229
 20
27.8298
 30
0.0
 11
40.878229
 21
27.8298
 31
0.0
  0
LINE
  5
411
100
AcDbEntity
  8
BORDER
  6
CONTINUOUS
 62
     2
100
AcDbLine
 39
96.0
 10
41.346929
 20
27.8298
 30
0.0
 11
41.346929
 21
27.8298
 31
0.0
  0
LINE
  5
412
100
AcDbEntity
  8
BORDER
  6
CONTINUOUS
 62
     2
100
AcDbLine
 39
96.0
 10
39.706329
 20
27.3611
 30
0.0
 11
39.706329
 21
27.3611
 31
0.0
  0
LINE
  5
413
100
AcDbEntity
  8
BORDER
  6
CONTINUOUS
 62
     2
100
AcDbLine
 39
96.0
 10
40.175129
 20
27.3611
 30
0.0
 11
40.175129
 21
27.3611
 31
0.0
  0
LINE
  5
414
100
AcDbEntity
  8
BORDER
  6
CONTINUOUS
 62
     2
100
AcDbLine
 39
96.0
 10
40.643829
 20
27.3611
 30
0.0
 11
40.643829
 21
27.3611
 31
0.0
  0
LINE
  5
415
100
AcDbEntity
  8
BORDER
  6
CONTINUOUS
 62
     2
100
AcDbLine
 39
96.0
 10
41.112629
 20
27.3611
 30
0.0
 11
41.112629
 21
27.3611
 31
0.0
  0
LINE
  5
416
100
AcDbEntity
  8
BORDER
  6
CONTINUOUS
 62
     2
100
AcDbLine
 39
96.0
 10
39.940729
 20
26.8923
 30
0.0
 11
39.940729
 21
26.8923
 31
0.0
  0
LINE
  5
417
100
AcDbEntity
  8
BORDER
  6
CONTINUOUS
 62
     2
100
AcDbLine
 39
96.0
 10
40.409429
 20
26.8923
 30
0.0
 11
40.409429
 21
26.8923
 31
0.0
  0
LINE
  5
418
100
AcDbEntity
  8
BORDER
  6
CONTINUOUS
 62
     2
100
AcDbLine
 39
96.0
 10
40.878229
 20
26.8923
 30
0.0
 11
40.878229
 21
26.8923
 31
0.0
  0
LINE
  5
419
100
AcDbEntity
  8
BORDER
  6
CONTINUOUS
 62
     2
100
AcDbLine
 39
96.0
 10
41.346929
 20
26.8923
 30
0.0
 11
41.346929
 21
26.8923
 31
0.0
  0
LINE
  5
41A
100
AcDbEntity
  8
BORDER
  6
CONTINUOUS
 62
     2
100
AcDbLine
 39
96.0
 10
39.706329
 20
26.4236
 30
0.0
 11
39.706329
 21
26.4236
 31
0.0
  0
LINE
  5
41B
100
AcDbEntity
  8
BORDER
  6
CONTINUOUS
 62
     2
100
AcDbLine
 39
96.0
 10
40.175129
 20
26.4236
 30
0.0
 11
40.175129
 21
26.4236
 31
0.0
  0
LINE
  5
41C
100
AcDbEntity
  8
BORDER
  6
CONTINUOUS
 62
     2
100
AcDbLine
 39
96.0
 10
40.643829
 20
26.4236
 30
0.0
 11
40.643829
 21
26.4236
 31
0.0
  0
LINE
  5
41D
100
AcDbEntity
  8
BORDER
  6
CONTINUOUS
 62
     2
100
AcDbLine
 39
96.0
 10
41.112629
 20
26.4236
 30
0.0
 11
41.112629
 21
26.4236
 31
0.0
  0
LINE
  5
41E
100
AcDbEntity
  8
BORDER
  6
CONTINUOUS
 62
     2
100
AcDbLine
 39
96.0
 10
39.940729
 20
25.9548
 30
0.0
 11
39.940729
 21
25.9548
 31
0.0
  0
LINE
  5
41F
100
AcDbEntity
  8
BORDER
  6
CONTINUOUS
 62
     2
100
AcDbLine
 39
96.0
 10
40.409429
 20
25.9548
 30
0.0
 11
40.409429
 21
25.9548
 31
0.0
  0
LINE
  5
420
100
AcDbEntity
  8
BORDER
  6
CONTINUOUS
 62
     2
100
AcDbLine
 39
96.0
 10
40.878229
 20
25.9548
 30
0.0
 11
40.878229
 21
25.9548
 31
0.0
  0
LINE
  5
421
100
AcDbEntity
  8
BORDER
  6
CONTINUOUS
 62
     2
100
AcDbLine
 39
96.0
 10
41.346929
 20
25.9548
 30
0.0
 11
41.346929
 21
25.9548
 31
0.0
  0
LINE
  5
422
100
AcDbEntity
  8
BORDER
  6
CONTINUOUS
 62
     2
100
AcDbLine
 39
96.0
 10
39.706329
 20
25.4861
 30
0.0
 11
39.706329
 21
25.4861
 31
0.0
  0
LINE
  5
423
100
AcDbEntity
  8
BORDER
  6
CONTINUOUS
 62
     2
100
AcDbLine
 39
96.0
 10
40.175129
 20
25.4861
 30
0.0
 11
40.175129
 21
25.4861
 31
0.0
  0
LINE
  5
424
100
AcDbEntity
  8
BORDER
  6
CONTINUOUS
 62
     2
100
AcDbLine
 39
96.0
 10
40.643829
 20
25.4861
 30
0.0
 11
40.643829
 21
25.4861
 31
0.0
  0
LINE
  5
425
100
AcDbEntity
  8
BORDER
  6
CONTINUOUS
 62
     2
100
AcDbLine
 39
96.0
 10
41.112629
 20
25.4861
 30
0.0
 11
41.112629
 21
25.4861
 31
0.0
  0
LINE
  5
426
100
AcDbEntity
  8
BORDER
  6
CONTINUOUS
 62
     2
100
AcDbLine
 39
96.0
 10
39.940729
 20
25.0173
 30
0.0
 11
39.940729
 21
25.0173
 31
0.0
  0
LINE
  5
427
100
AcDbEntity
  8
BORDER
  6
CONTINUOUS
 62
     2
100
AcDbLine
 39
96.0
 10
40.409429
 20
25.0173
 30
0.0
 11
40.409429
 21
25.0173
 31
0.0
  0
LINE
  5
428
100
AcDbEntity
  8
BORDER
  6
CONTINUOUS
 62
     2
100
AcDbLine
 39
96.0
 10
40.878229
 20
25.0173
 30
0.0
 11
40.878229
 21
25.0173
 31
0.0
  0
LINE
  5
429
100
AcDbEntity
  8
BORDER
  6
CONTINUOUS
 62
     2
100
AcDbLine
 39
96.0
 10
41.346929
 20
25.0173
 30
0.0
 11
41.346929
 21
25.0173
 31
0.0
  0
LINE
  5
42A
100
AcDbEntity
  8
BORDER
  6
CONTINUOUS
 62
     2
100
AcDbLine
 39
96.0
 10
47.675129
 20
31.1111
 30
0.0
 11
47.675129
 21
31.1111
 31
0.0
  0
LINE
  5
42B
100
AcDbEntity
  8
BORDER
  6
CONTINUOUS
 62
     2
100
AcDbLine
 39
96.0
 10
48.143829
 20
31.1111
 30
0.0
 11
48.143829
 21
31.1111
 31
0.0
  0
LINE
  5
42C
100
AcDbEntity
  8
BORDER
  6
CONTINUOUS
 62
     2
100
AcDbLine
 39
96.0
 10
48.612629
 20
31.1111
 30
0.0
 11
48.612629
 21
31.1111
 31
0.0
  0
LINE
  5
42D
100
AcDbEntity
  8
BORDER
  6
CONTINUOUS
 62
     2
100
AcDbLine
 39
96.0
 10
49.081329
 20
31.1111
 30
0.0
 11
49.081329
 21
31.1111
 31
0.0
  0
LINE
  5
42E
100
AcDbEntity
  8
BORDER
  6
CONTINUOUS
 62
     2
100
AcDbLine
 39
96.0
 10
47.909429
 20
30.6423
 30
0.0
 11
47.909429
 21
30.6423
 31
0.0
  0
LINE
  5
42F
100
AcDbEntity
  8
BORDER
  6
CONTINUOUS
 62
     2
100
AcDbLine
 39
96.0
 10
48.378229
 20
30.6423
 30
0.0
 11
48.378229
 21
30.6423
 31
0.0
  0
LINE
  5
430
100
AcDbEntity
  8
BORDER
  6
CONTINUOUS
 62
     2
100
AcDbLine
 39
96.0
 10
48.846929
 20
30.6423
 30
0.0
 11
48.846929
 21
30.6423
 31
0.0
  0
LINE
  5
431
100
AcDbEntity
  8
BORDER
  6
CONTINUOUS
 62
     2
100
AcDbLine
 39
96.0
 10
49.315729
 20
30.6423
 30
0.0
 11
49.315729
 21
30.6423
 31
0.0
  0
LINE
  5
432
100
AcDbEntity
  8
BORDER
  6
CONTINUOUS
 62
     2
100
AcDbLine
 39
96.0
 10
47.675129
 20
30.1736
 30
0.0
 11
47.675129
 21
30.1736
 31
0.0
  0
LINE
  5
433
100
AcDbEntity
  8
BORDER
  6
CONTINUOUS
 62
     2
100
AcDbLine
 39
96.0
 10
48.143829
 20
30.1736
 30
0.0
 11
48.143829
 21
30.1736
 31
0.0
  0
LINE
  5
434
100
AcDbEntity
  8
BORDER
  6
CONTINUOUS
 62
     2
100
AcDbLine
 39
96.0
 10
48.612629
 20
30.1736
 30
0.0
 11
48.612629
 21
30.1736
 31
0.0
  0
LINE
  5
435
100
AcDbEntity
  8
BORDER
  6
CONTINUOUS
 62
     2
100
AcDbLine
 39
96.0
 10
49.081329
 20
30.1736
 30
0.0
 11
49.081329
 21
30.1736
 31
0.0
  0
LINE
  5
436
100
AcDbEntity
  8
BORDER
  6
CONTINUOUS
 62
     2
100
AcDbLine
 39
96.0
 10
47.909429
 20
29.7048
 30
0.0
 11
47.909429
 21
29.7048
 31
0.0
  0
LINE
  5
437
100
AcDbEntity
  8
BORDER
  6
CONTINUOUS
 62
     2
100
AcDbLine
 39
96.0
 10
48.378229
 20
29.7048
 30
0.0
 11
48.378229
 21
29.7048
 31
0.0
  0
LINE
  5
438
100
AcDbEntity
  8
BORDER
  6
CONTINUOUS
 62
     2
100
AcDbLine
 39
96.0
 10
48.846929
 20
29.7048
 30
0.0
 11
48.846929
 21
29.7048
 31
0.0
  0
LINE
  5
439
100
AcDbEntity
  8
BORDER
  6
CONTINUOUS
 62
     2
100
AcDbLine
 39
96.0
 10
49.315729
 20
29.7048
 30
0.0
 11
49.315729
 21
29.7048
 31
0.0
  0
LINE
  5
43A
100
AcDbEntity
  8
BORDER
  6
CONTINUOUS
 62
     2
100
AcDbLine
 39
96.0
 10
47.675129
 20
29.2361
 30
0.0
 11
47.675129
 21
29.2361
 31
0.0
  0
LINE
  5
43B
100
AcDbEntity
  8
BORDER
  6
CONTINUOUS
 62
     2
100
AcDbLine
 39
96.0
 10
48.143829
 20
29.2361
 30
0.0
 11
48.143829
 21
29.2361
 31
0.0
  0
LINE
  5
43C
100
AcDbEntity
  8
BORDER
  6
CONTINUOUS
 62
     2
100
AcDbLine
 39
96.0
 10
48.612629
 20
29.2361
 30
0.0
 11
48.612629
 21
29.2361
 31
0.0
  0
LINE
  5
43D
100
AcDbEntity
  8
BORDER
  6
CONTINUOUS
 62
     2
100
AcDbLine
 39
96.0
 10
49.081329
 20
29.2361
 30
0.0
 11
49.081329
 21
29.2361
 31
0.0
  0
LINE
  5
43E
100
AcDbEntity
  8
BORDER
  6
CONTINUOUS
 62
     2
100
AcDbLine
 39
96.0
 10
47.909429
 20
28.7673
 30
0.0
 11
47.909429
 21
28.7673
 31
0.0
  0
LINE
  5
43F
100
AcDbEntity
  8
BORDER
  6
CONTINUOUS
 62
     2
100
AcDbLine
 39
96.0
 10
48.378229
 20
28.7673
 30
0.0
 11
48.378229
 21
28.7673
 31
0.0
  0
LINE
  5
440
100
AcDbEntity
  8
BORDER
  6
CONTINUOUS
 62
     2
100
AcDbLine
 39
96.0
 10
48.846929
 20
28.7673
 30
0.0
 11
48.846929
 21
28.7673
 31
0.0
  0
LINE
  5
441
100
AcDbEntity
  8
BORDER
  6
CONTINUOUS
 62
     2
100
AcDbLine
 39
96.0
 10
49.315729
 20
28.7673
 30
0.0
 11
49.315729
 21
28.7673
 31
0.0
  0
LINE
  5
442
100
AcDbEntity
  8
BORDER
  6
CONTINUOUS
 62
     2
100
AcDbLine
 39
96.0
 10
47.675129
 20
28.2986
 30
0.0
 11
47.675129
 21
28.2986
 31
0.0
  0
LINE
  5
443
100
AcDbEntity
  8
BORDER
  6
CONTINUOUS
 62
     2
100
AcDbLine
 39
96.0
 10
48.143829
 20
28.2986
 30
0.0
 11
48.143829
 21
28.2986
 31
0.0
  0
LINE
  5
444
100
AcDbEntity
  8
BORDER
  6
CONTINUOUS
 62
     2
100
AcDbLine
 39
96.0
 10
48.612629
 20
28.2986
 30
0.0
 11
48.612629
 21
28.2986
 31
0.0
  0
LINE
  5
445
100
AcDbEntity
  8
BORDER
  6
CONTINUOUS
 62
     2
100
AcDbLine
 39
96.0
 10
49.081329
 20
28.2986
 30
0.0
 11
49.081329
 21
28.2986
 31
0.0
  0
LINE
  5
446
100
AcDbEntity
  8
BORDER
  6
CONTINUOUS
 62
     2
100
AcDbLine
 39
96.0
 10
47.909429
 20
27.8298
 30
0.0
 11
47.909429
 21
27.8298
 31
0.0
  0
LINE
  5
447
100
AcDbEntity
  8
BORDER
  6
CONTINUOUS
 62
     2
100
AcDbLine
 39
96.0
 10
48.378229
 20
27.8298
 30
0.0
 11
48.378229
 21
27.8298
 31
0.0
  0
LINE
  5
448
100
AcDbEntity
  8
BORDER
  6
CONTINUOUS
 62
     2
100
AcDbLine
 39
96.0
 10
48.846929
 20
27.8298
 30
0.0
 11
48.846929
 21
27.8298
 31
0.0
  0
LINE
  5
449
100
AcDbEntity
  8
BORDER
  6
CONTINUOUS
 62
     2
100
AcDbLine
 39
96.0
 10
49.315729
 20
27.8298
 30
0.0
 11
49.315729
 21
27.8298
 31
0.0
  0
LINE
  5
44A
100
AcDbEntity
  8
BORDER
  6
CONTINUOUS
 62
     2
100
AcDbLine
 39
96.0
 10
47.675129
 20
27.3611
 30
0.0
 11
47.675129
 21
27.3611
 31
0.0
  0
LINE
  5
44B
100
AcDbEntity
  8
BORDER
  6
CONTINUOUS
 62
     2
100
AcDbLine
 39
96.0
 10
48.143829
 20
27.3611
 30
0.0
 11
48.143829
 21
27.3611
 31
0.0
  0
LINE
  5
44C
100
AcDbEntity
  8
BORDER
  6
CONTINUOUS
 62
     2
100
AcDbLine
 39
96.0
 10
48.612629
 20
27.3611
 30
0.0
 11
48.612629
 21
27.3611
 31
0.0
  0
LINE
  5
44D
100
AcDbEntity
  8
BORDER
  6
CONTINUOUS
 62
     2
100
AcDbLine
 39
96.0
 10
49.081329
 20
27.3611
 30
0.0
 11
49.081329
 21
27.3611
 31
0.0
  0
LINE
  5
44E
100
AcDbEntity
  8
BORDER
  6
CONTINUOUS
 62
     2
100
AcDbLine
 39
96.0
 10
47.909429
 20
26.8923
 30
0.0
 11
47.909429
 21
26.8923
 31
0.0
  0
LINE
  5
44F
100
AcDbEntity
  8
BORDER
  6
CONTINUOUS
 62
     2
100
AcDbLine
 39
96.0
 10
48.378229
 20
26.8923
 30
0.0
 11
48.378229
 21
26.8923
 31
0.0
  0
LINE
  5
450
100
AcDbEntity
  8
BORDER
  6
CONTINUOUS
 62
     2
100
AcDbLine
 39
96.0
 10
48.846929
 20
26.8923
 30
0.0
 11
48.846929
 21
26.8923
 31
0.0
  0
LINE
  5
451
100
AcDbEntity
  8
BORDER
  6
CONTINUOUS
 62
     2
100
AcDbLine
 39
96.0
 10
49.315729
 20
26.8923
 30
0.0
 11
49.315729
 21
26.8923
 31
0.0
  0
LINE
  5
452
100
AcDbEntity
  8
BORDER
  6
CONTINUOUS
 62
     2
100
AcDbLine
 39
96.0
 10
47.675129
 20
26.4236
 30
0.0
 11
47.675129
 21
26.4236
 31
0.0
  0
LINE
  5
453
100
AcDbEntity
  8
BORDER
  6
CONTINUOUS
 62
     2
100
AcDbLine
 39
96.0
 10
48.143829
 20
26.4236
 30
0.0
 11
48.143829
 21
26.4236
 31
0.0
  0
LINE
  5
454
100
AcDbEntity
  8
BORDER
  6
CONTINUOUS
 62
     2
100
AcDbLine
 39
96.0
 10
48.612629
 20
26.4236
 30
0.0
 11
48.612629
 21
26.4236
 31
0.0
  0
LINE
  5
455
100
AcDbEntity
  8
BORDER
  6
CONTINUOUS
 62
     2
100
AcDbLine
 39
96.0
 10
49.081329
 20
26.4236
 30
0.0
 11
49.081329
 21
26.4236
 31
0.0
  0
LINE
  5
456
100
AcDbEntity
  8
BORDER
  6
CONTINUOUS
 62
     2
100
AcDbLine
 39
96.0
 10
47.909429
 20
25.9548
 30
0.0
 11
47.909429
 21
25.9548
 31
0.0
  0
LINE
  5
457
100
AcDbEntity
  8
BORDER
  6
CONTINUOUS
 62
     2
100
AcDbLine
 39
96.0
 10
48.378229
 20
25.9548
 30
0.0
 11
48.378229
 21
25.9548
 31
0.0
  0
LINE
  5
458
100
AcDbEntity
  8
BORDER
  6
CONTINUOUS
 62
     2
100
AcDbLine
 39
96.0
 10
48.846929
 20
25.9548
 30
0.0
 11
48.846929
 21
25.9548
 31
0.0
  0
LINE
  5
459
100
AcDbEntity
  8
BORDER
  6
CONTINUOUS
 62
     2
100
AcDbLine
 39
96.0
 10
49.315729
 20
25.9548
 30
0.0
 11
49.315729
 21
25.9548
 31
0.0
  0
LINE
  5
45A
100
AcDbEntity
  8
BORDER
  6
CONTINUOUS
 62
     2
100
AcDbLine
 39
96.0
 10
47.675129
 20
25.4861
 30
0.0
 11
47.675129
 21
25.4861
 31
0.0
  0
LINE
  5
45B
100
AcDbEntity
  8
BORDER
  6
CONTINUOUS
 62
     2
100
AcDbLine
 39
96.0
 10
48.143829
 20
25.4861
 30
0.0
 11
48.143829
 21
25.4861
 31
0.0
  0
LINE
  5
45C
100
AcDbEntity
  8
BORDER
  6
CONTINUOUS
 62
     2
100
AcDbLine
 39
96.0
 10
48.612629
 20
25.4861
 30
0.0
 11
48.612629
 21
25.4861
 31
0.0
  0
LINE
  5
45D
100
AcDbEntity
  8
BORDER
  6
CONTINUOUS
 62
     2
100
AcDbLine
 39
96.0
 10
49.081329
 20
25.4861
 30
0.0
 11
49.081329
 21
25.4861
 31
0.0
  0
LINE
  5
45E
100
AcDbEntity
  8
BORDER
  6
CONTINUOUS
 62
     2
100
AcDbLine
 39
96.0
 10
47.909429
 20
25.0173
 30
0.0
 11
47.909429
 21
25.0173
 31
0.0
  0
LINE
  5
45F
100
AcDbEntity
  8
BORDER
  6
CONTINUOUS
 62
     2
100
AcDbLine
 39
96.0
 10
48.378229
 20
25.0173
 30
0.0
 11
48.378229
 21
25.0173
 31
0.0
  0
LINE
  5
460
100
AcDbEntity
  8
BORDER
  6
CONTINUOUS
 62
     2
100
AcDbLine
 39
96.0
 10
48.846929
 20
25.0173
 30
0.0
 11
48.846929
 21
25.0173
 31
0.0
  0
LINE
  5
461
100
AcDbEntity
  8
BORDER
  6
CONTINUOUS
 62
     2
100
AcDbLine
 39
96.0
 10
49.315729
 20
25.0173
 30
0.0
 11
49.315729
 21
25.0173
 31
0.0
  0
LINE
  5
462
100
AcDbEntity
  8
BORDER
  6
CONTINUOUS
 62
    10
100
AcDbLine
 39
96.0
 10
42.346729
 20
26.6165
 30
0.0
 11
42.273229
 21
26.5898
 31
0.0
  0
LINE
  5
463
100
AcDbEntity
  8
BORDER
  6
CONTINUOUS
 62
    10
100
AcDbLine
 39
96.0
 10
44.486829
 20
27.132
 30
0.0
 11
44.441929
 21
27.068
 31
0.0
  0
LINE
  5
464
100
AcDbEntity
  8
BORDER
  6
CONTINUOUS
 62
    10
100
AcDbLine
 39
96.0
 10
42.694429
 20
24.5721
 30
0.0
 11
42.649429
 21
24.5082
 31
0.0
  0
LINE
  5
465
100
AcDbEntity
  8
BORDER
  6
CONTINUOUS
 62
    10
100
AcDbLine
 39
96.0
 10
45.045929
 20
27.6332
 30
0.0
 11
45.034929
 21
27.5716
 31
0.0
  0
LINE
  5
466
100
AcDbEntity
  8
BORDER
  6
CONTINUOUS
 62
     1
100
AcDbLine
 39
96.0
 10
45.106729
 20
25.0013
 30
0.0
 11
45.165529
 21
25.0226
 31
0.0
  0
LINE
  5
467
100
AcDbEntity
  8
BORDER
  6
CONTINUOUS
 62
     1
100
AcDbLine
 39
96.0
 10
45.532729
 20
25.2201
 30
0.0
 11
45.543529
 21
25.2816
 31
0.0
  0
LINE
  5
468
100
AcDbEntity
  8
BORDER
  6
CONTINUOUS
 62
     1
100
AcDbLine
 39
96.0
 10
44.820829
 20
25.6359
 30
0.0
 11
44.856729
 21
25.6871
 31
0.0
  0
LINE
  5
469
100
AcDbEntity
  8
BORDER
  6
CONTINUOUS
 62
     3
100
AcDbLine
 39
96.0
 10
49.493929
 20
9.6844
 30
0.0
 11
47.618929
 21
9.6844
 31
0.0
  0
LINE
  5
46A
100
AcDbEntity
  8
BORDER
  6
CONTINUOUS
 62
     3
100
AcDbLine
 39
96.0
 10
41.368929
 20
9.6844
 30
0.0
 11
39.493929
 21
9.6844
 31
0.0
  0
LINE
  5
46B
100
AcDbEntity
  8
BORDER
  6
CONTINUOUS
 62
     3
100
AcDbLine
 39
96.0
 10
39.493929
 20
9.6844
 30
0.0
 11
41.368929
 21
9.6844
 31
0.0
  0
LINE
  5
46C
100
AcDbEntity
  8
BORDER
  6
CONTINUOUS
 62
     3
100
AcDbLine
 39
96.0
 10
49.493929
 20
9.6844
 30
0.0
 11
49.493929
 21
24.6844
 31
0.0
  0
LINE
  5
46D
100
AcDbEntity
  8
BORDER
  6
CONTINUOUS
 62
     3
100
AcDbLine
 39
96.0
 10
49.493929
 20
24.6844
 30
0.0
 11
47.618929
 21
24.6844
 31
0.0
  0
LINE
  5
46E
100
AcDbEntity
  8
BORDER
  6
CONTINUOUS
 62
     3
100
AcDbLine
 39
96.0
 10
39.493929
 20
24.6844
 30
0.0
 11
39.493929
 21
24.093341
 31
0.0
  0
LINE
  5
46F
100
AcDbEntity
  8
BORDER
  6
CONTINUOUS
 62
     3
100
AcDbLine
 39
96.0
 10
41.368929
 20
24.6844
 30
0.0
 11
41.368929
 21
9.6844
 31
0.0
  0
LINE
  5
470
100
AcDbEntity
  8
BORDER
  6
CONTINUOUS
 62
     3
100
AcDbLine
 39
96.0
 10
47.618929
 20
9.6844
 30
0.0
 11
47.618929
 21
24.6844
 31
0.0
  0
ARC
  5
471
100
AcDbEntity
  8
BORDER
  6
CONTINUOUS
 62
     3
100
AcDbCircle
 39
96.0
 10
44.493929
 20
9.6844
 30
0.0
 40
3.0
100
AcDbArc
 50
0.0
 51
180.0
  0
ARC
  5
472
100
AcDbEntity
  8
BORDER
  6
CONTINUOUS
 62
     3
100
AcDbCircle
 39
96.0
 10
44.493929
 20
24.6844
 30
0.0
 40
3.0
100
AcDbArc
 50
180.0
 51
0.0
  0
LINE
  5
473
100
AcDbEntity
  8
BORDER
  6
CONTINUOUS
 62
     3
100
AcDbLine
 39
96.0
 10
41.368929
 20
24.6844
 30
0.0
 11
39.493929
 21
24.6844
 31
0.0
  0
LINE
  5
474
100
AcDbEntity
  8
BORDER
  6
CONTINUOUS
 62
     3
100
AcDbLine
 39
96.0
 10
47.618929
 20
9.6844
 30
0.0
 11
49.493929
 21
9.6844
 31
0.0
  0
LINE
  5
475
100
AcDbEntity
  8
BORDER
  6
CONTINUOUS
 62
     1
100
AcDbLine
 39
96.0
 10
43.396729
 20
21.3739
 30
0.0
 11
43.455629
 21
21.3952
 31
0.0
  0
LINE
  5
476
100
AcDbEntity
  8
BORDER
  6
CONTINUOUS
 62
     1
100
AcDbLine
 39
96.0
 10
41.902429
 20
18.1695
 30
0.0
 11
41.961229
 21
18.1909
 31
0.0
  0
LINE
  5
477
100
AcDbEntity
  8
BORDER
  6
CONTINUOUS
 62
     1
100
AcDbLine
 39
96.0
 10
44.251729
 20
19.0246
 30
0.0
 11
44.310629
 21
19.0459
 31
0.0
  0
LINE
  5
478
100
AcDbEntity
  8
BORDER
  6
CONTINUOUS
 62
     1
100
AcDbLine
 39
96.0
 10
46.601129
 20
19.8796
 30
0.0
 11
46.659929
 21
19.901
 31
0.0
  0
LINE
  5
479
100
AcDbEntity
  8
BORDER
  6
CONTINUOUS
 62
     1
100
AcDbLine
 39
96.0
 10
42.757329
 20
15.8203
 30
0.0
 11
42.816229
 21
15.8416
 31
0.0
  0
LINE
  5
47A
100
AcDbEntity
  8
BORDER
  6
CONTINUOUS
 62
     1
100
AcDbLine
 39
96.0
 10
45.106729
 20
16.6753
 30
0.0
 11
45.165529
 21
16.6967
 31
0.0
  0
LINE
  5
47B
100
AcDbEntity
  8
BORDER
  6
CONTINUOUS
 62
     1
100
AcDbLine
 39
96.0
 10
47.456129
 20
17.5304
 30
0.0
 11
47.514929
 21
17.5517
 31
0.0
  0
LINE
  5
47C
100
AcDbEntity
  8
BORDER
  6
CONTINUOUS
 62
     1
100
AcDbLine
 39
96.0
 10
43.612329
 20
13.471
 30
0.0
 11
43.671229
 21
13.4924
 31
0.0
  0
LINE
  5
47D
100
AcDbEntity
  8
BORDER
  6
CONTINUOUS
 62
     1
100
AcDbLine
 39
96.0
 10
45.961729
 20
14.3261
 30
0.0
 11
46.020529
 21
14.3475
 31
0.0
  0
LINE
  5
47E
100
AcDbEntity
  8
BORDER
  6
CONTINUOUS
 62
     1
100
AcDbLine
 39
96.0
 10
46.816429
 20
11.9769
 30
0.0
 11
46.875329
 21
11.9983
 31
0.0
  0
LINE
  5
47F
100
AcDbEntity
  8
BORDER
  6
CONTINUOUS
 62
     1
100
AcDbLine
 39
96.0
 10
42.159029
 20
22.2257
 30
0.0
 11
42.194829
 21
22.2769
 31
0.0
  0
LINE
  5
480
100
AcDbEntity
  8
BORDER
  6
CONTINUOUS
 62
     1
100
AcDbLine
 39
96.0
 10
42.773029
 20
18.7439
 30
0.0
 11
42.808929
 21
18.795
 31
0.0
  0
LINE
  5
481
100
AcDbEntity
  8
BORDER
  6
CONTINUOUS
 62
     1
100
AcDbLine
 39
96.0
 10
44.207129
 20
20.7917
 30
0.0
 11
44.242929
 21
20.8429
 31
0.0
  0
LINE
  5
482
100
AcDbEntity
  8
BORDER
  6
CONTINUOUS
 62
     1
100
AcDbLine
 39
96.0
 10
41.952729
 20
13.2142
 30
0.0
 11
41.988529
 21
13.2654
 31
0.0
  0
LINE
  5
483
100
AcDbEntity
  8
BORDER
  6
CONTINUOUS
 62
     1
100
AcDbLine
 39
96.0
 10
43.386729
 20
15.2621
 30
0.0
 11
43.422629
 21
15.3133
 31
0.0
  0
LINE
  5
484
100
AcDbEntity
  8
BORDER
  6
CONTINUOUS
 62
     1
100
AcDbLine
 39
96.0
 10
44.820829
 20
17.31
 30
0.0
 11
44.856729
 21
17.3612
 31
0.0
  0
LINE
  5
485
100
AcDbEntity
  8
BORDER
  6
CONTINUOUS
 62
     1
100
AcDbLine
 39
96.0
 10
46.254929
 20
19.3579
 30
0.0
 11
46.290829
 21
19.409
 31
0.0
  0
LINE
  5
486
100
AcDbEntity
  8
BORDER
  6
CONTINUOUS
 62
     1
100
AcDbLine
 39
96.0
 10
45.434629
 20
13.8282
 30
0.0
 11
45.470529
 21
13.8794
 31
0.0
  0
LINE
  5
487
100
AcDbEntity
  8
BORDER
  6
CONTINUOUS
 62
     1
100
AcDbLine
 39
96.0
 10
46.868729
 20
15.8761
 30
0.0
 11
46.904629
 21
15.9272
 31
0.0
  0
LINE
  5
488
100
AcDbEntity
  8
BORDER
  6
CONTINUOUS
 62
     1
100
AcDbLine
 39
96.0
 10
47.482229
 20
12.3944
 30
0.0
 11
47.518129
 21
12.4456
 31
0.0
  0
LINE
  5
489
100
AcDbEntity
  8
BORDER
  6
CONTINUOUS
 62
     1
100
AcDbLine
 39
96.0
 10
41.477329
 20
22.6864
 30
0.0
 11
41.488129
 21
22.7479
 31
0.0
  0
LINE
  5
48A
100
AcDbEntity
  8
BORDER
  6
CONTINUOUS
 62
     1
100
AcDbLine
 39
96.0
 10
42.202929
 20
12.4041
 30
0.0
 11
42.213629
 21
12.4657
 31
0.0
  0
LINE
  5
48B
100
AcDbEntity
  8
BORDER
  6
CONTINUOUS
 62
     1
100
AcDbLine
 39
96.0
 10
42.637029
 20
14.8662
 30
0.0
 11
42.647729
 21
14.9277
 31
0.0
  0
LINE
  5
48C
100
AcDbEntity
  8
BORDER
  6
CONTINUOUS
 62
     1
100
AcDbLine
 39
96.0
 10
43.071129
 20
17.3282
 30
0.0
 11
43.081829
 21
17.3897
 31
0.0
  0
LINE
  5
48D
100
AcDbEntity
  8
BORDER
  6
CONTINUOUS
 62
     1
100
AcDbLine
 39
96.0
 10
43.505129
 20
19.7903
 30
0.0
 11
43.515929
 21
19.8518
 31
0.0
  0
LINE
  5
48E
100
AcDbEntity
  8
BORDER
  6
CONTINUOUS
 62
     1
100
AcDbLine
 39
96.0
 10
45.098729
 20
14.4321
 30
0.0
 11
45.109429
 21
14.4936
 31
0.0
  0
LINE
  5
48F
100
AcDbEntity
  8
BORDER
  6
CONTINUOUS
 62
     1
100
AcDbLine
 39
96.0
 10
45.532729
 20
16.8941
 30
0.0
 11
45.543529
 21
16.9557
 31
0.0
  0
LINE
  5
490
100
AcDbEntity
  8
BORDER
  6
CONTINUOUS
 62
     1
100
AcDbLine
 39
96.0
 10
45.966829
 20
19.3562
 30
0.0
 11
45.977629
 21
19.4177
 31
0.0
  0
LINE
  5
491
100
AcDbEntity
  8
BORDER
  6
CONTINUOUS
 62
     1
100
AcDbLine
 39
96.0
 10
46.400929
 20
21.8182
 30
0.0
 11
46.411629
 21
21.8797
 31
0.0
  0
LINE
  5
492
100
AcDbEntity
  8
BORDER
  6
CONTINUOUS
 62
     1
100
AcDbLine
 39
96.0
 10
47.126529
 20
11.536
 30
0.0
 11
47.137229
 21
11.5975
 31
0.0
  0
LINE
  5
493
100
AcDbEntity
  8
BORDER
  6
CONTINUOUS
 62
     1
100
AcDbLine
 39
96.0
 10
47.560629
 20
13.998
 30
0.0
 11
47.571329
 21
14.0595
 31
0.0
  0
LINE
  5
494
100
AcDbEntity
  8
BORDER
  6
CONTINUOUS
 62
     2
100
AcDbLine
 39
96.0
 10
39.706329
 20
24.5486
 30
0.0
 11
39.706329
 21
24.5486
 31
0.0
  0
LINE
  5
495
100
AcDbEntity
  8
BORDER
  6
CONTINUOUS
 62
     2
100
AcDbLine
 39
96.0
 10
40.175129
 20
24.5486
 30
0.0
 11
40.175129
 21
24.5486
 31
0.0
  0
LINE
  5
496
100
AcDbEntity
  8
BORDER
  6
CONTINUOUS
 62
     2
100
AcDbLine
 39
96.0
 10
40.643829
 20
24.5486
 30
0.0
 11
40.643829
 21
24.5486
 31
0.0
  0
LINE
  5
497
100
AcDbEntity
  8
BORDER
  6
CONTINUOUS
 62
     2
100
AcDbLine
 39
96.0
 10
41.112629
 20
24.5486
 30
0.0
 11
41.112629
 21
24.5486
 31
0.0
  0
LINE
  5
498
100
AcDbEntity
  8
BORDER
  6
CONTINUOUS
 62
     2
100
AcDbLine
 39
96.0
 10
39.940729
 20
24.0798
 30
0.0
 11
39.940729
 21
24.0798
 31
0.0
  0
LINE
  5
499
100
AcDbEntity
  8
BORDER
  6
CONTINUOUS
 62
     2
100
AcDbLine
 39
96.0
 10
40.409429
 20
24.0798
 30
0.0
 11
40.409429
 21
24.0798
 31
0.0
  0
LINE
  5
49A
100
AcDbEntity
  8
BORDER
  6
CONTINUOUS
 62
     2
100
AcDbLine
 39
96.0
 10
40.878229
 20
24.0798
 30
0.0
 11
40.878229
 21
24.0798
 31
0.0
  0
LINE
  5
49B
100
AcDbEntity
  8
BORDER
  6
CONTINUOUS
 62
     2
100
AcDbLine
 39
96.0
 10
41.346929
 20
24.0798
 30
0.0
 11
41.346929
 21
24.0798
 31
0.0
  0
LINE
  5
49C
100
AcDbEntity
  8
BORDER
  6
CONTINUOUS
 62
     2
100
AcDbLine
 39
96.0
 10
41.112629
 20
23.6111
 30
0.0
 11
41.112629
 21
23.6111
 31
0.0
  0
LINE
  5
49D
100
AcDbEntity
  8
BORDER
  6
CONTINUOUS
 62
     2
100
AcDbLine
 39
96.0
 10
41.346929
 20
23.1423
 30
0.0
 11
41.346929
 21
23.1423
 31
0.0
  0
LINE
  5
49E
100
AcDbEntity
  8
BORDER
  6
CONTINUOUS
 62
     2
100
AcDbLine
 39
96.0
 10
41.112629
 20
22.6736
 30
0.0
 11
41.112629
 21
22.6736
 31
0.0
  0
LINE
  5
49F
100
AcDbEntity
  8
BORDER
  6
CONTINUOUS
 62
     2
100
AcDbLine
 39
96.0
 10
41.346929
 20
22.2048
 30
0.0
 11
41.346929
 21
22.2048
 31
0.0
  0
LINE
  5
4A0
100
AcDbEntity
  8
BORDER
  6
CONTINUOUS
 62
     2
100
AcDbLine
 39
96.0
 10
41.112629
 20
21.7361
 30
0.0
 11
41.112629
 21
21.7361
 31
0.0
  0
LINE
  5
4A1
100
AcDbEntity
  8
BORDER
  6
CONTINUOUS
 62
     2
100
AcDbLine
 39
96.0
 10
41.346929
 20
21.2673
 30
0.0
 11
41.346929
 21
21.2673
 31
0.0
  0
LINE
  5
4A2
100
AcDbEntity
  8
BORDER
  6
CONTINUOUS
 62
     2
100
AcDbLine
 39
96.0
 10
41.112629
 20
20.7986
 30
0.0
 11
41.112629
 21
20.7986
 31
0.0
  0
LINE
  5
4A3
100
AcDbEntity
  8
BORDER
  6
CONTINUOUS
 62
     2
100
AcDbLine
 39
96.0
 10
39.940729
 20
20.3298
 30
0.0
 11
39.940729
 21
20.3298
 31
0.0
  0
LINE
  5
4A4
100
AcDbEntity
  8
BORDER
  6
CONTINUOUS
 62
     2
100
AcDbLine
 39
96.0
 10
40.409429
 20
20.3298
 30
0.0
 11
40.409429
 21
20.3298
 31
0.0
  0
LINE
  5
4A5
100
AcDbEntity
  8
BORDER
  6
CONTINUOUS
 62
     2
100
AcDbLine
 39
96.0
 10
40.878229
 20
20.3298
 30
0.0
 11
40.878229
 21
20.3298
 31
0.0
  0
LINE
  5
4A6
100
AcDbEntity
  8
BORDER
  6
CONTINUOUS
 62
     2
100
AcDbLine
 39
96.0
 10
41.346929
 20
20.3298
 30
0.0
 11
41.346929
 21
20.3298
 31
0.0
  0
LINE
  5
4A7
100
AcDbEntity
  8
BORDER
  6
CONTINUOUS
 62
     2
100
AcDbLine
 39
96.0
 10
39.706329
 20
19.8611
 30
0.0
 11
39.706329
 21
19.8611
 31
0.0
  0
LINE
  5
4A8
100
AcDbEntity
  8
BORDER
  6
CONTINUOUS
 62
     2
100
AcDbLine
 39
96.0
 10
40.175129
 20
19.8611
 30
0.0
 11
40.175129
 21
19.8611
 31
0.0
  0
LINE
  5
4A9
100
AcDbEntity
  8
BORDER
  6
CONTINUOUS
 62
     2
100
AcDbLine
 39
96.0
 10
40.643829
 20
19.8611
 30
0.0
 11
40.643829
 21
19.8611
 31
0.0
  0
LINE
  5
4AA
100
AcDbEntity
  8
BORDER
  6
CONTINUOUS
 62
     2
100
AcDbLine
 39
96.0
 10
41.112629
 20
19.8611
 30
0.0
 11
41.112629
 21
19.8611
 31
0.0
  0
LINE
  5
4AB
100
AcDbEntity
  8
BORDER
  6
CONTINUOUS
 62
     2
100
AcDbLine
 39
96.0
 10
39.940729
 20
19.3923
 30
0.0
 11
39.940729
 21
19.3923
 31
0.0
  0
LINE
  5
4AC
100
AcDbEntity
  8
BORDER
  6
CONTINUOUS
 62
     2
100
AcDbLine
 39
96.0
 10
40.409429
 20
19.3923
 30
0.0
 11
40.409429
 21
19.3923
 31
0.0
  0
LINE
  5
4AD
100
AcDbEntity
  8
BORDER
  6
CONTINUOUS
 62
     2
100
AcDbLine
 39
96.0
 10
40.878229
 20
19.3923
 30
0.0
 11
40.878229
 21
19.3923
 31
0.0
  0
LINE
  5
4AE
100
AcDbEntity
  8
BORDER
  6
CONTINUOUS
 62
     2
100
AcDbLine
 39
96.0
 10
41.346929
 20
19.3923
 30
0.0
 11
41.346929
 21
19.3923
 31
0.0
  0
LINE
  5
4AF
100
AcDbEntity
  8
BORDER
  6
CONTINUOUS
 62
     2
100
AcDbLine
 39
96.0
 10
39.706329
 20
18.9236
 30
0.0
 11
39.706329
 21
18.9236
 31
0.0
  0
LINE
  5
4B0
100
AcDbEntity
  8
BORDER
  6
CONTINUOUS
 62
     2
100
AcDbLine
 39
96.0
 10
40.175129
 20
18.9236
 30
0.0
 11
40.175129
 21
18.9236
 31
0.0
  0
LINE
  5
4B1
100
AcDbEntity
  8
BORDER
  6
CONTINUOUS
 62
     2
100
AcDbLine
 39
96.0
 10
40.643829
 20
18.9236
 30
0.0
 11
40.643829
 21
18.9236
 31
0.0
  0
LINE
  5
4B2
100
AcDbEntity
  8
BORDER
  6
CONTINUOUS
 62
     2
100
AcDbLine
 39
96.0
 10
41.112629
 20
18.9236
 30
0.0
 11
41.112629
 21
18.9236
 31
0.0
  0
LINE
  5
4B3
100
AcDbEntity
  8
BORDER
  6
CONTINUOUS
 62
     2
100
AcDbLine
 39
96.0
 10
39.940729
 20
18.4548
 30
0.0
 11
39.940729
 21
18.4548
 31
0.0
  0
LINE
  5
4B4
100
AcDbEntity
  8
BORDER
  6
CONTINUOUS
 62
     2
100
AcDbLine
 39
96.0
 10
40.409429
 20
18.4548
 30
0.0
 11
40.409429
 21
18.4548
 31
0.0
  0
LINE
  5
4B5
100
AcDbEntity
  8
BORDER
  6
CONTINUOUS
 62
     2
100
AcDbLine
 39
96.0
 10
40.878229
 20
18.4548
 30
0.0
 11
40.878229
 21
18.4548
 31
0.0
  0
LINE
  5
4B6
100
AcDbEntity
  8
BORDER
  6
CONTINUOUS
 62
     2
100
AcDbLine
 39
96.0
 10
41.346929
 20
18.4548
 30
0.0
 11
41.346929
 21
18.4548
 31
0.0
  0
LINE
  5
4B7
100
AcDbEntity
  8
BORDER
  6
CONTINUOUS
 62
     2
100
AcDbLine
 39
96.0
 10
39.706329
 20
17.9861
 30
0.0
 11
39.706329
 21
17.9861
 31
0.0
  0
LINE
  5
4B8
100
AcDbEntity
  8
BORDER
  6
CONTINUOUS
 62
     2
100
AcDbLine
 39
96.0
 10
40.175129
 20
17.9861
 30
0.0
 11
40.175129
 21
17.9861
 31
0.0
  0
LINE
  5
4B9
100
AcDbEntity
  8
BORDER
  6
CONTINUOUS
 62
     2
100
AcDbLine
 39
96.0
 10
40.643829
 20
17.9861
 30
0.0
 11
40.643829
 21
17.9861
 31
0.0
  0
LINE
  5
4BA
100
AcDbEntity
  8
BORDER
  6
CONTINUOUS
 62
     2
100
AcDbLine
 39
96.0
 10
41.112629
 20
17.9861
 30
0.0
 11
41.112629
 21
17.9861
 31
0.0
  0
LINE
  5
4BB
100
AcDbEntity
  8
BORDER
  6
CONTINUOUS
 62
     2
100
AcDbLine
 39
96.0
 10
39.940729
 20
17.5173
 30
0.0
 11
39.940729
 21
17.5173
 31
0.0
  0
LINE
  5
4BC
100
AcDbEntity
  8
BORDER
  6
CONTINUOUS
 62
     2
100
AcDbLine
 39
96.0
 10
40.409429
 20
17.5173
 30
0.0
 11
40.409429
 21
17.5173
 31
0.0
  0
LINE
  5
4BD
100
AcDbEntity
  8
BORDER
  6
CONTINUOUS
 62
     2
100
AcDbLine
 39
96.0
 10
40.878229
 20
17.5173
 30
0.0
 11
40.878229
 21
17.5173
 31
0.0
  0
LINE
  5
4BE
100
AcDbEntity
  8
BORDER
  6
CONTINUOUS
 62
     2
100
AcDbLine
 39
96.0
 10
41.346929
 20
17.5173
 30
0.0
 11
41.346929
 21
17.5173
 31
0.0
  0
LINE
  5
4BF
100
AcDbEntity
  8
BORDER
  6
CONTINUOUS
 62
     2
100
AcDbLine
 39
96.0
 10
39.706329
 20
17.0486
 30
0.0
 11
39.706329
 21
17.0486
 31
0.0
  0
LINE
  5
4C0
100
AcDbEntity
  8
BORDER
  6
CONTINUOUS
 62
     2
100
AcDbLine
 39
96.0
 10
40.175129
 20
17.0486
 30
0.0
 11
40.175129
 21
17.0486
 31
0.0
  0
LINE
  5
4C1
100
AcDbEntity
  8
BORDER
  6
CONTINUOUS
 62
     2
100
AcDbLine
 39
96.0
 10
40.643829
 20
17.0486
 30
0.0
 11
40.643829
 21
17.0486
 31
0.0
  0
LINE
  5
4C2
100
AcDbEntity
  8
BORDER
  6
CONTINUOUS
 62
     2
100
AcDbLine
 39
96.0
 10
41.112629
 20
17.0486
 30
0.0
 11
41.112629
 21
17.0486
 31
0.0
  0
LINE
  5
4C3
100
AcDbEntity
  8
BORDER
  6
CONTINUOUS
 62
     2
100
AcDbLine
 39
96.0
 10
39.940729
 20
16.5798
 30
0.0
 11
39.940729
 21
16.5798
 31
0.0
  0
LINE
  5
4C4
100
AcDbEntity
  8
BORDER
  6
CONTINUOUS
 62
     2
100
AcDbLine
 39
96.0
 10
40.409429
 20
16.5798
 30
0.0
 11
40.409429
 21
16.5798
 31
0.0
  0
LINE
  5
4C5
100
AcDbEntity
  8
BORDER
  6
CONTINUOUS
 62
     2
100
AcDbLine
 39
96.0
 10
40.878229
 20
16.5798
 30
0.0
 11
40.878229
 21
16.5798
 31
0.0
  0
LINE
  5
4C6
100
AcDbEntity
  8
BORDER
  6
CONTINUOUS
 62
     2
100
AcDbLine
 39
96.0
 10
41.346929
 20
16.5798
 30
0.0
 11
41.346929
 21
16.5798
 31
0.0
  0
LINE
  5
4C7
100
AcDbEntity
  8
BORDER
  6
CONTINUOUS
 62
     2
100
AcDbLine
 39
96.0
 10
39.706329
 20
16.1111
 30
0.0
 11
39.706329
 21
16.1111
 31
0.0
  0
LINE
  5
4C8
100
AcDbEntity
  8
BORDER
  6
CONTINUOUS
 62
     2
100
AcDbLine
 39
96.0
 10
40.175129
 20
16.1111
 30
0.0
 11
40.175129
 21
16.1111
 31
0.0
  0
LINE
  5
4C9
100
AcDbEntity
  8
BORDER
  6
CONTINUOUS
 62
     2
100
AcDbLine
 39
96.0
 10
40.643829
 20
16.1111
 30
0.0
 11
40.643829
 21
16.1111
 31
0.0
  0
LINE
  5
4CA
100
AcDbEntity
  8
BORDER
  6
CONTINUOUS
 62
     2
100
AcDbLine
 39
96.0
 10
41.112629
 20
16.1111
 30
0.0
 11
41.112629
 21
16.1111
 31
0.0
  0
LINE
  5
4CB
100
AcDbEntity
  8
BORDER
  6
CONTINUOUS
 62
     2
100
AcDbLine
 39
96.0
 10
39.940729
 20
15.6423
 30
0.0
 11
39.940729
 21
15.6423
 31
0.0
  0
LINE
  5
4CC
100
AcDbEntity
  8
BORDER
  6
CONTINUOUS
 62
     2
100
AcDbLine
 39
96.0
 10
40.409429
 20
15.6423
 30
0.0
 11
40.409429
 21
15.6423
 31
0.0
  0
LINE
  5
4CD
100
AcDbEntity
  8
BORDER
  6
CONTINUOUS
 62
     2
100
AcDbLine
 39
96.0
 10
40.878229
 20
15.6423
 30
0.0
 11
40.878229
 21
15.6423
 31
0.0
  0
LINE
  5
4CE
100
AcDbEntity
  8
BORDER
  6
CONTINUOUS
 62
     2
100
AcDbLine
 39
96.0
 10
41.346929
 20
15.6423
 30
0.0
 11
41.346929
 21
15.6423
 31
0.0
  0
LINE
  5
4CF
100
AcDbEntity
  8
BORDER
  6
CONTINUOUS
 62
     2
100
AcDbLine
 39
96.0
 10
39.706329
 20
15.1736
 30
0.0
 11
39.706329
 21
15.1736
 31
0.0
  0
LINE
  5
4D0
100
AcDbEntity
  8
BORDER
  6
CONTINUOUS
 62
     2
100
AcDbLine
 39
96.0
 10
40.175129
 20
15.1736
 30
0.0
 11
40.175129
 21
15.1736
 31
0.0
  0
LINE
  5
4D1
100
AcDbEntity
  8
BORDER
  6
CONTINUOUS
 62
     2
100
AcDbLine
 39
96.0
 10
40.643829
 20
15.1736
 30
0.0
 11
40.643829
 21
15.1736
 31
0.0
  0
LINE
  5
4D2
100
AcDbEntity
  8
BORDER
  6
CONTINUOUS
 62
     2
100
AcDbLine
 39
96.0
 10
41.112629
 20
15.1736
 30
0.0
 11
41.112629
 21
15.1736
 31
0.0
  0
LINE
  5
4D3
100
AcDbEntity
  8
BORDER
  6
CONTINUOUS
 62
     2
100
AcDbLine
 39
96.0
 10
39.940729
 20
14.7048
 30
0.0
 11
39.940729
 21
14.7048
 31
0.0
  0
LINE
  5
4D4
100
AcDbEntity
  8
BORDER
  6
CONTINUOUS
 62
     2
100
AcDbLine
 39
96.0
 10
40.409429
 20
14.7048
 30
0.0
 11
40.409429
 21
14.7048
 31
0.0
  0
LINE
  5
4D5
100
AcDbEntity
  8
BORDER
  6
CONTINUOUS
 62
     2
100
AcDbLine
 39
96.0
 10
40.878229
 20
14.7048
 30
0.0
 11
40.878229
 21
14.7048
 31
0.0
  0
LINE
  5
4D6
100
AcDbEntity
  8
BORDER
  6
CONTINUOUS
 62
     2
100
AcDbLine
 39
96.0
 10
41.346929
 20
14.7048
 30
0.0
 11
41.346929
 21
14.7048
 31
0.0
  0
LINE
  5
4D7
100
AcDbEntity
  8
BORDER
  6
CONTINUOUS
 62
     2
100
AcDbLine
 39
96.0
 10
39.706329
 20
14.2361
 30
0.0
 11
39.706329
 21
14.2361
 31
0.0
  0
LINE
  5
4D8
100
AcDbEntity
  8
BORDER
  6
CONTINUOUS
 62
     2
100
AcDbLine
 39
96.0
 10
40.175129
 20
14.2361
 30
0.0
 11
40.175129
 21
14.2361
 31
0.0
  0
LINE
  5
4D9
100
AcDbEntity
  8
BORDER
  6
CONTINUOUS
 62
     2
100
AcDbLine
 39
96.0
 10
40.643829
 20
14.2361
 30
0.0
 11
40.643829
 21
14.2361
 31
0.0
  0
LINE
  5
4DA
100
AcDbEntity
  8
BORDER
  6
CONTINUOUS
 62
     2
100
AcDbLine
 39
96.0
 10
41.112629
 20
14.2361
 30
0.0
 11
41.112629
 21
14.2361
 31
0.0
  0
LINE
  5
4DB
100
AcDbEntity
  8
BORDER
  6
CONTINUOUS
 62
     2
100
AcDbLine
 39
96.0
 10
39.940729
 20
13.7673
 30
0.0
 11
39.940729
 21
13.7673
 31
0.0
  0
LINE
  5
4DC
100
AcDbEntity
  8
BORDER
  6
CONTINUOUS
 62
     2
100
AcDbLine
 39
96.0
 10
40.409429
 20
13.7673
 30
0.0
 11
40.409429
 21
13.7673
 31
0.0
  0
LINE
  5
4DD
100
AcDbEntity
  8
BORDER
  6
CONTINUOUS
 62
     2
100
AcDbLine
 39
96.0
 10
40.878229
 20
13.7673
 30
0.0
 11
40.878229
 21
13.7673
 31
0.0
  0
LINE
  5
4DE
100
AcDbEntity
  8
BORDER
  6
CONTINUOUS
 62
     2
100
AcDbLine
 39
96.0
 10
41.346929
 20
13.7673
 30
0.0
 11
41.346929
 21
13.7673
 31
0.0
  0
LINE
  5
4DF
100
AcDbEntity
  8
BORDER
  6
CONTINUOUS
 62
     2
100
AcDbLine
 39
96.0
 10
39.706329
 20
13.2986
 30
0.0
 11
39.706329
 21
13.2986
 31
0.0
  0
LINE
  5
4E0
100
AcDbEntity
  8
BORDER
  6
CONTINUOUS
 62
     2
100
AcDbLine
 39
96.0
 10
40.175129
 20
13.2986
 30
0.0
 11
40.175129
 21
13.2986
 31
0.0
  0
LINE
  5
4E1
100
AcDbEntity
  8
BORDER
  6
CONTINUOUS
 62
     2
100
AcDbLine
 39
96.0
 10
40.643829
 20
13.2986
 30
0.0
 11
40.643829
 21
13.2986
 31
0.0
  0
LINE
  5
4E2
100
AcDbEntity
  8
BORDER
  6
CONTINUOUS
 62
     2
100
AcDbLine
 39
96.0
 10
41.112629
 20
13.2986
 30
0.0
 11
41.112629
 21
13.2986
 31
0.0
  0
LINE
  5
4E3
100
AcDbEntity
  8
BORDER
  6
CONTINUOUS
 62
     2
100
AcDbLine
 39
96.0
 10
39.940729
 20
12.8298
 30
0.0
 11
39.940729
 21
12.8298
 31
0.0
  0
LINE
  5
4E4
100
AcDbEntity
  8
BORDER
  6
CONTINUOUS
 62
     2
100
AcDbLine
 39
96.0
 10
40.409429
 20
12.8298
 30
0.0
 11
40.409429
 21
12.8298
 31
0.0
  0
LINE
  5
4E5
100
AcDbEntity
  8
BORDER
  6
CONTINUOUS
 62
     2
100
AcDbLine
 39
96.0
 10
40.878229
 20
12.8298
 30
0.0
 11
40.878229
 21
12.8298
 31
0.0
  0
LINE
  5
4E6
100
AcDbEntity
  8
BORDER
  6
CONTINUOUS
 62
     2
100
AcDbLine
 39
96.0
 10
41.346929
 20
12.8298
 30
0.0
 11
41.346929
 21
12.8298
 31
0.0
  0
LINE
  5
4E7
100
AcDbEntity
  8
BORDER
  6
CONTINUOUS
 62
     2
100
AcDbLine
 39
96.0
 10
39.706329
 20
12.3611
 30
0.0
 11
39.706329
 21
12.3611
 31
0.0
  0
LINE
  5
4E8
100
AcDbEntity
  8
BORDER
  6
CONTINUOUS
 62
     2
100
AcDbLine
 39
96.0
 10
40.175129
 20
12.3611
 30
0.0
 11
40.175129
 21
12.3611
 31
0.0
  0
LINE
  5
4E9
100
AcDbEntity
  8
BORDER
  6
CONTINUOUS
 62
     2
100
AcDbLine
 39
96.0
 10
40.643829
 20
12.3611
 30
0.0
 11
40.643829
 21
12.3611
 31
0.0
  0
LINE
  5
4EA
100
AcDbEntity
  8
BORDER
  6
CONTINUOUS
 62
     2
100
AcDbLine
 39
96.0
 10
41.112629
 20
12.3611
 30
0.0
 11
41.112629
 21
12.3611
 31
0.0
  0
LINE
  5
4EB
100
AcDbEntity
  8
BORDER
  6
CONTINUOUS
 62
     2
100
AcDbLine
 39
96.0
 10
39.940729
 20
11.8923
 30
0.0
 11
39.940729
 21
11.8923
 31
0.0
  0
LINE
  5
4EC
100
AcDbEntity
  8
BORDER
  6
CONTINUOUS
 62
     2
100
AcDbLine
 39
96.0
 10
40.409429
 20
11.8923
 30
0.0
 11
40.409429
 21
11.8923
 31
0.0
  0
LINE
  5
4ED
100
AcDbEntity
  8
BORDER
  6
CONTINUOUS
 62
     2
100
AcDbLine
 39
96.0
 10
40.878229
 20
11.8923
 30
0.0
 11
40.878229
 21
11.8923
 31
0.0
  0
LINE
  5
4EE
100
AcDbEntity
  8
BORDER
  6
CONTINUOUS
 62
     2
100
AcDbLine
 39
96.0
 10
41.346929
 20
11.8923
 30
0.0
 11
41.346929
 21
11.8923
 31
0.0
  0
LINE
  5
4EF
100
AcDbEntity
  8
BORDER
  6
CONTINUOUS
 62
     2
100
AcDbLine
 39
96.0
 10
39.706329
 20
11.4236
 30
0.0
 11
39.706329
 21
11.4236
 31
0.0
  0
LINE
  5
4F0
100
AcDbEntity
  8
BORDER
  6
CONTINUOUS
 62
     2
100
AcDbLine
 39
96.0
 10
40.175129
 20
11.4236
 30
0.0
 11
40.175129
 21
11.4236
 31
0.0
  0
LINE
  5
4F1
100
AcDbEntity
  8
BORDER
  6
CONTINUOUS
 62
     2
100
AcDbLine
 39
96.0
 10
40.643829
 20
11.4236
 30
0.0
 11
40.643829
 21
11.4236
 31
0.0
  0
LINE
  5
4F2
100
AcDbEntity
  8
BORDER
  6
CONTINUOUS
 62
     2
100
AcDbLine
 39
96.0
 10
41.112629
 20
11.4236
 30
0.0
 11
41.112629
 21
11.4236
 31
0.0
  0
LINE
  5
4F3
100
AcDbEntity
  8
BORDER
  6
CONTINUOUS
 62
     2
100
AcDbLine
 39
96.0
 10
39.940729
 20
10.9548
 30
0.0
 11
39.940729
 21
10.9548
 31
0.0
  0
LINE
  5
4F4
100
AcDbEntity
  8
BORDER
  6
CONTINUOUS
 62
     2
100
AcDbLine
 39
96.0
 10
40.409429
 20
10.9548
 30
0.0
 11
40.409429
 21
10.9548
 31
0.0
  0
LINE
  5
4F5
100
AcDbEntity
  8
BORDER
  6
CONTINUOUS
 62
     2
100
AcDbLine
 39
96.0
 10
40.878229
 20
10.9548
 30
0.0
 11
40.878229
 21
10.9548
 31
0.0
  0
LINE
  5
4F6
100
AcDbEntity
  8
BORDER
  6
CONTINUOUS
 62
     2
100
AcDbLine
 39
96.0
 10
41.346929
 20
10.9548
 30
0.0
 11
41.346929
 21
10.9548
 31
0.0
  0
LINE
  5
4F7
100
AcDbEntity
  8
BORDER
  6
CONTINUOUS
 62
     2
100
AcDbLine
 39
96.0
 10
39.706329
 20
10.4861
 30
0.0
 11
39.706329
 21
10.4861
 31
0.0
  0
LINE
  5
4F8
100
AcDbEntity
  8
BORDER
  6
CONTINUOUS
 62
     2
100
AcDbLine
 39
96.0
 10
40.175129
 20
10.4861
 30
0.0
 11
40.175129
 21
10.4861
 31
0.0
  0
LINE
  5
4F9
100
AcDbEntity
  8
BORDER
  6
CONTINUOUS
 62
     2
100
AcDbLine
 39
96.0
 10
40.643829
 20
10.4861
 30
0.0
 11
40.643829
 21
10.4861
 31
0.0
  0
LINE
  5
4FA
100
AcDbEntity
  8
BORDER
  6
CONTINUOUS
 62
     2
100
AcDbLine
 39
96.0
 10
41.112629
 20
10.4861
 30
0.0
 11
41.112629
 21
10.4861
 31
0.0
  0
LINE
  5
4FB
100
AcDbEntity
  8
BORDER
  6
CONTINUOUS
 62
     2
100
AcDbLine
 39
96.0
 10
39.940729
 20
10.0173
 30
0.0
 11
39.940729
 21
10.0173
 31
0.0
  0
LINE
  5
4FC
100
AcDbEntity
  8
BORDER
  6
CONTINUOUS
 62
     2
100
AcDbLine
 39
96.0
 10
40.409429
 20
10.0173
 30
0.0
 11
40.409429
 21
10.0173
 31
0.0
  0
LINE
  5
4FD
100
AcDbEntity
  8
BORDER
  6
CONTINUOUS
 62
     2
100
AcDbLine
 39
96.0
 10
40.878229
 20
10.0173
 30
0.0
 11
40.878229
 21
10.0173
 31
0.0
  0
LINE
  5
4FE
100
AcDbEntity
  8
BORDER
  6
CONTINUOUS
 62
     2
100
AcDbLine
 39
96.0
 10
41.346929
 20
10.0173
 30
0.0
 11
41.346929
 21
10.0173
 31
0.0
  0
LINE
  5
4FF
100
AcDbEntity
  8
BORDER
  6
CONTINUOUS
 62
     2
100
AcDbLine
 39
96.0
 10
47.675129
 20
24.5486
 30
0.0
 11
47.675129
 21
24.5486
 31
0.0
  0
LINE
  5
500
100
AcDbEntity
  8
BORDER
  6
CONTINUOUS
 62
     2
100
AcDbLine
 39
96.0
 10
48.143829
 20
24.5486
 30
0.0
 11
48.143829
 21
24.5486
 31
0.0
  0
LINE
  5
501
100
AcDbEntity
  8
BORDER
  6
CONTINUOUS
 62
     2
100
AcDbLine
 39
96.0
 10
48.612629
 20
24.5486
 30
0.0
 11
48.612629
 21
24.5486
 31
0.0
  0
LINE
  5
502
100
AcDbEntity
  8
BORDER
  6
CONTINUOUS
 62
     2
100
AcDbLine
 39
96.0
 10
49.081329
 20
24.5486
 30
0.0
 11
49.081329
 21
24.5486
 31
0.0
  0
LINE
  5
503
100
AcDbEntity
  8
BORDER
  6
CONTINUOUS
 62
     2
100
AcDbLine
 39
96.0
 10
47.909429
 20
24.0798
 30
0.0
 11
47.909429
 21
24.0798
 31
0.0
  0
LINE
  5
504
100
AcDbEntity
  8
BORDER
  6
CONTINUOUS
 62
     2
100
AcDbLine
 39
96.0
 10
48.378229
 20
24.0798
 30
0.0
 11
48.378229
 21
24.0798
 31
0.0
  0
LINE
  5
505
100
AcDbEntity
  8
BORDER
  6
CONTINUOUS
 62
     2
100
AcDbLine
 39
96.0
 10
48.846929
 20
24.0798
 30
0.0
 11
48.846929
 21
24.0798
 31
0.0
  0
LINE
  5
506
100
AcDbEntity
  8
BORDER
  6
CONTINUOUS
 62
     2
100
AcDbLine
 39
96.0
 10
49.315729
 20
24.0798
 30
0.0
 11
49.315729
 21
24.0798
 31
0.0
  0
LINE
  5
507
100
AcDbEntity
  8
BORDER
  6
CONTINUOUS
 62
     2
100
AcDbLine
 39
96.0
 10
47.675129
 20
23.6111
 30
0.0
 11
47.675129
 21
23.6111
 31
0.0
  0
LINE
  5
508
100
AcDbEntity
  8
BORDER
  6
CONTINUOUS
 62
     2
100
AcDbLine
 39
96.0
 10
48.143829
 20
23.6111
 30
0.0
 11
48.143829
 21
23.6111
 31
0.0
  0
LINE
  5
509
100
AcDbEntity
  8
BORDER
  6
CONTINUOUS
 62
     2
100
AcDbLine
 39
96.0
 10
48.612629
 20
23.6111
 30
0.0
 11
48.612629
 21
23.6111
 31
0.0
  0
LINE
  5
50A
100
AcDbEntity
  8
BORDER
  6
CONTINUOUS
 62
     2
100
AcDbLine
 39
96.0
 10
49.081329
 20
23.6111
 30
0.0
 11
49.081329
 21
23.6111
 31
0.0
  0
LINE
  5
50B
100
AcDbEntity
  8
BORDER
  6
CONTINUOUS
 62
     2
100
AcDbLine
 39
96.0
 10
47.909429
 20
23.1423
 30
0.0
 11
47.909429
 21
23.1423
 31
0.0
  0
LINE
  5
50C
100
AcDbEntity
  8
BORDER
  6
CONTINUOUS
 62
     2
100
AcDbLine
 39
96.0
 10
48.378229
 20
23.1423
 30
0.0
 11
48.378229
 21
23.1423
 31
0.0
  0
LINE
  5
50D
100
AcDbEntity
  8
BORDER
  6
CONTINUOUS
 62
     2
100
AcDbLine
 39
96.0
 10
48.846929
 20
23.1423
 30
0.0
 11
48.846929
 21
23.1423
 31
0.0
  0
LINE
  5
50E
100
AcDbEntity
  8
BORDER
  6
CONTINUOUS
 62
     2
100
AcDbLine
 39
96.0
 10
49.315729
 20
23.1423
 30
0.0
 11
49.315729
 21
23.1423
 31
0.0
  0
LINE
  5
50F
100
AcDbEntity
  8
BORDER
  6
CONTINUOUS
 62
     2
100
AcDbLine
 39
96.0
 10
47.675129
 20
22.6736
 30
0.0
 11
47.675129
 21
22.6736
 31
0.0
  0
LINE
  5
510
100
AcDbEntity
  8
BORDER
  6
CONTINUOUS
 62
     2
100
AcDbLine
 39
96.0
 10
48.143829
 20
22.6736
 30
0.0
 11
48.143829
 21
22.6736
 31
0.0
  0
LINE
  5
511
100
AcDbEntity
  8
BORDER
  6
CONTINUOUS
 62
     2
100
AcDbLine
 39
96.0
 10
48.612629
 20
22.6736
 30
0.0
 11
48.612629
 21
22.6736
 31
0.0
  0
LINE
  5
512
100
AcDbEntity
  8
BORDER
  6
CONTINUOUS
 62
     2
100
AcDbLine
 39
96.0
 10
49.081329
 20
22.6736
 30
0.0
 11
49.081329
 21
22.6736
 31
0.0
  0
LINE
  5
513
100
AcDbEntity
  8
BORDER
  6
CONTINUOUS
 62
     2
100
AcDbLine
 39
96.0
 10
47.909429
 20
22.2048
 30
0.0
 11
47.909429
 21
22.2048
 31
0.0
  0
LINE
  5
514
100
AcDbEntity
  8
BORDER
  6
CONTINUOUS
 62
     2
100
AcDbLine
 39
96.0
 10
48.378229
 20
22.2048
 30
0.0
 11
48.378229
 21
22.2048
 31
0.0
  0
LINE
  5
515
100
AcDbEntity
  8
BORDER
  6
CONTINUOUS
 62
     2
100
AcDbLine
 39
96.0
 10
48.846929
 20
22.2048
 30
0.0
 11
48.846929
 21
22.2048
 31
0.0
  0
LINE
  5
516
100
AcDbEntity
  8
BORDER
  6
CONTINUOUS
 62
     2
100
AcDbLine
 39
96.0
 10
49.315729
 20
22.2048
 30
0.0
 11
49.315729
 21
22.2048
 31
0.0
  0
LINE
  5
517
100
AcDbEntity
  8
BORDER
  6
CONTINUOUS
 62
     2
100
AcDbLine
 39
96.0
 10
47.675129
 20
21.7361
 30
0.0
 11
47.675129
 21
21.7361
 31
0.0
  0
LINE
  5
518
100
AcDbEntity
  8
BORDER
  6
CONTINUOUS
 62
     2
100
AcDbLine
 39
96.0
 10
48.143829
 20
21.7361
 30
0.0
 11
48.143829
 21
21.7361
 31
0.0
  0
LINE
  5
519
100
AcDbEntity
  8
BORDER
  6
CONTINUOUS
 62
     2
100
AcDbLine
 39
96.0
 10
48.612629
 20
21.7361
 30
0.0
 11
48.612629
 21
21.7361
 31
0.0
  0
LINE
  5
51A
100
AcDbEntity
  8
BORDER
  6
CONTINUOUS
 62
     2
100
AcDbLine
 39
96.0
 10
49.081329
 20
21.7361
 30
0.0
 11
49.081329
 21
21.7361
 31
0.0
  0
LINE
  5
51B
100
AcDbEntity
  8
BORDER
  6
CONTINUOUS
 62
     2
100
AcDbLine
 39
96.0
 10
47.909429
 20
21.2673
 30
0.0
 11
47.909429
 21
21.2673
 31
0.0
  0
LINE
  5
51C
100
AcDbEntity
  8
BORDER
  6
CONTINUOUS
 62
     2
100
AcDbLine
 39
96.0
 10
48.378229
 20
21.2673
 30
0.0
 11
48.378229
 21
21.2673
 31
0.0
  0
LINE
  5
51D
100
AcDbEntity
  8
BORDER
  6
CONTINUOUS
 62
     2
100
AcDbLine
 39
96.0
 10
48.846929
 20
21.2673
 30
0.0
 11
48.846929
 21
21.2673
 31
0.0
  0
LINE
  5
51E
100
AcDbEntity
  8
BORDER
  6
CONTINUOUS
 62
     2
100
AcDbLine
 39
96.0
 10
49.315729
 20
21.2673
 30
0.0
 11
49.315729
 21
21.2673
 31
0.0
  0
LINE
  5
51F
100
AcDbEntity
  8
BORDER
  6
CONTINUOUS
 62
     2
100
AcDbLine
 39
96.0
 10
47.675129
 20
20.7986
 30
0.0
 11
47.675129
 21
20.7986
 31
0.0
  0
LINE
  5
520
100
AcDbEntity
  8
BORDER
  6
CONTINUOUS
 62
     2
100
AcDbLine
 39
96.0
 10
48.143829
 20
20.7986
 30
0.0
 11
48.143829
 21
20.7986
 31
0.0
  0
LINE
  5
521
100
AcDbEntity
  8
BORDER
  6
CONTINUOUS
 62
     2
100
AcDbLine
 39
96.0
 10
48.612629
 20
20.7986
 30
0.0
 11
48.612629
 21
20.7986
 31
0.0
  0
LINE
  5
522
100
AcDbEntity
  8
BORDER
  6
CONTINUOUS
 62
     2
100
AcDbLine
 39
96.0
 10
49.081329
 20
20.7986
 30
0.0
 11
49.081329
 21
20.7986
 31
0.0
  0
LINE
  5
523
100
AcDbEntity
  8
BORDER
  6
CONTINUOUS
 62
     2
100
AcDbLine
 39
96.0
 10
47.909429
 20
20.3298
 30
0.0
 11
47.909429
 21
20.3298
 31
0.0
  0
LINE
  5
524
100
AcDbEntity
  8
BORDER
  6
CONTINUOUS
 62
     2
100
AcDbLine
 39
96.0
 10
48.378229
 20
20.3298
 30
0.0
 11
48.378229
 21
20.3298
 31
0.0
  0
LINE
  5
525
100
AcDbEntity
  8
BORDER
  6
CONTINUOUS
 62
     2
100
AcDbLine
 39
96.0
 10
48.846929
 20
20.3298
 30
0.0
 11
48.846929
 21
20.3298
 31
0.0
  0
LINE
  5
526
100
AcDbEntity
  8
BORDER
  6
CONTINUOUS
 62
     2
100
AcDbLine
 39
96.0
 10
49.315729
 20
20.3298
 30
0.0
 11
49.315729
 21
20.3298
 31
0.0
  0
LINE
  5
527
100
AcDbEntity
  8
BORDER
  6
CONTINUOUS
 62
     2
100
AcDbLine
 39
96.0
 10
47.675129
 20
19.8611
 30
0.0
 11
47.675129
 21
19.8611
 31
0.0
  0
LINE
  5
528
100
AcDbEntity
  8
BORDER
  6
CONTINUOUS
 62
     2
100
AcDbLine
 39
96.0
 10
48.143829
 20
19.8611
 30
0.0
 11
48.143829
 21
19.8611
 31
0.0
  0
LINE
  5
529
100
AcDbEntity
  8
BORDER
  6
CONTINUOUS
 62
     2
100
AcDbLine
 39
96.0
 10
48.612629
 20
19.8611
 30
0.0
 11
48.612629
 21
19.8611
 31
0.0
  0
LINE
  5
52A
100
AcDbEntity
  8
BORDER
  6
CONTINUOUS
 62
     2
100
AcDbLine
 39
96.0
 10
49.081329
 20
19.8611
 30
0.0
 11
49.081329
 21
19.8611
 31
0.0
  0
LINE
  5
52B
100
AcDbEntity
  8
BORDER
  6
CONTINUOUS
 62
     2
100
AcDbLine
 39
96.0
 10
47.909429
 20
19.3923
 30
0.0
 11
47.909429
 21
19.3923
 31
0.0
  0
LINE
  5
52C
100
AcDbEntity
  8
BORDER
  6
CONTINUOUS
 62
     2
100
AcDbLine
 39
96.0
 10
48.378229
 20
19.3923
 30
0.0
 11
48.378229
 21
19.3923
 31
0.0
  0
LINE
  5
52D
100
AcDbEntity
  8
BORDER
  6
CONTINUOUS
 62
     2
100
AcDbLine
 39
96.0
 10
48.846929
 20
19.3923
 30
0.0
 11
48.846929
 21
19.3923
 31
0.0
  0
LINE
  5
52E
100
AcDbEntity
  8
BORDER
  6
CONTINUOUS
 62
     2
100
AcDbLine
 39
96.0
 10
49.315729
 20
19.3923
 30
0.0
 11
49.315729
 21
19.3923
 31
0.0
  0
LINE
  5
52F
100
AcDbEntity
  8
BORDER
  6
CONTINUOUS
 62
     2
100
AcDbLine
 39
96.0
 10
47.675129
 20
18.9236
 30
0.0
 11
47.675129
 21
18.9236
 31
0.0
  0
LINE
  5
530
100
AcDbEntity
  8
BORDER
  6
CONTINUOUS
 62
     2
100
AcDbLine
 39
96.0
 10
48.143829
 20
18.9236
 30
0.0
 11
48.143829
 21
18.9236
 31
0.0
  0
LINE
  5
531
100
AcDbEntity
  8
BORDER
  6
CONTINUOUS
 62
     2
100
AcDbLine
 39
96.0
 10
48.612629
 20
18.9236
 30
0.0
 11
48.612629
 21
18.9236
 31
0.0
  0
LINE
  5
532
100
AcDbEntity
  8
BORDER
  6
CONTINUOUS
 62
     2
100
AcDbLine
 39
96.0
 10
49.081329
 20
18.9236
 30
0.0
 11
49.081329
 21
18.9236
 31
0.0
  0
LINE
  5
533
100
AcDbEntity
  8
BORDER
  6
CONTINUOUS
 62
     2
100
AcDbLine
 39
96.0
 10
47.909429
 20
18.4548
 30
0.0
 11
47.909429
 21
18.4548
 31
0.0
  0
LINE
  5
534
100
AcDbEntity
  8
BORDER
  6
CONTINUOUS
 62
     2
100
AcDbLine
 39
96.0
 10
48.378229
 20
18.4548
 30
0.0
 11
48.378229
 21
18.4548
 31
0.0
  0
LINE
  5
535
100
AcDbEntity
  8
BORDER
  6
CONTINUOUS
 62
     2
100
AcDbLine
 39
96.0
 10
48.846929
 20
18.4548
 30
0.0
 11
48.846929
 21
18.4548
 31
0.0
  0
LINE
  5
536
100
AcDbEntity
  8
BORDER
  6
CONTINUOUS
 62
     2
100
AcDbLine
 39
96.0
 10
49.315729
 20
18.4548
 30
0.0
 11
49.315729
 21
18.4548
 31
0.0
  0
LINE
  5
537
100
AcDbEntity
  8
BORDER
  6
CONTINUOUS
 62
     2
100
AcDbLine
 39
96.0
 10
47.675129
 20
17.9861
 30
0.0
 11
47.675129
 21
17.9861
 31
0.0
  0
LINE
  5
538
100
AcDbEntity
  8
BORDER
  6
CONTINUOUS
 62
     2
100
AcDbLine
 39
96.0
 10
48.143829
 20
17.9861
 30
0.0
 11
48.143829
 21
17.9861
 31
0.0
  0
LINE
  5
539
100
AcDbEntity
  8
BORDER
  6
CONTINUOUS
 62
     2
100
AcDbLine
 39
96.0
 10
48.612629
 20
17.9861
 30
0.0
 11
48.612629
 21
17.9861
 31
0.0
  0
LINE
  5
53A
100
AcDbEntity
  8
BORDER
  6
CONTINUOUS
 62
     2
100
AcDbLine
 39
96.0
 10
49.081329
 20
17.9861
 30
0.0
 11
49.081329
 21
17.9861
 31
0.0
  0
LINE
  5
53B
100
AcDbEntity
  8
BORDER
  6
CONTINUOUS
 62
     2
100
AcDbLine
 39
96.0
 10
47.909429
 20
17.5173
 30
0.0
 11
47.909429
 21
17.5173
 31
0.0
  0
LINE
  5
53C
100
AcDbEntity
  8
BORDER
  6
CONTINUOUS
 62
     2
100
AcDbLine
 39
96.0
 10
48.378229
 20
17.5173
 30
0.0
 11
48.378229
 21
17.5173
 31
0.0
  0
LINE
  5
53D
100
AcDbEntity
  8
BORDER
  6
CONTINUOUS
 62
     2
100
AcDbLine
 39
96.0
 10
48.846929
 20
17.5173
 30
0.0
 11
48.846929
 21
17.5173
 31
0.0
  0
LINE
  5
53E
100
AcDbEntity
  8
BORDER
  6
CONTINUOUS
 62
     2
100
AcDbLine
 39
96.0
 10
49.315729
 20
17.5173
 30
0.0
 11
49.315729
 21
17.5173
 31
0.0
  0
LINE
  5
53F
100
AcDbEntity
  8
BORDER
  6
CONTINUOUS
 62
     2
100
AcDbLine
 39
96.0
 10
47.675129
 20
17.0486
 30
0.0
 11
47.675129
 21
17.0486
 31
0.0
  0
LINE
  5
540
100
AcDbEntity
  8
BORDER
  6
CONTINUOUS
 62
     2
100
AcDbLine
 39
96.0
 10
48.143829
 20
17.0486
 30
0.0
 11
48.143829
 21
17.0486
 31
0.0
  0
LINE
  5
541
100
AcDbEntity
  8
BORDER
  6
CONTINUOUS
 62
     2
100
AcDbLine
 39
96.0
 10
48.612629
 20
17.0486
 30
0.0
 11
48.612629
 21
17.0486
 31
0.0
  0
LINE
  5
542
100
AcDbEntity
  8
BORDER
  6
CONTINUOUS
 62
     2
100
AcDbLine
 39
96.0
 10
49.081329
 20
17.0486
 30
0.0
 11
49.081329
 21
17.0486
 31
0.0
  0
LINE
  5
543
100
AcDbEntity
  8
BORDER
  6
CONTINUOUS
 62
     2
100
AcDbLine
 39
96.0
 10
47.909429
 20
16.5798
 30
0.0
 11
47.909429
 21
16.5798
 31
0.0
  0
LINE
  5
544
100
AcDbEntity
  8
BORDER
  6
CONTINUOUS
 62
     2
100
AcDbLine
 39
96.0
 10
48.378229
 20
16.5798
 30
0.0
 11
48.378229
 21
16.5798
 31
0.0
  0
LINE
  5
545
100
AcDbEntity
  8
BORDER
  6
CONTINUOUS
 62
     2
100
AcDbLine
 39
96.0
 10
48.846929
 20
16.5798
 30
0.0
 11
48.846929
 21
16.5798
 31
0.0
  0
LINE
  5
546
100
AcDbEntity
  8
BORDER
  6
CONTINUOUS
 62
     2
100
AcDbLine
 39
96.0
 10
49.315729
 20
16.5798
 30
0.0
 11
49.315729
 21
16.5798
 31
0.0
  0
LINE
  5
547
100
AcDbEntity
  8
BORDER
  6
CONTINUOUS
 62
     2
100
AcDbLine
 39
96.0
 10
47.675129
 20
16.1111
 30
0.0
 11
47.675129
 21
16.1111
 31
0.0
  0
LINE
  5
548
100
AcDbEntity
  8
BORDER
  6
CONTINUOUS
 62
     2
100
AcDbLine
 39
96.0
 10
48.143829
 20
16.1111
 30
0.0
 11
48.143829
 21
16.1111
 31
0.0
  0
LINE
  5
549
100
AcDbEntity
  8
BORDER
  6
CONTINUOUS
 62
     2
100
AcDbLine
 39
96.0
 10
48.612629
 20
16.1111
 30
0.0
 11
48.612629
 21
16.1111
 31
0.0
  0
LINE
  5
54A
100
AcDbEntity
  8
BORDER
  6
CONTINUOUS
 62
     2
100
AcDbLine
 39
96.0
 10
49.081329
 20
16.1111
 30
0.0
 11
49.081329
 21
16.1111
 31
0.0
  0
LINE
  5
54B
100
AcDbEntity
  8
BORDER
  6
CONTINUOUS
 62
     2
100
AcDbLine
 39
96.0
 10
47.909429
 20
15.6423
 30
0.0
 11
47.909429
 21
15.6423
 31
0.0
  0
LINE
  5
54C
100
AcDbEntity
  8
BORDER
  6
CONTINUOUS
 62
     2
100
AcDbLine
 39
96.0
 10
48.378229
 20
15.6423
 30
0.0
 11
48.378229
 21
15.6423
 31
0.0
  0
LINE
  5
54D
100
AcDbEntity
  8
BORDER
  6
CONTINUOUS
 62
     2
100
AcDbLine
 39
96.0
 10
48.846929
 20
15.6423
 30
0.0
 11
48.846929
 21
15.6423
 31
0.0
  0
LINE
  5
54E
100
AcDbEntity
  8
BORDER
  6
CONTINUOUS
 62
     2
100
AcDbLine
 39
96.0
 10
49.315729
 20
15.6423
 30
0.0
 11
49.315729
 21
15.6423
 31
0.0
  0
LINE
  5
54F
100
AcDbEntity
  8
BORDER
  6
CONTINUOUS
 62
     2
100
AcDbLine
 39
96.0
 10
47.675129
 20
15.1736
 30
0.0
 11
47.675129
 21
15.1736
 31
0.0
  0
LINE
  5
550
100
AcDbEntity
  8
BORDER
  6
CONTINUOUS
 62
     2
100
AcDbLine
 39
96.0
 10
48.143829
 20
15.1736
 30
0.0
 11
48.143829
 21
15.1736
 31
0.0
  0
LINE
  5
551
100
AcDbEntity
  8
BORDER
  6
CONTINUOUS
 62
     2
100
AcDbLine
 39
96.0
 10
48.612629
 20
15.1736
 30
0.0
 11
48.612629
 21
15.1736
 31
0.0
  0
LINE
  5
552
100
AcDbEntity
  8
BORDER
  6
CONTINUOUS
 62
     2
100
AcDbLine
 39
96.0
 10
49.081329
 20
15.1736
 30
0.0
 11
49.081329
 21
15.1736
 31
0.0
  0
LINE
  5
553
100
AcDbEntity
  8
BORDER
  6
CONTINUOUS
 62
     2
100
AcDbLine
 39
96.0
 10
47.909429
 20
14.7048
 30
0.0
 11
47.909429
 21
14.7048
 31
0.0
  0
LINE
  5
554
100
AcDbEntity
  8
BORDER
  6
CONTINUOUS
 62
     2
100
AcDbLine
 39
96.0
 10
48.378229
 20
14.7048
 30
0.0
 11
48.378229
 21
14.7048
 31
0.0
  0
LINE
  5
555
100
AcDbEntity
  8
BORDER
  6
CONTINUOUS
 62
     2
100
AcDbLine
 39
96.0
 10
48.846929
 20
14.7048
 30
0.0
 11
48.846929
 21
14.7048
 31
0.0
  0
LINE
  5
556
100
AcDbEntity
  8
BORDER
  6
CONTINUOUS
 62
     2
100
AcDbLine
 39
96.0
 10
49.315729
 20
14.7048
 30
0.0
 11
49.315729
 21
14.7048
 31
0.0
  0
LINE
  5
557
100
AcDbEntity
  8
BORDER
  6
CONTINUOUS
 62
     2
100
AcDbLine
 39
96.0
 10
47.675129
 20
14.2361
 30
0.0
 11
47.675129
 21
14.2361
 31
0.0
  0
LINE
  5
558
100
AcDbEntity
  8
BORDER
  6
CONTINUOUS
 62
     2
100
AcDbLine
 39
96.0
 10
48.143829
 20
14.2361
 30
0.0
 11
48.143829
 21
14.2361
 31
0.0
  0
LINE
  5
559
100
AcDbEntity
  8
BORDER
  6
CONTINUOUS
 62
     2
100
AcDbLine
 39
96.0
 10
48.612629
 20
14.2361
 30
0.0
 11
48.612629
 21
14.2361
 31
0.0
  0
LINE
  5
55A
100
AcDbEntity
  8
BORDER
  6
CONTINUOUS
 62
     2
100
AcDbLine
 39
96.0
 10
49.081329
 20
14.2361
 30
0.0
 11
49.081329
 21
14.2361
 31
0.0
  0
LINE
  5
55B
100
AcDbEntity
  8
BORDER
  6
CONTINUOUS
 62
     2
100
AcDbLine
 39
96.0
 10
47.909429
 20
13.7673
 30
0.0
 11
47.909429
 21
13.7673
 31
0.0
  0
LINE
  5
55C
100
AcDbEntity
  8
BORDER
  6
CONTINUOUS
 62
     2
100
AcDbLine
 39
96.0
 10
48.378229
 20
13.7673
 30
0.0
 11
48.378229
 21
13.7673
 31
0.0
  0
LINE
  5
55D
100
AcDbEntity
  8
BORDER
  6
CONTINUOUS
 62
     2
100
AcDbLine
 39
96.0
 10
48.846929
 20
13.7673
 30
0.0
 11
48.846929
 21
13.7673
 31
0.0
  0
LINE
  5
55E
100
AcDbEntity
  8
BORDER
  6
CONTINUOUS
 62
     2
100
AcDbLine
 39
96.0
 10
49.315729
 20
13.7673
 30
0.0
 11
49.315729
 21
13.7673
 31
0.0
  0
LINE
  5
55F
100
AcDbEntity
  8
BORDER
  6
CONTINUOUS
 62
     2
100
AcDbLine
 39
96.0
 10
47.675129
 20
13.2986
 30
0.0
 11
47.675129
 21
13.2986
 31
0.0
  0
LINE
  5
560
100
AcDbEntity
  8
BORDER
  6
CONTINUOUS
 62
     2
100
AcDbLine
 39
96.0
 10
48.143829
 20
13.2986
 30
0.0
 11
48.143829
 21
13.2986
 31
0.0
  0
LINE
  5
561
100
AcDbEntity
  8
BORDER
  6
CONTINUOUS
 62
     2
100
AcDbLine
 39
96.0
 10
48.612629
 20
13.2986
 30
0.0
 11
48.612629
 21
13.2986
 31
0.0
  0
LINE
  5
562
100
AcDbEntity
  8
BORDER
  6
CONTINUOUS
 62
     2
100
AcDbLine
 39
96.0
 10
49.081329
 20
13.2986
 30
0.0
 11
49.081329
 21
13.2986
 31
0.0
  0
LINE
  5
563
100
AcDbEntity
  8
BORDER
  6
CONTINUOUS
 62
     2
100
AcDbLine
 39
96.0
 10
47.909429
 20
12.8298
 30
0.0
 11
47.909429
 21
12.8298
 31
0.0
  0
LINE
  5
564
100
AcDbEntity
  8
BORDER
  6
CONTINUOUS
 62
     2
100
AcDbLine
 39
96.0
 10
48.378229
 20
12.8298
 30
0.0
 11
48.378229
 21
12.8298
 31
0.0
  0
LINE
  5
565
100
AcDbEntity
  8
BORDER
  6
CONTINUOUS
 62
     2
100
AcDbLine
 39
96.0
 10
48.846929
 20
12.8298
 30
0.0
 11
48.846929
 21
12.8298
 31
0.0
  0
LINE
  5
566
100
AcDbEntity
  8
BORDER
  6
CONTINUOUS
 62
     2
100
AcDbLine
 39
96.0
 10
49.315729
 20
12.8298
 30
0.0
 11
49.315729
 21
12.8298
 31
0.0
  0
LINE
  5
567
100
AcDbEntity
  8
BORDER
  6
CONTINUOUS
 62
     2
100
AcDbLine
 39
96.0
 10
47.675129
 20
12.3611
 30
0.0
 11
47.675129
 21
12.3611
 31
0.0
  0
LINE
  5
568
100
AcDbEntity
  8
BORDER
  6
CONTINUOUS
 62
     2
100
AcDbLine
 39
96.0
 10
48.143829
 20
12.3611
 30
0.0
 11
48.143829
 21
12.3611
 31
0.0
  0
LINE
  5
569
100
AcDbEntity
  8
BORDER
  6
CONTINUOUS
 62
     2
100
AcDbLine
 39
96.0
 10
48.612629
 20
12.3611
 30
0.0
 11
48.612629
 21
12.3611
 31
0.0
  0
LINE
  5
56A
100
AcDbEntity
  8
BORDER
  6
CONTINUOUS
 62
     2
100
AcDbLine
 39
96.0
 10
49.081329
 20
12.3611
 30
0.0
 11
49.081329
 21
12.3611
 31
0.0
  0
LINE
  5
56B
100
AcDbEntity
  8
BORDER
  6
CONTINUOUS
 62
     2
100
AcDbLine
 39
96.0
 10
47.909429
 20
11.8923
 30
0.0
 11
47.909429
 21
11.8923
 31
0.0
  0
LINE
  5
56C
100
AcDbEntity
  8
BORDER
  6
CONTINUOUS
 62
     2
100
AcDbLine
 39
96.0
 10
48.378229
 20
11.8923
 30
0.0
 11
48.378229
 21
11.8923
 31
0.0
  0
LINE
  5
56D
100
AcDbEntity
  8
BORDER
  6
CONTINUOUS
 62
     2
100
AcDbLine
 39
96.0
 10
48.846929
 20
11.8923
 30
0.0
 11
48.846929
 21
11.8923
 31
0.0
  0
LINE
  5
56E
100
AcDbEntity
  8
BORDER
  6
CONTINUOUS
 62
     2
100
AcDbLine
 39
96.0
 10
49.315729
 20
11.8923
 30
0.0
 11
49.315729
 21
11.8923
 31
0.0
  0
LINE
  5
56F
100
AcDbEntity
  8
BORDER
  6
CONTINUOUS
 62
     2
100
AcDbLine
 39
96.0
 10
47.675129
 20
11.4236
 30
0.0
 11
47.675129
 21
11.4236
 31
0.0
  0
LINE
  5
570
100
AcDbEntity
  8
BORDER
  6
CONTINUOUS
 62
     2
100
AcDbLine
 39
96.0
 10
48.143829
 20
11.4236
 30
0.0
 11
48.143829
 21
11.4236
 31
0.0
  0
LINE
  5
571
100
AcDbEntity
  8
BORDER
  6
CONTINUOUS
 62
     2
100
AcDbLine
 39
96.0
 10
48.612629
 20
11.4236
 30
0.0
 11
48.612629
 21
11.4236
 31
0.0
  0
LINE
  5
572
100
AcDbEntity
  8
BORDER
  6
CONTINUOUS
 62
     2
100
AcDbLine
 39
96.0
 10
49.081329
 20
11.4236
 30
0.0
 11
49.081329
 21
11.4236
 31
0.0
  0
LINE
  5
573
100
AcDbEntity
  8
BORDER
  6
CONTINUOUS
 62
     2
100
AcDbLine
 39
96.0
 10
47.909429
 20
10.9548
 30
0.0
 11
47.909429
 21
10.9548
 31
0.0
  0
LINE
  5
574
100
AcDbEntity
  8
BORDER
  6
CONTINUOUS
 62
     2
100
AcDbLine
 39
96.0
 10
48.378229
 20
10.9548
 30
0.0
 11
48.378229
 21
10.9548
 31
0.0
  0
LINE
  5
575
100
AcDbEntity
  8
BORDER
  6
CONTINUOUS
 62
     2
100
AcDbLine
 39
96.0
 10
48.846929
 20
10.9548
 30
0.0
 11
48.846929
 21
10.9548
 31
0.0
  0
LINE
  5
576
100
AcDbEntity
  8
BORDER
  6
CONTINUOUS
 62
     2
100
AcDbLine
 39
96.0
 10
49.315729
 20
10.9548
 30
0.0
 11
49.315729
 21
10.9548
 31
0.0
  0
LINE
  5
577
100
AcDbEntity
  8
BORDER
  6
CONTINUOUS
 62
     2
100
AcDbLine
 39
96.0
 10
47.675129
 20
10.4861
 30
0.0
 11
47.675129
 21
10.4861
 31
0.0
  0
LINE
  5
578
100
AcDbEntity
  8
BORDER
  6
CONTINUOUS
 62
     2
100
AcDbLine
 39
96.0
 10
48.143829
 20
10.4861
 30
0.0
 11
48.143829
 21
10.4861
 31
0.0
  0
LINE
  5
579
100
AcDbEntity
  8
BORDER
  6
CONTINUOUS
 62
     2
100
AcDbLine
 39
96.0
 10
48.612629
 20
10.4861
 30
0.0
 11
48.612629
 21
10.4861
 31
0.0
  0
LINE
  5
57A
100
AcDbEntity
  8
BORDER
  6
CONTINUOUS
 62
     2
100
AcDbLine
 39
96.0
 10
49.081329
 20
10.4861
 30
0.0
 11
49.081329
 21
10.4861
 31
0.0
  0
LINE
  5
57B
100
AcDbEntity
  8
BORDER
  6
CONTINUOUS
 62
     2
100
AcDbLine
 39
96.0
 10
47.909429
 20
10.0173
 30
0.0
 11
47.909429
 21
10.0173
 31
0.0
  0
LINE
  5
57C
100
AcDbEntity
  8
BORDER
  6
CONTINUOUS
 62
     2
100
AcDbLine
 39
96.0
 10
48.378229
 20
10.0173
 30
0.0
 11
48.378229
 21
10.0173
 31
0.0
  0
LINE
  5
57D
100
AcDbEntity
  8
BORDER
  6
CONTINUOUS
 62
     2
100
AcDbLine
 39
96.0
 10
48.846929
 20
10.0173
 30
0.0
 11
48.846929
 21
10.0173
 31
0.0
  0
LINE
  5
57E
100
AcDbEntity
  8
BORDER
  6
CONTINUOUS
 62
     2
100
AcDbLine
 39
96.0
 10
49.315729
 20
10.0173
 30
0.0
 11
49.315729
 21
10.0173
 31
0.0
  0
LINE
  5
57F
100
AcDbEntity
  8
BORDER
  6
CONTINUOUS
 62
     3
100
AcDbLine
 39
96.0
 10
39.493929
 20
24.6844
 30
0.0
 11
41.368929
 21
24.6844
 31
0.0
  0
LINE
  5
580
100
AcDbEntity
  8
BORDER
  6
CONTINUOUS
 62
     3
100
AcDbLine
 39
96.0
 10
47.618929
 20
24.6844
 30
0.0
 11
49.493929
 21
24.6844
 31
0.0
  0
LINE
  5
581
100
AcDbEntity
  8
BORDER
  6
CONTINUOUS
 62
    10
100
AcDbLine
 39
96.0
 10
42.346729
 20
11.6165
 30
0.0
 11
42.273229
 21
11.5898
 31
0.0
  0
LINE
  5
582
100
AcDbEntity
  8
BORDER
  6
CONTINUOUS
 62
    10
100
AcDbLine
 39
96.0
 10
44.486829
 20
12.132
 30
0.0
 11
44.441929
 21
12.068
 31
0.0
  0
LINE
  5
583
100
AcDbEntity
  8
BORDER
  6
CONTINUOUS
 62
    10
100
AcDbLine
 39
96.0
 10
42.694429
 20
9.5721
 30
0.0
 11
42.649429
 21
9.5082
 31
0.0
  0
LINE
  5
584
100
AcDbEntity
  8
BORDER
  6
CONTINUOUS
 62
    10
100
AcDbLine
 39
96.0
 10
45.045929
 20
12.6332
 30
0.0
 11
45.034929
 21
12.5716
 31
0.0
  0
LINE
  5
585
100
AcDbEntity
  8
BORDER
  6
CONTINUOUS
 62
    10
100
AcDbLine
 39
96.0
 10
45.013229
 20
22.5638
 30
0.0
 11
44.939729
 21
22.5371
 31
0.0
  0
LINE
  5
586
100
AcDbEntity
  8
BORDER
  6
CONTINUOUS
 62
    10
100
AcDbLine
 39
96.0
 10
44.744429
 20
23.3965
 30
0.0
 11
44.699529
 21
23.3325
 31
0.0
  0
LINE
  5
587
100
AcDbEntity
  8
BORDER
  6
CONTINUOUS
 62
    10
100
AcDbLine
 39
96.0
 10
43.599129
 20
22.4237
 30
0.0
 11
43.585529
 21
22.3468
 31
0.0
  0
LINE
  5
588
100
AcDbEntity
  8
BORDER
  6
CONTINUOUS
 62
     1
100
AcDbLine
 39
96.0
 10
45.106729
 20
10.0013
 30
0.0
 11
45.165529
 21
10.0226
 31
0.0
  0
LINE
  5
589
100
AcDbEntity
  8
BORDER
  6
CONTINUOUS
 62
     1
100
AcDbLine
 39
96.0
 10
45.532729
 20
10.2201
 30
0.0
 11
45.543529
 21
10.2816
 31
0.0
  0
LINE
  5
58A
100
AcDbEntity
  8
BORDER
  6
CONTINUOUS
 62
     1
100
AcDbLine
 39
96.0
 10
44.820829
 20
10.6359
 30
0.0
 11
44.856729
 21
10.6871
 31
0.0
  0
LINE
  5
58B
100
AcDbEntity
  8
BORDER
  6
CONTINUOUS
 62
     3
100
AcDbLine
 39
96.0
 10
49.493929
 20
1.6537
 30
0.0
 11
49.493929
 21
9.6844
 31
0.0
  0
LINE
  5
58C
100
AcDbEntity
  8
BORDER
  6
CONTINUOUS
 62
     3
100
AcDbLine
 39
96.0
 10
49.493929
 20
9.6844
 30
0.0
 11
47.618929
 21
9.6844
 31
0.0
  0
LINE
  5
58D
100
AcDbEntity
  8
BORDER
  6
CONTINUOUS
 62
     3
100
AcDbLine
 39
96.0
 10
39.493929
 20
9.6844
 30
0.0
 11
39.493929
 21
1.6537
 31
0.0
  0
LINE
  5
58E
100
AcDbEntity
  8
BORDER
  6
CONTINUOUS
 62
     3
100
AcDbLine
 39
96.0
 10
41.368929
 20
9.6844
 30
0.0
 11
41.368929
 21
1.6537
 31
0.0
  0
LINE
  5
58F
100
AcDbEntity
  8
BORDER
  6
CONTINUOUS
 62
     3
100
AcDbLine
 39
96.0
 10
47.618929
 20
1.6537
 30
0.0
 11
47.618929
 21
9.6844
 31
0.0
  0
ARC
  5
590
100
AcDbEntity
  8
BORDER
  6
CONTINUOUS
 62
     3
100
AcDbCircle
 39
96.0
 10
44.493929
 20
9.6844
 30
0.0
 40
3.0
100
AcDbArc
 50
180.0
 51
0.0
  0
LINE
  5
591
100
AcDbEntity
  8
BORDER
  6
CONTINUOUS
 62
     3
100
AcDbLine
 39
96.0
 10
41.368929
 20
9.6844
 30
0.0
 11
39.493929
 21
9.6844
 31
0.0
  0
LINE
  5
592
100
AcDbEntity
  8
BORDER
  6
CONTINUOUS
 62
     1
100
AcDbLine
 39
96.0
 10
43.396729
 20
6.3738
 30
0.0
 11
43.455629
 21
6.3952
 31
0.0
  0
LINE
  5
593
100
AcDbEntity
  8
BORDER
  6
CONTINUOUS
 62
     1
100
AcDbLine
 39
96.0
 10
41.902429
 20
3.1695
 30
0.0
 11
41.961229
 21
3.1909
 31
0.0
  0
LINE
  5
594
100
AcDbEntity
  8
BORDER
  6
CONTINUOUS
 62
     1
100
AcDbLine
 39
96.0
 10
44.251729
 20
4.0246
 30
0.0
 11
44.310629
 21
4.0459
 31
0.0
  0
LINE
  5
595
100
AcDbEntity
  8
BORDER
  6
CONTINUOUS
 62
     1
100
AcDbLine
 39
96.0
 10
46.601129
 20
4.8796
 30
0.0
 11
46.659929
 21
4.901
 31
0.0
  0
LINE
  5
596
100
AcDbEntity
  8
BORDER
  6
CONTINUOUS
 62
     1
100
AcDbLine
 39
96.0
 10
45.106729
 20
1.6753
 30
0.0
 11
45.165529
 21
1.6967
 31
0.0
  0
LINE
  5
597
100
AcDbEntity
  8
BORDER
  6
CONTINUOUS
 62
     1
100
AcDbLine
 39
96.0
 10
47.456129
 20
2.5304
 30
0.0
 11
47.514929
 21
2.5517
 31
0.0
  0
LINE
  5
598
100
AcDbEntity
  8
BORDER
  6
CONTINUOUS
 62
     1
100
AcDbLine
 39
96.0
 10
42.159029
 20
7.2257
 30
0.0
 11
42.194829
 21
7.2769
 31
0.0
  0
LINE
  5
599
100
AcDbEntity
  8
BORDER
  6
CONTINUOUS
 62
     1
100
AcDbLine
 39
96.0
 10
42.773029
 20
3.7438
 30
0.0
 11
42.808929
 21
3.7951
 31
0.0
  0
LINE
  5
59A
100
AcDbEntity
  8
BORDER
  6
CONTINUOUS
 62
     1
100
AcDbLine
 39
96.0
 10
44.207129
 20
5.7917
 30
0.0
 11
44.242929
 21
5.8429
 31
0.0
  0
LINE
  5
59B
100
AcDbEntity
  8
BORDER
  6
CONTINUOUS
 62
     1
100
AcDbLine
 39
96.0
 10
44.820829
 20
2.31
 30
0.0
 11
44.856729
 21
2.3612
 31
0.0
  0
LINE
  5
59C
100
AcDbEntity
  8
BORDER
  6
CONTINUOUS
 62
     1
100
AcDbLine
 39
96.0
 10
46.254929
 20
4.3578
 30
0.0
 11
46.290829
 21
4.4091
 31
0.0
  0
LINE
  5
59D
100
AcDbEntity
  8
BORDER
  6
CONTINUOUS
 62
     1
100
AcDbLine
 39
96.0
 10
41.477329
 20
7.6863
 30
0.0
 11
41.488129
 21
7.7479
 31
0.0
  0
LINE
  5
59E
100
AcDbEntity
  8
BORDER
  6
CONTINUOUS
 62
     1
100
AcDbLine
 39
96.0
 10
43.071129
 20
2.3282
 30
0.0
 11
43.081829
 21
2.3898
 31
0.0
  0
LINE
  5
59F
100
AcDbEntity
  8
BORDER
  6
CONTINUOUS
 62
     1
100
AcDbLine
 39
96.0
 10
43.505129
 20
4.7903
 30
0.0
 11
43.515929
 21
4.8518
 31
0.0
  0
LINE
  5
5A0
100
AcDbEntity
  8
BORDER
  6
CONTINUOUS
 62
     1
100
AcDbLine
 39
96.0
 10
45.532729
 20
1.8941
 30
0.0
 11
45.543529
 21
1.9557
 31
0.0
  0
LINE
  5
5A1
100
AcDbEntity
  8
BORDER
  6
CONTINUOUS
 62
     1
100
AcDbLine
 39
96.0
 10
45.966829
 20
4.3562
 30
0.0
 11
45.977629
 21
4.4178
 31
0.0
  0
LINE
  5
5A2
100
AcDbEntity
  8
BORDER
  6
CONTINUOUS
 62
     1
100
AcDbLine
 39
96.0
 10
46.400929
 20
6.8182
 30
0.0
 11
46.411629
 21
6.8798
 31
0.0
  0
LINE
  5
5A3
100
AcDbEntity
  8
BORDER
  6
CONTINUOUS
 62
     2
100
AcDbLine
 39
96.0
 10
39.706329
 20
9.5486
 30
0.0
 11
39.706329
 21
9.5486
 31
0.0
  0
LINE
  5
5A4
100
AcDbEntity
  8
BORDER
  6
CONTINUOUS
 62
     2
100
AcDbLine
 39
96.0
 10
40.175129
 20
9.5486
 30
0.0
 11
40.175129
 21
9.5486
 31
0.0
  0
LINE
  5
5A5
100
AcDbEntity
  8
BORDER
  6
CONTINUOUS
 62
     2
100
AcDbLine
 39
96.0
 10
40.643829
 20
9.5486
 30
0.0
 11
40.643829
 21
9.5486
 31
0.0
  0
LINE
  5
5A6
100
AcDbEntity
  8
BORDER
  6
CONTINUOUS
 62
     2
100
AcDbLine
 39
96.0
 10
41.112629
 20
9.5486
 30
0.0
 11
41.112629
 21
9.5486
 31
0.0
  0
LINE
  5
5A7
100
AcDbEntity
  8
BORDER
  6
CONTINUOUS
 62
     2
100
AcDbLine
 39
96.0
 10
39.940729
 20
9.0799
 30
0.0
 11
39.940729
 21
9.0799
 31
0.0
  0
LINE
  5
5A8
100
AcDbEntity
  8
BORDER
  6
CONTINUOUS
 62
     2
100
AcDbLine
 39
96.0
 10
40.409429
 20
9.0799
 30
0.0
 11
40.409429
 21
9.0799
 31
0.0
  0
LINE
  5
5A9
100
AcDbEntity
  8
BORDER
  6
CONTINUOUS
 62
     2
100
AcDbLine
 39
96.0
 10
40.878229
 20
9.0799
 30
0.0
 11
40.878229
 21
9.0799
 31
0.0
  0
LINE
  5
5AA
100
AcDbEntity
  8
BORDER
  6
CONTINUOUS
 62
     2
100
AcDbLine
 39
96.0
 10
41.346929
 20
9.0799
 30
0.0
 11
41.346929
 21
9.0799
 31
0.0
  0
LINE
  5
5AB
100
AcDbEntity
  8
BORDER
  6
CONTINUOUS
 62
     2
100
AcDbLine
 39
96.0
 10
39.706329
 20
8.6111
 30
0.0
 11
39.706329
 21
8.6111
 31
0.0
  0
LINE
  5
5AC
100
AcDbEntity
  8
BORDER
  6
CONTINUOUS
 62
     2
100
AcDbLine
 39
96.0
 10
40.175129
 20
8.6111
 30
0.0
 11
40.175129
 21
8.6111
 31
0.0
  0
LINE
  5
5AD
100
AcDbEntity
  8
BORDER
  6
CONTINUOUS
 62
     2
100
AcDbLine
 39
96.0
 10
40.643829
 20
8.6111
 30
0.0
 11
40.643829
 21
8.6111
 31
0.0
  0
LINE
  5
5AE
100
AcDbEntity
  8
BORDER
  6
CONTINUOUS
 62
     2
100
AcDbLine
 39
96.0
 10
41.112629
 20
8.6111
 30
0.0
 11
41.112629
 21
8.6111
 31
0.0
  0
LINE
  5
5AF
100
AcDbEntity
  8
BORDER
  6
CONTINUOUS
 62
     2
100
AcDbLine
 39
96.0
 10
39.940729
 20
8.1424
 30
0.0
 11
39.940729
 21
8.1424
 31
0.0
  0
LINE
  5
5B0
100
AcDbEntity
  8
BORDER
  6
CONTINUOUS
 62
     2
100
AcDbLine
 39
96.0
 10
40.409429
 20
8.1424
 30
0.0
 11
40.409429
 21
8.1424
 31
0.0
  0
LINE
  5
5B1
100
AcDbEntity
  8
BORDER
  6
CONTINUOUS
 62
     2
100
AcDbLine
 39
96.0
 10
40.878229
 20
8.1424
 30
0.0
 11
40.878229
 21
8.1424
 31
0.0
  0
LINE
  5
5B2
100
AcDbEntity
  8
BORDER
  6
CONTINUOUS
 62
     2
100
AcDbLine
 39
96.0
 10
41.346929
 20
8.1424
 30
0.0
 11
41.346929
 21
8.1424
 31
0.0
  0
LINE
  5
5B3
100
AcDbEntity
  8
BORDER
  6
CONTINUOUS
 62
     2
100
AcDbLine
 39
96.0
 10
39.706329
 20
7.6736
 30
0.0
 11
39.706329
 21
7.6736
 31
0.0
  0
LINE
  5
5B4
100
AcDbEntity
  8
BORDER
  6
CONTINUOUS
 62
     2
100
AcDbLine
 39
96.0
 10
40.175129
 20
7.6736
 30
0.0
 11
40.175129
 21
7.6736
 31
0.0
  0
LINE
  5
5B5
100
AcDbEntity
  8
BORDER
  6
CONTINUOUS
 62
     2
100
AcDbLine
 39
96.0
 10
40.643829
 20
7.6736
 30
0.0
 11
40.643829
 21
7.6736
 31
0.0
  0
LINE
  5
5B6
100
AcDbEntity
  8
BORDER
  6
CONTINUOUS
 62
     2
100
AcDbLine
 39
96.0
 10
41.112629
 20
7.6736
 30
0.0
 11
41.112629
 21
7.6736
 31
0.0
  0
LINE
  5
5B7
100
AcDbEntity
  8
BORDER
  6
CONTINUOUS
 62
     2
100
AcDbLine
 39
96.0
 10
39.940729
 20
7.2049
 30
0.0
 11
39.940729
 21
7.2049
 31
0.0
  0
LINE
  5
5B8
100
AcDbEntity
  8
BORDER
  6
CONTINUOUS
 62
     2
100
AcDbLine
 39
96.0
 10
40.409429
 20
7.2049
 30
0.0
 11
40.409429
 21
7.2049
 31
0.0
  0
LINE
  5
5B9
100
AcDbEntity
  8
BORDER
  6
CONTINUOUS
 62
     2
100
AcDbLine
 39
96.0
 10
40.878229
 20
7.2049
 30
0.0
 11
40.878229
 21
7.2049
 31
0.0
  0
LINE
  5
5BA
100
AcDbEntity
  8
BORDER
  6
CONTINUOUS
 62
     2
100
AcDbLine
 39
96.0
 10
41.346929
 20
7.2049
 30
0.0
 11
41.346929
 21
7.2049
 31
0.0
  0
LINE
  5
5BB
100
AcDbEntity
  8
BORDER
  6
CONTINUOUS
 62
     2
100
AcDbLine
 39
96.0
 10
39.706329
 20
6.7361
 30
0.0
 11
39.706329
 21
6.7361
 31
0.0
  0
LINE
  5
5BC
100
AcDbEntity
  8
BORDER
  6
CONTINUOUS
 62
     2
100
AcDbLine
 39
96.0
 10
40.175129
 20
6.7361
 30
0.0
 11
40.175129
 21
6.7361
 31
0.0
  0
LINE
  5
5BD
100
AcDbEntity
  8
BORDER
  6
CONTINUOUS
 62
     2
100
AcDbLine
 39
96.0
 10
40.643829
 20
6.7361
 30
0.0
 11
40.643829
 21
6.7361
 31
0.0
  0
LINE
  5
5BE
100
AcDbEntity
  8
BORDER
  6
CONTINUOUS
 62
     2
100
AcDbLine
 39
96.0
 10
41.112629
 20
6.7361
 30
0.0
 11
41.112629
 21
6.7361
 31
0.0
  0
LINE
  5
5BF
100
AcDbEntity
  8
BORDER
  6
CONTINUOUS
 62
     2
100
AcDbLine
 39
96.0
 10
39.940729
 20
6.2674
 30
0.0
 11
39.940729
 21
6.2674
 31
0.0
  0
LINE
  5
5C0
100
AcDbEntity
  8
BORDER
  6
CONTINUOUS
 62
     2
100
AcDbLine
 39
96.0
 10
40.409429
 20
6.2674
 30
0.0
 11
40.409429
 21
6.2674
 31
0.0
  0
LINE
  5
5C1
100
AcDbEntity
  8
BORDER
  6
CONTINUOUS
 62
     2
100
AcDbLine
 39
96.0
 10
40.878229
 20
6.2674
 30
0.0
 11
40.878229
 21
6.2674
 31
0.0
  0
LINE
  5
5C2
100
AcDbEntity
  8
BORDER
  6
CONTINUOUS
 62
     2
100
AcDbLine
 39
96.0
 10
41.346929
 20
6.2674
 30
0.0
 11
41.346929
 21
6.2674
 31
0.0
  0
LINE
  5
5C3
100
AcDbEntity
  8
BORDER
  6
CONTINUOUS
 62
     2
100
AcDbLine
 39
96.0
 10
39.706329
 20
5.7986
 30
0.0
 11
39.706329
 21
5.7986
 31
0.0
  0
LINE
  5
5C4
100
AcDbEntity
  8
BORDER
  6
CONTINUOUS
 62
     2
100
AcDbLine
 39
96.0
 10
40.175129
 20
5.7986
 30
0.0
 11
40.175129
 21
5.7986
 31
0.0
  0
LINE
  5
5C5
100
AcDbEntity
  8
BORDER
  6
CONTINUOUS
 62
     2
100
AcDbLine
 39
96.0
 10
40.643829
 20
5.7986
 30
0.0
 11
40.643829
 21
5.7986
 31
0.0
  0
LINE
  5
5C6
100
AcDbEntity
  8
BORDER
  6
CONTINUOUS
 62
     2
100
AcDbLine
 39
96.0
 10
41.112629
 20
5.7986
 30
0.0
 11
41.112629
 21
5.7986
 31
0.0
  0
LINE
  5
5C7
100
AcDbEntity
  8
BORDER
  6
CONTINUOUS
 62
     2
100
AcDbLine
 39
96.0
 10
39.940729
 20
5.3299
 30
0.0
 11
39.940729
 21
5.3299
 31
0.0
  0
LINE
  5
5C8
100
AcDbEntity
  8
BORDER
  6
CONTINUOUS
 62
     2
100
AcDbLine
 39
96.0
 10
40.409429
 20
5.3299
 30
0.0
 11
40.409429
 21
5.3299
 31
0.0
  0
LINE
  5
5C9
100
AcDbEntity
  8
BORDER
  6
CONTINUOUS
 62
     2
100
AcDbLine
 39
96.0
 10
40.878229
 20
5.3299
 30
0.0
 11
40.878229
 21
5.3299
 31
0.0
  0
LINE
  5
5CA
100
AcDbEntity
  8
BORDER
  6
CONTINUOUS
 62
     2
100
AcDbLine
 39
96.0
 10
41.346929
 20
5.3299
 30
0.0
 11
41.346929
 21
5.3299
 31
0.0
  0
LINE
  5
5CB
100
AcDbEntity
  8
BORDER
  6
CONTINUOUS
 62
     2
100
AcDbLine
 39
96.0
 10
39.706329
 20
4.8611
 30
0.0
 11
39.706329
 21
4.8611
 31
0.0
  0
LINE
  5
5CC
100
AcDbEntity
  8
BORDER
  6
CONTINUOUS
 62
     2
100
AcDbLine
 39
96.0
 10
40.175129
 20
4.8611
 30
0.0
 11
40.175129
 21
4.8611
 31
0.0
  0
LINE
  5
5CD
100
AcDbEntity
  8
BORDER
  6
CONTINUOUS
 62
     2
100
AcDbLine
 39
96.0
 10
40.643829
 20
4.8611
 30
0.0
 11
40.643829
 21
4.8611
 31
0.0
  0
LINE
  5
5CE
100
AcDbEntity
  8
BORDER
  6
CONTINUOUS
 62
     2
100
AcDbLine
 39
96.0
 10
41.112629
 20
4.8611
 30
0.0
 11
41.112629
 21
4.8611
 31
0.0
  0
LINE
  5
5CF
100
AcDbEntity
  8
BORDER
  6
CONTINUOUS
 62
     2
100
AcDbLine
 39
96.0
 10
39.940729
 20
4.3924
 30
0.0
 11
39.940729
 21
4.3924
 31
0.0
  0
LINE
  5
5D0
100
AcDbEntity
  8
BORDER
  6
CONTINUOUS
 62
     2
100
AcDbLine
 39
96.0
 10
40.409429
 20
4.3924
 30
0.0
 11
40.409429
 21
4.3924
 31
0.0
  0
LINE
  5
5D1
100
AcDbEntity
  8
BORDER
  6
CONTINUOUS
 62
     2
100
AcDbLine
 39
96.0
 10
40.878229
 20
4.3924
 30
0.0
 11
40.878229
 21
4.3924
 31
0.0
  0
LINE
  5
5D2
100
AcDbEntity
  8
BORDER
  6
CONTINUOUS
 62
     2
100
AcDbLine
 39
96.0
 10
41.346929
 20
4.3924
 30
0.0
 11
41.346929
 21
4.3924
 31
0.0
  0
LINE
  5
5D3
100
AcDbEntity
  8
BORDER
  6
CONTINUOUS
 62
     2
100
AcDbLine
 39
96.0
 10
39.706329
 20
3.9236
 30
0.0
 11
39.706329
 21
3.9236
 31
0.0
  0
LINE
  5
5D4
100
AcDbEntity
  8
BORDER
  6
CONTINUOUS
 62
     2
100
AcDbLine
 39
96.0
 10
40.175129
 20
3.9236
 30
0.0
 11
40.175129
 21
3.9236
 31
0.0
  0
LINE
  5
5D5
100
AcDbEntity
  8
BORDER
  6
CONTINUOUS
 62
     2
100
AcDbLine
 39
96.0
 10
40.643829
 20
3.9236
 30
0.0
 11
40.643829
 21
3.9236
 31
0.0
  0
LINE
  5
5D6
100
AcDbEntity
  8
BORDER
  6
CONTINUOUS
 62
     2
100
AcDbLine
 39
96.0
 10
41.112629
 20
3.9236
 30
0.0
 11
41.112629
 21
3.9236
 31
0.0
  0
LINE
  5
5D7
100
AcDbEntity
  8
BORDER
  6
CONTINUOUS
 62
     2
100
AcDbLine
 39
96.0
 10
39.940729
 20
3.4549
 30
0.0
 11
39.940729
 21
3.4549
 31
0.0
  0
LINE
  5
5D8
100
AcDbEntity
  8
BORDER
  6
CONTINUOUS
 62
     2
100
AcDbLine
 39
96.0
 10
40.409429
 20
3.4549
 30
0.0
 11
40.409429
 21
3.4549
 31
0.0
  0
LINE
  5
5D9
100
AcDbEntity
  8
BORDER
  6
CONTINUOUS
 62
     2
100
AcDbLine
 39
96.0
 10
40.878229
 20
3.4549
 30
0.0
 11
40.878229
 21
3.4549
 31
0.0
  0
LINE
  5
5DA
100
AcDbEntity
  8
BORDER
  6
CONTINUOUS
 62
     2
100
AcDbLine
 39
96.0
 10
41.346929
 20
3.4549
 30
0.0
 11
41.346929
 21
3.4549
 31
0.0
  0
LINE
  5
5DB
100
AcDbEntity
  8
BORDER
  6
CONTINUOUS
 62
     2
100
AcDbLine
 39
96.0
 10
39.706329
 20
2.9861
 30
0.0
 11
39.706329
 21
2.9861
 31
0.0
  0
LINE
  5
5DC
100
AcDbEntity
  8
BORDER
  6
CONTINUOUS
 62
     2
100
AcDbLine
 39
96.0
 10
40.175129
 20
2.9861
 30
0.0
 11
40.175129
 21
2.9861
 31
0.0
  0
LINE
  5
5DD
100
AcDbEntity
  8
BORDER
  6
CONTINUOUS
 62
     2
100
AcDbLine
 39
96.0
 10
40.643829
 20
2.9861
 30
0.0
 11
40.643829
 21
2.9861
 31
0.0
  0
LINE
  5
5DE
100
AcDbEntity
  8
BORDER
  6
CONTINUOUS
 62
     2
100
AcDbLine
 39
96.0
 10
41.112629
 20
2.9861
 30
0.0
 11
41.112629
 21
2.9861
 31
0.0
  0
LINE
  5
5DF
100
AcDbEntity
  8
BORDER
  6
CONTINUOUS
 62
     2
100
AcDbLine
 39
96.0
 10
39.940729
 20
2.5174
 30
0.0
 11
39.940729
 21
2.5174
 31
0.0
  0
LINE
  5
5E0
100
AcDbEntity
  8
BORDER
  6
CONTINUOUS
 62
     2
100
AcDbLine
 39
96.0
 10
40.409429
 20
2.5174
 30
0.0
 11
40.409429
 21
2.5174
 31
0.0
  0
LINE
  5
5E1
100
AcDbEntity
  8
BORDER
  6
CONTINUOUS
 62
     2
100
AcDbLine
 39
96.0
 10
40.878229
 20
2.5174
 30
0.0
 11
40.878229
 21
2.5174
 31
0.0
  0
LINE
  5
5E2
100
AcDbEntity
  8
BORDER
  6
CONTINUOUS
 62
     2
100
AcDbLine
 39
96.0
 10
41.346929
 20
2.5174
 30
0.0
 11
41.346929
 21
2.5174
 31
0.0
  0
LINE
  5
5E3
100
AcDbEntity
  8
BORDER
  6
CONTINUOUS
 62
     2
100
AcDbLine
 39
96.0
 10
39.706329
 20
2.0486
 30
0.0
 11
39.706329
 21
2.0486
 31
0.0
  0
LINE
  5
5E4
100
AcDbEntity
  8
BORDER
  6
CONTINUOUS
 62
     2
100
AcDbLine
 39
96.0
 10
40.175129
 20
2.0486
 30
0.0
 11
40.175129
 21
2.0486
 31
0.0
  0
LINE
  5
5E5
100
AcDbEntity
  8
BORDER
  6
CONTINUOUS
 62
     2
100
AcDbLine
 39
96.0
 10
40.643829
 20
2.0486
 30
0.0
 11
40.643829
 21
2.0486
 31
0.0
  0
LINE
  5
5E6
100
AcDbEntity
  8
BORDER
  6
CONTINUOUS
 62
     2
100
AcDbLine
 39
96.0
 10
41.112629
 20
2.0486
 30
0.0
 11
41.112629
 21
2.0486
 31
0.0
  0
LINE
  5
5E7
100
AcDbEntity
  8
BORDER
  6
CONTINUOUS
 62
     2
100
AcDbLine
 39
96.0
 10
47.675129
 20
9.5486
 30
0.0
 11
47.675129
 21
9.5486
 31
0.0
  0
LINE
  5
5E8
100
AcDbEntity
  8
BORDER
  6
CONTINUOUS
 62
     2
100
AcDbLine
 39
96.0
 10
48.143829
 20
9.5486
 30
0.0
 11
48.143829
 21
9.5486
 31
0.0
  0
LINE
  5
5E9
100
AcDbEntity
  8
BORDER
  6
CONTINUOUS
 62
     2
100
AcDbLine
 39
96.0
 10
48.612629
 20
9.5486
 30
0.0
 11
48.612629
 21
9.5486
 31
0.0
  0
LINE
  5
5EA
100
AcDbEntity
  8
BORDER
  6
CONTINUOUS
 62
     2
100
AcDbLine
 39
96.0
 10
49.081329
 20
9.5486
 30
0.0
 11
49.081329
 21
9.5486
 31
0.0
  0
LINE
  5
5EB
100
AcDbEntity
  8
BORDER
  6
CONTINUOUS
 62
     2
100
AcDbLine
 39
96.0
 10
47.909429
 20
9.0799
 30
0.0
 11
47.909429
 21
9.0799
 31
0.0
  0
LINE
  5
5EC
100
AcDbEntity
  8
BORDER
  6
CONTINUOUS
 62
     2
100
AcDbLine
 39
96.0
 10
48.378229
 20
9.0799
 30
0.0
 11
48.378229
 21
9.0799
 31
0.0
  0
LINE
  5
5ED
100
AcDbEntity
  8
BORDER
  6
CONTINUOUS
 62
     2
100
AcDbLine
 39
96.0
 10
48.846929
 20
9.0799
 30
0.0
 11
48.846929
 21
9.0799
 31
0.0
  0
LINE
  5
5EE
100
AcDbEntity
  8
BORDER
  6
CONTINUOUS
 62
     2
100
AcDbLine
 39
96.0
 10
49.315729
 20
9.0799
 30
0.0
 11
49.315729
 21
9.0799
 31
0.0
  0
LINE
  5
5EF
100
AcDbEntity
  8
BORDER
  6
CONTINUOUS
 62
     2
100
AcDbLine
 39
96.0
 10
47.675129
 20
8.6111
 30
0.0
 11
47.675129
 21
8.6111
 31
0.0
  0
LINE
  5
5F0
100
AcDbEntity
  8
BORDER
  6
CONTINUOUS
 62
     2
100
AcDbLine
 39
96.0
 10
48.143829
 20
8.6111
 30
0.0
 11
48.143829
 21
8.6111
 31
0.0
  0
LINE
  5
5F1
100
AcDbEntity
  8
BORDER
  6
CONTINUOUS
 62
     2
100
AcDbLine
 39
96.0
 10
48.612629
 20
8.6111
 30
0.0
 11
48.612629
 21
8.6111
 31
0.0
  0
LINE
  5
5F2
100
AcDbEntity
  8
BORDER
  6
CONTINUOUS
 62
     2
100
AcDbLine
 39
96.0
 10
49.081329
 20
8.6111
 30
0.0
 11
49.081329
 21
8.6111
 31
0.0
  0
LINE
  5
5F3
100
AcDbEntity
  8
BORDER
  6
CONTINUOUS
 62
     2
100
AcDbLine
 39
96.0
 10
47.909429
 20
8.1424
 30
0.0
 11
47.909429
 21
8.1424
 31
0.0
  0
LINE
  5
5F4
100
AcDbEntity
  8
BORDER
  6
CONTINUOUS
 62
     2
100
AcDbLine
 39
96.0
 10
48.378229
 20
8.1424
 30
0.0
 11
48.378229
 21
8.1424
 31
0.0
  0
LINE
  5
5F5
100
AcDbEntity
  8
BORDER
  6
CONTINUOUS
 62
     2
100
AcDbLine
 39
96.0
 10
48.846929
 20
8.1424
 30
0.0
 11
48.846929
 21
8.1424
 31
0.0
  0
LINE
  5
5F6
100
AcDbEntity
  8
BORDER
  6
CONTINUOUS
 62
     2
100
AcDbLine
 39
96.0
 10
49.315729
 20
8.1424
 30
0.0
 11
49.315729
 21
8.1424
 31
0.0
  0
LINE
  5
5F7
100
AcDbEntity
  8
BORDER
  6
CONTINUOUS
 62
     2
100
AcDbLine
 39
96.0
 10
47.675129
 20
7.6736
 30
0.0
 11
47.675129
 21
7.6736
 31
0.0
  0
LINE
  5
5F8
100
AcDbEntity
  8
BORDER
  6
CONTINUOUS
 62
     2
100
AcDbLine
 39
96.0
 10
48.143829
 20
7.6736
 30
0.0
 11
48.143829
 21
7.6736
 31
0.0
  0
LINE
  5
5F9
100
AcDbEntity
  8
BORDER
  6
CONTINUOUS
 62
     2
100
AcDbLine
 39
96.0
 10
48.612629
 20
7.6736
 30
0.0
 11
48.612629
 21
7.6736
 31
0.0
  0
LINE
  5
5FA
100
AcDbEntity
  8
BORDER
  6
CONTINUOUS
 62
     2
100
AcDbLine
 39
96.0
 10
49.081329
 20
7.6736
 30
0.0
 11
49.081329
 21
7.6736
 31
0.0
  0
LINE
  5
5FB
100
AcDbEntity
  8
BORDER
  6
CONTINUOUS
 62
     2
100
AcDbLine
 39
96.0
 10
47.909429
 20
7.2049
 30
0.0
 11
47.909429
 21
7.2049
 31
0.0
  0
LINE
  5
5FC
100
AcDbEntity
  8
BORDER
  6
CONTINUOUS
 62
     2
100
AcDbLine
 39
96.0
 10
48.378229
 20
7.2049
 30
0.0
 11
48.378229
 21
7.2049
 31
0.0
  0
LINE
  5
5FD
100
AcDbEntity
  8
BORDER
  6
CONTINUOUS
 62
     2
100
AcDbLine
 39
96.0
 10
48.846929
 20
7.2049
 30
0.0
 11
48.846929
 21
7.2049
 31
0.0
  0
LINE
  5
5FE
100
AcDbEntity
  8
BORDER
  6
CONTINUOUS
 62
     2
100
AcDbLine
 39
96.0
 10
49.315729
 20
7.2049
 30
0.0
 11
49.315729
 21
7.2049
 31
0.0
  0
LINE
  5
5FF
100
AcDbEntity
  8
BORDER
  6
CONTINUOUS
 62
     2
100
AcDbLine
 39
96.0
 10
47.675129
 20
6.7361
 30
0.0
 11
47.675129
 21
6.7361
 31
0.0
  0
LINE
  5
600
100
AcDbEntity
  8
BORDER
  6
CONTINUOUS
 62
     2
100
AcDbLine
 39
96.0
 10
48.143829
 20
6.7361
 30
0.0
 11
48.143829
 21
6.7361
 31
0.0
  0
LINE
  5
601
100
AcDbEntity
  8
BORDER
  6
CONTINUOUS
 62
     2
100
AcDbLine
 39
96.0
 10
48.612629
 20
6.7361
 30
0.0
 11
48.612629
 21
6.7361
 31
0.0
  0
LINE
  5
602
100
AcDbEntity
  8
BORDER
  6
CONTINUOUS
 62
     2
100
AcDbLine
 39
96.0
 10
49.081329
 20
6.7361
 30
0.0
 11
49.081329
 21
6.7361
 31
0.0
  0
LINE
  5
603
100
AcDbEntity
  8
BORDER
  6
CONTINUOUS
 62
     2
100
AcDbLine
 39
96.0
 10
47.909429
 20
6.2674
 30
0.0
 11
47.909429
 21
6.2674
 31
0.0
  0
LINE
  5
604
100
AcDbEntity
  8
BORDER
  6
CONTINUOUS
 62
     2
100
AcDbLine
 39
96.0
 10
48.378229
 20
6.2674
 30
0.0
 11
48.378229
 21
6.2674
 31
0.0
  0
LINE
  5
605
100
AcDbEntity
  8
BORDER
  6
CONTINUOUS
 62
     2
100
AcDbLine
 39
96.0
 10
48.846929
 20
6.2674
 30
0.0
 11
48.846929
 21
6.2674
 31
0.0
  0
LINE
  5
606
100
AcDbEntity
  8
BORDER
  6
CONTINUOUS
 62
     2
100
AcDbLine
 39
96.0
 10
49.315729
 20
6.2674
 30
0.0
 11
49.315729
 21
6.2674
 31
0.0
  0
LINE
  5
607
100
AcDbEntity
  8
BORDER
  6
CONTINUOUS
 62
     2
100
AcDbLine
 39
96.0
 10
47.675129
 20
5.7986
 30
0.0
 11
47.675129
 21
5.7986
 31
0.0
  0
LINE
  5
608
100
AcDbEntity
  8
BORDER
  6
CONTINUOUS
 62
     2
100
AcDbLine
 39
96.0
 10
48.143829
 20
5.7986
 30
0.0
 11
48.143829
 21
5.7986
 31
0.0
  0
LINE
  5
609
100
AcDbEntity
  8
BORDER
  6
CONTINUOUS
 62
     2
100
AcDbLine
 39
96.0
 10
48.612629
 20
5.7986
 30
0.0
 11
48.612629
 21
5.7986
 31
0.0
  0
LINE
  5
60A
100
AcDbEntity
  8
BORDER
  6
CONTINUOUS
 62
     2
100
AcDbLine
 39
96.0
 10
49.081329
 20
5.7986
 30
0.0
 11
49.081329
 21
5.7986
 31
0.0
  0
LINE
  5
60B
100
AcDbEntity
  8
BORDER
  6
CONTINUOUS
 62
     2
100
AcDbLine
 39
96.0
 10
47.909429
 20
5.3299
 30
0.0
 11
47.909429
 21
5.3299
 31
0.0
  0
LINE
  5
60C
100
AcDbEntity
  8
BORDER
  6
CONTINUOUS
 62
     2
100
AcDbLine
 39
96.0
 10
48.378229
 20
5.3299
 30
0.0
 11
48.378229
 21
5.3299
 31
0.0
  0
LINE
  5
60D
100
AcDbEntity
  8
BORDER
  6
CONTINUOUS
 62
     2
100
AcDbLine
 39
96.0
 10
48.846929
 20
5.3299
 30
0.0
 11
48.846929
 21
5.3299
 31
0.0
  0
LINE
  5
60E
100
AcDbEntity
  8
BORDER
  6
CONTINUOUS
 62
     2
100
AcDbLine
 39
96.0
 10
49.315729
 20
5.3299
 30
0.0
 11
49.315729
 21
5.3299
 31
0.0
  0
LINE
  5
60F
100
AcDbEntity
  8
BORDER
  6
CONTINUOUS
 62
     2
100
AcDbLine
 39
96.0
 10
47.675129
 20
4.8611
 30
0.0
 11
47.675129
 21
4.8611
 31
0.0
  0
LINE
  5
610
100
AcDbEntity
  8
BORDER
  6
CONTINUOUS
 62
     2
100
AcDbLine
 39
96.0
 10
48.143829
 20
4.8611
 30
0.0
 11
48.143829
 21
4.8611
 31
0.0
  0
LINE
  5
611
100
AcDbEntity
  8
BORDER
  6
CONTINUOUS
 62
     2
100
AcDbLine
 39
96.0
 10
48.612629
 20
4.8611
 30
0.0
 11
48.612629
 21
4.8611
 31
0.0
  0
LINE
  5
612
100
AcDbEntity
  8
BORDER
  6
CONTINUOUS
 62
     2
100
AcDbLine
 39
96.0
 10
49.081329
 20
4.8611
 30
0.0
 11
49.081329
 21
4.8611
 31
0.0
  0
LINE
  5
613
100
AcDbEntity
  8
BORDER
  6
CONTINUOUS
 62
     2
100
AcDbLine
 39
96.0
 10
47.909429
 20
4.3924
 30
0.0
 11
47.909429
 21
4.3924
 31
0.0
  0
LINE
  5
614
100
AcDbEntity
  8
BORDER
  6
CONTINUOUS
 62
     2
100
AcDbLine
 39
96.0
 10
48.378229
 20
4.3924
 30
0.0
 11
48.378229
 21
4.3924
 31
0.0
  0
LINE
  5
615
100
AcDbEntity
  8
BORDER
  6
CONTINUOUS
 62
     2
100
AcDbLine
 39
96.0
 10
48.846929
 20
4.3924
 30
0.0
 11
48.846929
 21
4.3924
 31
0.0
  0
LINE
  5
616
100
AcDbEntity
  8
BORDER
  6
CONTINUOUS
 62
     2
100
AcDbLine
 39
96.0
 10
49.315729
 20
4.3924
 30
0.0
 11
49.315729
 21
4.3924
 31
0.0
  0
LINE
  5
617
100
AcDbEntity
  8
BORDER
  6
CONTINUOUS
 62
     2
100
AcDbLine
 39
96.0
 10
47.675129
 20
3.9236
 30
0.0
 11
47.675129
 21
3.9236
 31
0.0
  0
LINE
  5
618
100
AcDbEntity
  8
BORDER
  6
CONTINUOUS
 62
     2
100
AcDbLine
 39
96.0
 10
48.143829
 20
3.9236
 30
0.0
 11
48.143829
 21
3.9236
 31
0.0
  0
LINE
  5
619
100
AcDbEntity
  8
BORDER
  6
CONTINUOUS
 62
     2
100
AcDbLine
 39
96.0
 10
48.612629
 20
3.9236
 30
0.0
 11
48.612629
 21
3.9236
 31
0.0
  0
LINE
  5
61A
100
AcDbEntity
  8
BORDER
  6
CONTINUOUS
 62
     2
100
AcDbLine
 39
96.0
 10
49.081329
 20
3.9236
 30
0.0
 11
49.081329
 21
3.9236
 31
0.0
  0
LINE
  5
61B
100
AcDbEntity
  8
BORDER
  6
CONTINUOUS
 62
     2
100
AcDbLine
 39
96.0
 10
47.909429
 20
3.4549
 30
0.0
 11
47.909429
 21
3.4549
 31
0.0
  0
LINE
  5
61C
100
AcDbEntity
  8
BORDER
  6
CONTINUOUS
 62
     2
100
AcDbLine
 39
96.0
 10
48.378229
 20
3.4549
 30
0.0
 11
48.378229
 21
3.4549
 31
0.0
  0
LINE
  5
61D
100
AcDbEntity
  8
BORDER
  6
CONTINUOUS
 62
     2
100
AcDbLine
 39
96.0
 10
48.846929
 20
3.4549
 30
0.0
 11
48.846929
 21
3.4549
 31
0.0
  0
LINE
  5
61E
100
AcDbEntity
  8
BORDER
  6
CONTINUOUS
 62
     2
100
AcDbLine
 39
96.0
 10
49.315729
 20
3.4549
 30
0.0
 11
49.315729
 21
3.4549
 31
0.0
  0
LINE
  5
61F
100
AcDbEntity
  8
BORDER
  6
CONTINUOUS
 62
     2
100
AcDbLine
 39
96.0
 10
47.675129
 20
2.9861
 30
0.0
 11
47.675129
 21
2.9861
 31
0.0
  0
LINE
  5
620
100
AcDbEntity
  8
BORDER
  6
CONTINUOUS
 62
     2
100
AcDbLine
 39
96.0
 10
48.143829
 20
2.9861
 30
0.0
 11
48.143829
 21
2.9861
 31
0.0
  0
LINE
  5
621
100
AcDbEntity
  8
BORDER
  6
CONTINUOUS
 62
     2
100
AcDbLine
 39
96.0
 10
48.612629
 20
2.9861
 30
0.0
 11
48.612629
 21
2.9861
 31
0.0
  0
LINE
  5
622
100
AcDbEntity
  8
BORDER
  6
CONTINUOUS
 62
     2
100
AcDbLine
 39
96.0
 10
49.081329
 20
2.9861
 30
0.0
 11
49.081329
 21
2.9861
 31
0.0
  0
LINE
  5
623
100
AcDbEntity
  8
BORDER
  6
CONTINUOUS
 62
     2
100
AcDbLine
 39
96.0
 10
47.909429
 20
2.5174
 30
0.0
 11
47.909429
 21
2.5174
 31
0.0
  0
LINE
  5
624
100
AcDbEntity
  8
BORDER
  6
CONTINUOUS
 62
     2
100
AcDbLine
 39
96.0
 10
48.378229
 20
2.5174
 30
0.0
 11
48.378229
 21
2.5174
 31
0.0
  0
LINE
  5
625
100
AcDbEntity
  8
BORDER
  6
CONTINUOUS
 62
     2
100
AcDbLine
 39
96.0
 10
48.846929
 20
2.5174
 30
0.0
 11
48.846929
 21
2.5174
 31
0.0
  0
LINE
  5
626
100
AcDbEntity
  8
BORDER
  6
CONTINUOUS
 62
     2
100
AcDbLine
 39
96.0
 10
49.315729
 20
2.5174
 30
0.0
 11
49.315729
 21
2.5174
 31
0.0
  0
LINE
  5
627
100
AcDbEntity
  8
BORDER
  6
CONTINUOUS
 62
     2
100
AcDbLine
 39
96.0
 10
47.675129
 20
2.0486
 30
0.0
 11
47.675129
 21
2.0486
 31
0.0
  0
LINE
  5
628
100
AcDbEntity
  8
BORDER
  6
CONTINUOUS
 62
     2
100
AcDbLine
 39
96.0
 10
48.143829
 20
2.0486
 30
0.0
 11
48.143829
 21
2.0486
 31
0.0
  0
LINE
  5
629
100
AcDbEntity
  8
BORDER
  6
CONTINUOUS
 62
     2
100
AcDbLine
 39
96.0
 10
48.612629
 20
2.0486
 30
0.0
 11
48.612629
 21
2.0486
 31
0.0
  0
LINE
  5
62A
100
AcDbEntity
  8
BORDER
  6
CONTINUOUS
 62
     2
100
AcDbLine
 39
96.0
 10
49.081329
 20
2.0486
 30
0.0
 11
49.081329
 21
2.0486
 31
0.0
  0
LINE
  5
62B
100
AcDbEntity
  8
BORDER
  6
CONTINUOUS
 62
     3
100
AcDbLine
 39
96.0
 10
39.493929
 20
9.6844
 30
0.0
 11
41.368929
 21
9.6844
 31
0.0
  0
LINE
  5
62C
100
AcDbEntity
  8
BORDER
  6
CONTINUOUS
 62
     3
100
AcDbLine
 39
96.0
 10
47.618929
 20
9.6844
 30
0.0
 11
49.493929
 21
9.6844
 31
0.0
  0
LINE
  5
62D
100
AcDbEntity
  8
BORDER
  6
CONTINUOUS
 62
    10
100
AcDbLine
 39
96.0
 10
45.013229
 20
7.5638
 30
0.0
 11
44.939729
 21
7.537
 31
0.0
  0
LINE
  5
62E
100
AcDbEntity
  8
BORDER
  6
CONTINUOUS
 62
    10
100
AcDbLine
 39
96.0
 10
44.744429
 20
8.3965
 30
0.0
 11
44.699529
 21
8.3325
 31
0.0
  0
LINE
  5
62F
100
AcDbEntity
  8
BORDER
  6
CONTINUOUS
 62
    10
100
AcDbLine
 39
96.0
 10
43.599129
 20
7.4237
 30
0.0
 11
43.585529
 21
7.3468
 31
0.0
  0
LINE
  5
630
100
AcDbEntity
  8
BORDER
  6
CONTINUOUS
 62
    15
100
AcDbLine
 39
96.0
 10
50.627029
 20
1.6537
 30
0.0
 11
46.197329
 21
1.6537
 31
0.0
  0
LINE
  5
631
100
AcDbEntity
  8
BORDER
  6
CONTINUOUS
 62
    15
100
AcDbLine
 39
96.0
 10
42.771529
 20
1.6537
 30
0.0
 11
38.341829
 21
1.6537
 31
0.0
  0
LINE
  5
632
100
AcDbEntity
  8
BORDER
  6
CONTINUOUS
 62
    15
100
AcDbLine
 39
96.0
 10
42.771529
 20
1.6537
 30
0.0
 11
43.598429
 21
3.3075
 31
0.0
  0
LINE
  5
633
100
AcDbEntity
  8
BORDER
  6
CONTINUOUS
 62
    15
100
AcDbLine
 39
96.0
 10
43.598429
 20
3.3075
 30
0.0
 11
45.547429
 21
0.0
 31
0.0
  0
LINE
  5
634
100
AcDbEntity
  8
BORDER
  6
CONTINUOUS
 62
    15
100
AcDbLine
 39
96.0
 10
45.547429
 20
0.0
 30
0.0
 11
46.197329
 21
1.6537
 31
0.0
  0
LINE
  5
635
100
AcDbEntity
  8
BORDER
  6
CONTINUOUS
 62
     1
100
AcDbLine
 39
96.0
 10
49.561529
 20
38.4796
 30
0.0
 11
49.500029
 21
38.4904
 31
0.0
  0
LINE
  5
636
100
AcDbEntity
  8
BORDER
  6
CONTINUOUS
 62
     1
100
AcDbLine
 39
96.0
 10
47.533729
 20
41.3754
 30
0.0
 11
47.472229
 21
41.3861
 31
0.0
  0
LINE
  5
637
100
AcDbEntity
  8
BORDER
  6
CONTINUOUS
 62
    10
100
AcDbLine
 39
96.0
 10
46.788129
 20
39.9877
 30
0.0
 11
46.814729
 21
39.9142
 31
0.0
  0
LINE
  5
638
100
AcDbEntity
  8
BORDER
  6
CONTINUOUS
 62
    10
100
AcDbLine
 39
96.0
 10
45.955329
 20
39.7189
 30
0.0
 11
46.019329
 21
39.674
 31
0.0
  0
LINE
  5
639
100
AcDbEntity
  8
BORDER
  6
CONTINUOUS
 62
    10
100
AcDbLine
 39
96.0
 10
46.928229
 20
38.5736
 30
0.0
 11
47.005129
 21
38.56
 31
0.0
  0
LINE
  5
63A
100
AcDbEntity
  8
BORDER
  6
CONTINUOUS
 62
     2
100
AcDbLine
 39
96.0
 10
39.706329
 20
40.4861
 30
0.0
 11
39.706329
 21
40.4861
 31
0.0
  0
LINE
  5
63B
100
AcDbEntity
  8
BORDER
  6
CONTINUOUS
 62
     2
100
AcDbLine
 39
96.0
 10
40.175129
 20
40.4861
 30
0.0
 11
40.175129
 21
40.4861
 31
0.0
  0
LINE
  5
63C
100
AcDbEntity
  8
BORDER
  6
CONTINUOUS
 62
     2
100
AcDbLine
 39
96.0
 10
40.643829
 20
40.4861
 30
0.0
 11
40.643829
 21
40.4861
 31
0.0
  0
LINE
  5
63D
100
AcDbEntity
  8
BORDER
  6
CONTINUOUS
 62
     2
100
AcDbLine
 39
96.0
 10
41.112629
 20
40.4861
 30
0.0
 11
41.112629
 21
40.4861
 31
0.0
  0
LINE
  5
63E
100
AcDbEntity
  8
BORDER
  6
CONTINUOUS
 62
     2
100
AcDbLine
 39
96.0
 10
39.940729
 20
40.0173
 30
0.0
 11
39.940729
 21
40.0173
 31
0.0
  0
LINE
  5
63F
100
AcDbEntity
  8
BORDER
  6
CONTINUOUS
 62
     2
100
AcDbLine
 39
96.0
 10
40.409429
 20
40.0173
 30
0.0
 11
40.409429
 21
40.0173
 31
0.0
  0
LINE
  5
640
100
AcDbEntity
  8
BORDER
  6
CONTINUOUS
 62
     2
100
AcDbLine
 39
96.0
 10
40.878229
 20
40.0173
 30
0.0
 11
40.878229
 21
40.0173
 31
0.0
  0
LINE
  5
641
100
AcDbEntity
  8
BORDER
  6
CONTINUOUS
 62
     2
100
AcDbLine
 39
96.0
 10
39.706329
 20
41.4236
 30
0.0
 11
39.706329
 21
41.4236
 31
0.0
  0
LINE
  5
642
100
AcDbEntity
  8
BORDER
  6
CONTINUOUS
 62
     2
100
AcDbLine
 39
96.0
 10
40.175129
 20
41.4236
 30
0.0
 11
40.175129
 21
41.4236
 31
0.0
  0
LINE
  5
643
100
AcDbEntity
  8
BORDER
  6
CONTINUOUS
 62
     2
100
AcDbLine
 39
96.0
 10
40.643829
 20
41.4236
 30
0.0
 11
40.643829
 21
41.4236
 31
0.0
  0
LINE
  5
644
100
AcDbEntity
  8
BORDER
  6
CONTINUOUS
 62
     2
100
AcDbLine
 39
96.0
 10
41.112629
 20
41.4236
 30
0.0
 11
41.112629
 21
41.4236
 31
0.0
  0
LINE
  5
645
100
AcDbEntity
  8
BORDER
  6
CONTINUOUS
 62
     2
100
AcDbLine
 39
96.0
 10
39.940729
 20
40.9548
 30
0.0
 11
39.940729
 21
40.9548
 31
0.0
  0
LINE
  5
646
100
AcDbEntity
  8
BORDER
  6
CONTINUOUS
 62
     2
100
AcDbLine
 39
96.0
 10
40.409429
 20
40.9548
 30
0.0
 11
40.409429
 21
40.9548
 31
0.0
  0
LINE
  5
647
100
AcDbEntity
  8
BORDER
  6
CONTINUOUS
 62
     2
100
AcDbLine
 39
96.0
 10
40.878229
 20
40.9548
 30
0.0
 11
40.878229
 21
40.9548
 31
0.0
  0
LINE
  5
648
100
AcDbEntity
  8
BORDER
  6
CONTINUOUS
 62
     2
100
AcDbLine
 39
96.0
 10
39.706329
 20
42.3611
 30
0.0
 11
39.706329
 21
42.3611
 31
0.0
  0
LINE
  5
649
100
AcDbEntity
  8
BORDER
  6
CONTINUOUS
 62
     2
100
AcDbLine
 39
96.0
 10
40.175129
 20
42.3611
 30
0.0
 11
40.175129
 21
42.3611
 31
0.0
  0
LINE
  5
64A
100
AcDbEntity
  8
BORDER
  6
CONTINUOUS
 62
     2
100
AcDbLine
 39
96.0
 10
40.643829
 20
42.3611
 30
0.0
 11
40.643829
 21
42.3611
 31
0.0
  0
LINE
  5
64B
100
AcDbEntity
  8
BORDER
  6
CONTINUOUS
 62
     2
100
AcDbLine
 39
96.0
 10
41.112629
 20
42.3611
 30
0.0
 11
41.112629
 21
42.3611
 31
0.0
  0
LINE
  5
64C
100
AcDbEntity
  8
BORDER
  6
CONTINUOUS
 62
     2
100
AcDbLine
 39
96.0
 10
39.940729
 20
41.8923
 30
0.0
 11
39.940729
 21
41.8923
 31
0.0
  0
LINE
  5
64D
100
AcDbEntity
  8
BORDER
  6
CONTINUOUS
 62
     2
100
AcDbLine
 39
96.0
 10
40.409429
 20
41.8923
 30
0.0
 11
40.409429
 21
41.8923
 31
0.0
  0
LINE
  5
64E
100
AcDbEntity
  8
BORDER
  6
CONTINUOUS
 62
     2
100
AcDbLine
 39
96.0
 10
40.878229
 20
41.8923
 30
0.0
 11
40.878229
 21
41.8923
 31
0.0
  0
CIRCLE
  5
64F
100
AcDbEntity
  8
BORDER
  6
CONTINUOUS
 62
    15
100
AcDbCircle
 39
96.0
 10
43.850792
 20
38.296916
 30
0.0
 40
0.375
  0
CIRCLE
  5
650
100
AcDbEntity
  8
BORDER
  6
CONTINUOUS
 62
    15
100
AcDbCircle
 39
96.0
 10
44.956629
 20
22.6782
 30
0.0
 40
0.375
  0
CIRCLE
  5
651
100
AcDbEntity
  8
BORDER
  6
CONTINUOUS
 62
    15
100
AcDbCircle
 39
96.0
 10
44.956629
 20
7.6782
 30
0.0
 40
0.375
  0
LINE
  5
652
100
AcDbEntity
  8
BORDER
  6
CONTINUOUS
 62
     2
100
AcDbLine
 39
96.0
 10
47.909429
 20
31.5798
 30
0.0
 11
47.909429
 21
31.5798
 31
0.0
  0
LINE
  5
653
100
AcDbEntity
  8
BORDER
  6
CONTINUOUS
 62
     2
100
AcDbLine
 39
96.0
 10
48.378229
 20
31.5798
 30
0.0
 11
48.378229
 21
31.5798
 31
0.0
  0
LINE
  5
654
100
AcDbEntity
  8
BORDER
  6
CONTINUOUS
 62
     2
100
AcDbLine
 39
96.0
 10
48.846929
 20
31.5798
 30
0.0
 11
48.846929
 21
31.5798
 31
0.0
  0
LINE
  5
655
100
AcDbEntity
  8
BORDER
  6
CONTINUOUS
 62
     2
100
AcDbLine
 39
96.0
 10
49.315729
 20
31.5798
 30
0.0
 11
49.315729
 21
31.5798
 31
0.0
  0
LINE
  5
656
100
AcDbEntity
  8
BORDER
  6
CONTINUOUS
 62
     1
100
AcDbLine
 39
96.0
 10
47.126229
 20
37.1335
 30
0.0
 11
47.075029
 21
37.1693
 31
0.0
  0
LINE
  5
657
100
AcDbEntity
  8
BORDER
  6
CONTINUOUS
 62
     2
100
AcDbLine
 39
96.0
 10
48.553229
 20
36.0871
 30
0.0
 11
48.553229
 21
36.0871
 31
0.0
  0
LINE
  5
658
100
AcDbEntity
  8
BORDER
  6
CONTINUOUS
 62
     2
100
AcDbLine
 39
96.0
 10
49.022029
 20
35.3839
 30
0.0
 11
49.022029
 21
35.3839
 31
0.0
  0
LINE
  5
659
100
AcDbEntity
  8
BORDER
  6
CONTINUOUS
 62
     2
100
AcDbLine
 39
96.0
 10
49.022029
 20
35.8527
 30
0.0
 11
49.022029
 21
35.8527
 31
0.0
  0
LINE
  5
65A
100
AcDbEntity
  8
BORDER
  6
CONTINUOUS
 62
     2
100
AcDbLine
 39
96.0
 10
49.490729
 20
34.6808
 30
0.0
 11
49.490729
 21
34.6808
 31
0.0
  0
LINE
  5
65B
100
AcDbEntity
  8
BORDER
  6
CONTINUOUS
 62
     2
100
AcDbLine
 39
96.0
 10
49.490729
 20
35.1496
 30
0.0
 11
49.490729
 21
35.1496
 31
0.0
  0
LINE
  5
65C
100
AcDbEntity
  8
BORDER
  6
CONTINUOUS
 62
     2
100
AcDbLine
 39
96.0
 10
49.490729
 20
35.6183
 30
0.0
 11
49.490729
 21
35.6183
 31
0.0
  0
LINE
  5
65D
100
AcDbEntity
  8
BORDER
  6
CONTINUOUS
 62
     2
100
AcDbLine
 39
96.0
 10
49.490729
 20
36.0871
 30
0.0
 11
49.490729
 21
36.0871
 31
0.0
  0
LINE
  5
65E
100
AcDbEntity
  8
BORDER
  6
CONTINUOUS
 62
     2
100
AcDbLine
 39
96.0
 10
47.909429
 20
32.5173
 30
0.0
 11
47.909429
 21
32.5173
 31
0.0
  0
LINE
  5
65F
100
AcDbEntity
  8
BORDER
  6
CONTINUOUS
 62
     2
100
AcDbLine
 39
96.0
 10
48.378229
 20
32.5173
 30
0.0
 11
48.378229
 21
32.5173
 31
0.0
  0
LINE
  5
660
100
AcDbEntity
  8
BORDER
  6
CONTINUOUS
 62
     2
100
AcDbLine
 39
96.0
 10
48.846929
 20
32.5173
 30
0.0
 11
48.846929
 21
32.5173
 31
0.0
  0
LINE
  5
661
100
AcDbEntity
  8
BORDER
  6
CONTINUOUS
 62
     2
100
AcDbLine
 39
96.0
 10
49.315729
 20
32.5173
 30
0.0
 11
49.315729
 21
32.5173
 31
0.0
  0
LINE
  5
662
100
AcDbEntity
  8
BORDER
  6
CONTINUOUS
 62
     2
100
AcDbLine
 39
96.0
 10
48.143829
 20
32.0486
 30
0.0
 11
48.143829
 21
32.0486
 31
0.0
  0
LINE
  5
663
100
AcDbEntity
  8
BORDER
  6
CONTINUOUS
 62
     2
100
AcDbLine
 39
96.0
 10
48.612629
 20
32.0486
 30
0.0
 11
48.612629
 21
32.0486
 31
0.0
  0
LINE
  5
664
100
AcDbEntity
  8
BORDER
  6
CONTINUOUS
 62
     2
100
AcDbLine
 39
96.0
 10
49.081329
 20
32.0486
 30
0.0
 11
49.081329
 21
32.0486
 31
0.0
  0
LINE
  5
665
100
AcDbEntity
  8
BORDER
  6
CONTINUOUS
 62
     2
100
AcDbLine
 39
96.0
 10
47.909429
 20
33.4548
 30
0.0
 11
47.909429
 21
33.4548
 31
0.0
  0
LINE
  5
666
100
AcDbEntity
  8
BORDER
  6
CONTINUOUS
 62
     2
100
AcDbLine
 39
96.0
 10
48.378229
 20
33.4548
 30
0.0
 11
48.378229
 21
33.4548
 31
0.0
  0
LINE
  5
667
100
AcDbEntity
  8
BORDER
  6
CONTINUOUS
 62
     2
100
AcDbLine
 39
96.0
 10
48.846929
 20
33.4548
 30
0.0
 11
48.846929
 21
33.4548
 31
0.0
  0
LINE
  5
668
100
AcDbEntity
  8
BORDER
  6
CONTINUOUS
 62
     2
100
AcDbLine
 39
96.0
 10
49.315729
 20
33.4548
 30
0.0
 11
49.315729
 21
33.4548
 31
0.0
  0
LINE
  5
669
100
AcDbEntity
  8
BORDER
  6
CONTINUOUS
 62
     2
100
AcDbLine
 39
96.0
 10
48.143829
 20
32.9861
 30
0.0
 11
48.143829
 21
32.9861
 31
0.0
  0
LINE
  5
66A
100
AcDbEntity
  8
BORDER
  6
CONTINUOUS
 62
     2
100
AcDbLine
 39
96.0
 10
48.612629
 20
32.9861
 30
0.0
 11
48.612629
 21
32.9861
 31
0.0
  0
LINE
  5
66B
100
AcDbEntity
  8
BORDER
  6
CONTINUOUS
 62
     2
100
AcDbLine
 39
96.0
 10
49.081329
 20
32.9861
 30
0.0
 11
49.081329
 21
32.9861
 31
0.0
  0
LINE
  5
66C
100
AcDbEntity
  8
BORDER
  6
CONTINUOUS
 62
     2
100
AcDbLine
 39
96.0
 10
47.909429
 20
34.3923
 30
0.0
 11
47.909429
 21
34.3923
 31
0.0
  0
LINE
  5
66D
100
AcDbEntity
  8
BORDER
  6
CONTINUOUS
 62
     2
100
AcDbLine
 39
96.0
 10
48.378229
 20
34.3923
 30
0.0
 11
48.378229
 21
34.3923
 31
0.0
  0
LINE
  5
66E
100
AcDbEntity
  8
BORDER
  6
CONTINUOUS
 62
     2
100
AcDbLine
 39
96.0
 10
48.846929
 20
34.3923
 30
0.0
 11
48.846929
 21
34.3923
 31
0.0
  0
LINE
  5
66F
100
AcDbEntity
  8
BORDER
  6
CONTINUOUS
 62
     2
100
AcDbLine
 39
96.0
 10
49.315729
 20
34.3923
 30
0.0
 11
49.315729
 21
34.3923
 31
0.0
  0
LINE
  5
670
100
AcDbEntity
  8
BORDER
  6
CONTINUOUS
 62
     2
100
AcDbLine
 39
96.0
 10
48.143829
 20
33.9236
 30
0.0
 11
48.143829
 21
33.9236
 31
0.0
  0
LINE
  5
671
100
AcDbEntity
  8
BORDER
  6
CONTINUOUS
 62
     2
100
AcDbLine
 39
96.0
 10
48.612629
 20
33.9236
 30
0.0
 11
48.612629
 21
33.9236
 31
0.0
  0
LINE
  5
672
100
AcDbEntity
  8
BORDER
  6
CONTINUOUS
 62
     2
100
AcDbLine
 39
96.0
 10
49.081329
 20
33.9236
 30
0.0
 11
49.081329
 21
33.9236
 31
0.0
  0
LINE
  5
673
100
AcDbEntity
  8
BORDER
  6
CONTINUOUS
 62
     2
100
AcDbLine
 39
96.0
 10
47.909429
 20
35.3298
 30
0.0
 11
47.909429
 21
35.3298
 31
0.0
  0
LINE
  5
674
100
AcDbEntity
  8
BORDER
  6
CONTINUOUS
 62
     2
100
AcDbLine
 39
96.0
 10
48.378229
 20
35.3298
 30
0.0
 11
48.378229
 21
35.3298
 31
0.0
  0
LINE
  5
675
100
AcDbEntity
  8
BORDER
  6
CONTINUOUS
 62
     2
100
AcDbLine
 39
96.0
 10
48.143829
 20
34.8611
 30
0.0
 11
48.143829
 21
34.8611
 31
0.0
  0
LINE
  5
676
100
AcDbEntity
  8
BORDER
  6
CONTINUOUS
 62
     2
100
AcDbLine
 39
96.0
 10
48.612629
 20
34.8611
 30
0.0
 11
48.612629
 21
34.8611
 31
0.0
  0
LINE
  5
677
100
AcDbEntity
  8
BORDER
  6
CONTINUOUS
 62
     2
100
AcDbLine
 39
96.0
 10
49.081329
 20
34.8611
 30
0.0
 11
49.081329
 21
34.8611
 31
0.0
  0
LINE
  5
678
100
AcDbEntity
  8
BORDER
  6
CONTINUOUS
 62
     1
100
AcDbLine
 39
96.0
 10
43.396729
 20
36.3739
 30
0.0
 11
43.455629
 21
36.3952
 31
0.0
  0
LINE
  5
679
100
AcDbEntity
  8
BORDER
  6
CONTINUOUS
 62
     1
100
AcDbLine
 39
96.0
 10
41.902429
 20
33.1695
 30
0.0
 11
41.961229
 21
33.1909
 31
0.0
  0
LINE
  5
67A
100
AcDbEntity
  8
BORDER
  6
CONTINUOUS
 62
     1
100
AcDbLine
 39
96.0
 10
45.106729
 20
31.6753
 30
0.0
 11
45.165529
 21
31.6967
 31
0.0
  0
LINE
  5
67B
100
AcDbEntity
  8
BORDER
  6
CONTINUOUS
 62
     1
100
AcDbLine
 39
96.0
 10
42.159029
 20
37.2257
 30
0.0
 11
42.194829
 21
37.2769
 31
0.0
  0
LINE
  5
67C
100
AcDbEntity
  8
BORDER
  6
CONTINUOUS
 62
     1
100
AcDbLine
 39
96.0
 10
44.207129
 20
35.7917
 30
0.0
 11
44.242929
 21
35.8429
 31
0.0
  0
LINE
  5
67D
100
AcDbEntity
  8
BORDER
  6
CONTINUOUS
 62
     1
100
AcDbLine
 39
96.0
 10
43.505129
 20
34.7903
 30
0.0
 11
43.515929
 21
34.8518
 31
0.0
  0
LINE
  5
67E
100
AcDbEntity
  8
BORDER
  6
CONTINUOUS
 62
     1
100
AcDbLine
 39
96.0
 10
45.532729
 20
31.8941
 30
0.0
 11
45.543529
 21
31.9557
 31
0.0
  0
LINE
  5
67F
100
AcDbEntity
  8
BORDER
  6
CONTINUOUS
 62
    10
100
AcDbLine
 39
96.0
 10
45.013229
 20
37.5638
 30
0.0
 11
44.939729
 21
37.5371
 31
0.0
  0
LINE
  5
680
100
AcDbEntity
  8
BORDER
  6
CONTINUOUS
 62
    10
100
AcDbLine
 39
96.0
 10
44.744429
 20
38.3965
 30
0.0
 11
44.699529
 21
38.3325
 31
0.0
  0
LINE
  5
681
100
AcDbEntity
  8
BORDER
  6
CONTINUOUS
 62
    10
100
AcDbLine
 39
96.0
 10
43.599129
 20
37.4237
 30
0.0
 11
43.585529
 21
37.3468
 31
0.0
  0
LINE
  5
682
100
AcDbEntity
  8
BORDER
  6
CONTINUOUS
 62
     1
100
AcDbLine
 39
96.0
 10
41.477329
 20
37.6864
 30
0.0
 11
41.488129
 21
37.7479
 31
0.0
  0
LINE
  5
683
100
AcDbEntity
  8
BORDER
  6
CONTINUOUS
 62
     2
100
AcDbLine
 39
96.0
 10
39.706329
 20
39.5486
 30
0.0
 11
39.706329
 21
39.5486
 31
0.0
  0
LINE
  5
684
100
AcDbEntity
  8
BORDER
  6
CONTINUOUS
 62
     2
100
AcDbLine
 39
96.0
 10
40.175129
 20
39.5486
 30
0.0
 11
40.175129
 21
39.5486
 31
0.0
  0
LINE
  5
685
100
AcDbEntity
  8
BORDER
  6
CONTINUOUS
 62
     2
100
AcDbLine
 39
96.0
 10
40.643829
 20
39.5486
 30
0.0
 11
40.643829
 21
39.5486
 31
0.0
  0
LINE
  5
686
100
AcDbEntity
  8
BORDER
  6
CONTINUOUS
 62
     2
100
AcDbLine
 39
96.0
 10
41.112629
 20
39.5486
 30
0.0
 11
41.112629
 21
39.5486
 31
0.0
  0
LINE
  5
687
100
AcDbEntity
  8
BORDER
  6
CONTINUOUS
 62
     2
100
AcDbLine
 39
96.0
 10
39.940729
 20
39.0798
 30
0.0
 11
39.940729
 21
39.0798
 31
0.0
  0
LINE
  5
688
100
AcDbEntity
  8
BORDER
  6
CONTINUOUS
 62
     2
100
AcDbLine
 39
96.0
 10
40.409429
 20
39.0798
 30
0.0
 11
40.409429
 21
39.0798
 31
0.0
  0
LINE
  5
689
100
AcDbEntity
  8
BORDER
  6
CONTINUOUS
 62
     2
100
AcDbLine
 39
96.0
 10
40.878229
 20
39.0798
 30
0.0
 11
40.878229
 21
39.0798
 31
0.0
  0
LINE
  5
68A
100
AcDbEntity
  8
BORDER
  6
CONTINUOUS
 62
     2
100
AcDbLine
 39
96.0
 10
41.346929
 20
39.0798
 30
0.0
 11
41.346929
 21
39.0798
 31
0.0
  0
LINE
  5
68B
100
AcDbEntity
  8
BORDER
  6
CONTINUOUS
 62
     2
100
AcDbLine
 39
96.0
 10
39.706329
 20
38.6111
 30
0.0
 11
39.706329
 21
38.6111
 31
0.0
  0
LINE
  5
68C
100
AcDbEntity
  8
BORDER
  6
CONTINUOUS
 62
     2
100
AcDbLine
 39
96.0
 10
40.175129
 20
38.6111
 30
0.0
 11
40.175129
 21
38.6111
 31
0.0
  0
LINE
  5
68D
100
AcDbEntity
  8
BORDER
  6
CONTINUOUS
 62
     2
100
AcDbLine
 39
96.0
 10
40.643829
 20
38.6111
 30
0.0
 11
40.643829
 21
38.6111
 31
0.0
  0
LINE
  5
68E
100
AcDbEntity
  8
BORDER
  6
CONTINUOUS
 62
     2
100
AcDbLine
 39
96.0
 10
41.112629
 20
38.6111
 30
0.0
 11
41.112629
 21
38.6111
 31
0.0
  0
LINE
  5
68F
100
AcDbEntity
  8
BORDER
  6
CONTINUOUS
 62
     2
100
AcDbLine
 39
96.0
 10
39.940729
 20
38.1423
 30
0.0
 11
39.940729
 21
38.1423
 31
0.0
  0
LINE
  5
690
100
AcDbEntity
  8
BORDER
  6
CONTINUOUS
 62
     2
100
AcDbLine
 39
96.0
 10
40.409429
 20
38.1423
 30
0.0
 11
40.409429
 21
38.1423
 31
0.0
  0
LINE
  5
691
100
AcDbEntity
  8
BORDER
  6
CONTINUOUS
 62
     2
100
AcDbLine
 39
96.0
 10
40.878229
 20
38.1423
 30
0.0
 11
40.878229
 21
38.1423
 31
0.0
  0
LINE
  5
692
100
AcDbEntity
  8
BORDER
  6
CONTINUOUS
 62
     2
100
AcDbLine
 39
96.0
 10
41.346929
 20
38.1423
 30
0.0
 11
41.346929
 21
38.1423
 31
0.0
  0
LINE
  5
693
100
AcDbEntity
  8
BORDER
  6
CONTINUOUS
 62
     2
100
AcDbLine
 39
96.0
 10
39.706329
 20
37.6736
 30
0.0
 11
39.706329
 21
37.6736
 31
0.0
  0
LINE
  5
694
100
AcDbEntity
  8
BORDER
  6
CONTINUOUS
 62
     2
100
AcDbLine
 39
96.0
 10
40.175129
 20
37.6736
 30
0.0
 11
40.175129
 21
37.6736
 31
0.0
  0
LINE
  5
695
100
AcDbEntity
  8
BORDER
  6
CONTINUOUS
 62
     2
100
AcDbLine
 39
96.0
 10
40.643829
 20
37.6736
 30
0.0
 11
40.643829
 21
37.6736
 31
0.0
  0
LINE
  5
696
100
AcDbEntity
  8
BORDER
  6
CONTINUOUS
 62
     2
100
AcDbLine
 39
96.0
 10
41.112629
 20
37.6736
 30
0.0
 11
41.112629
 21
37.6736
 31
0.0
  0
LINE
  5
697
100
AcDbEntity
  8
BORDER
  6
CONTINUOUS
 62
     2
100
AcDbLine
 39
96.0
 10
41.346929
 20
37.2048
 30
0.0
 11
41.346929
 21
37.2048
 31
0.0
  0
LINE
  5
698
100
AcDbEntity
  8
BORDER
  6
CONTINUOUS
 62
     2
100
AcDbLine
 39
96.0
 10
41.112629
 20
36.7361
 30
0.0
 11
41.112629
 21
36.7361
 31
0.0
  0
LINE
  5
699
100
AcDbEntity
  8
BORDER
  6
CONTINUOUS
 62
     2
100
AcDbLine
 39
96.0
 10
41.346929
 20
36.2673
 30
0.0
 11
41.346929
 21
36.2673
 31
0.0
  0
LINE
  5
69A
100
AcDbEntity
  8
BORDER
  6
CONTINUOUS
 62
     2
100
AcDbLine
 39
96.0
 10
39.706329
 20
35.7986
 30
0.0
 11
39.706329
 21
35.7986
 31
0.0
  0
LINE
  5
69B
100
AcDbEntity
  8
BORDER
  6
CONTINUOUS
 62
     2
100
AcDbLine
 39
96.0
 10
40.175129
 20
35.7986
 30
0.0
 11
40.175129
 21
35.7986
 31
0.0
  0
LINE
  5
69C
100
AcDbEntity
  8
BORDER
  6
CONTINUOUS
 62
     2
100
AcDbLine
 39
96.0
 10
40.643829
 20
35.7986
 30
0.0
 11
40.643829
 21
35.7986
 31
0.0
  0
LINE
  5
69D
100
AcDbEntity
  8
BORDER
  6
CONTINUOUS
 62
     2
100
AcDbLine
 39
96.0
 10
41.112629
 20
35.7986
 30
0.0
 11
41.112629
 21
35.7986
 31
0.0
  0
LINE
  5
69E
100
AcDbEntity
  8
BORDER
  6
CONTINUOUS
 62
     2
100
AcDbLine
 39
96.0
 10
39.940729
 20
35.3298
 30
0.0
 11
39.940729
 21
35.3298
 31
0.0
  0
LINE
  5
69F
100
AcDbEntity
  8
BORDER
  6
CONTINUOUS
 62
     2
100
AcDbLine
 39
96.0
 10
40.409429
 20
35.3298
 30
0.0
 11
40.409429
 21
35.3298
 31
0.0
  0
LINE
  5
6A0
100
AcDbEntity
  8
BORDER
  6
CONTINUOUS
 62
     2
100
AcDbLine
 39
96.0
 10
40.878229
 20
35.3298
 30
0.0
 11
40.878229
 21
35.3298
 31
0.0
  0
LINE
  5
6A1
100
AcDbEntity
  8
BORDER
  6
CONTINUOUS
 62
     2
100
AcDbLine
 39
96.0
 10
41.346929
 20
35.3298
 30
0.0
 11
41.346929
 21
35.3298
 31
0.0
  0
LINE
  5
6A2
100
AcDbEntity
  8
BORDER
  6
CONTINUOUS
 62
     2
100
AcDbLine
 39
96.0
 10
39.706329
 20
34.8611
 30
0.0
 11
39.706329
 21
34.8611
 31
0.0
  0
LINE
  5
6A3
100
AcDbEntity
  8
BORDER
  6
CONTINUOUS
 62
     2
100
AcDbLine
 39
96.0
 10
40.175129
 20
34.8611
 30
0.0
 11
40.175129
 21
34.8611
 31
0.0
  0
LINE
  5
6A4
100
AcDbEntity
  8
BORDER
  6
CONTINUOUS
 62
     2
100
AcDbLine
 39
96.0
 10
40.643829
 20
34.8611
 30
0.0
 11
40.643829
 21
34.8611
 31
0.0
  0
LINE
  5
6A5
100
AcDbEntity
  8
BORDER
  6
CONTINUOUS
 62
     2
100
AcDbLine
 39
96.0
 10
41.112629
 20
34.8611
 30
0.0
 11
41.112629
 21
34.8611
 31
0.0
  0
LINE
  5
6A6
100
AcDbEntity
  8
BORDER
  6
CONTINUOUS
 62
     2
100
AcDbLine
 39
96.0
 10
39.940729
 20
34.3923
 30
0.0
 11
39.940729
 21
34.3923
 31
0.0
  0
LINE
  5
6A7
100
AcDbEntity
  8
BORDER
  6
CONTINUOUS
 62
     2
100
AcDbLine
 39
96.0
 10
40.409429
 20
34.3923
 30
0.0
 11
40.409429
 21
34.3923
 31
0.0
  0
LINE
  5
6A8
100
AcDbEntity
  8
BORDER
  6
CONTINUOUS
 62
     2
100
AcDbLine
 39
96.0
 10
40.878229
 20
34.3923
 30
0.0
 11
40.878229
 21
34.3923
 31
0.0
  0
LINE
  5
6A9
100
AcDbEntity
  8
BORDER
  6
CONTINUOUS
 62
     2
100
AcDbLine
 39
96.0
 10
41.346929
 20
34.3923
 30
0.0
 11
41.346929
 21
34.3923
 31
0.0
  0
LINE
  5
6AA
100
AcDbEntity
  8
BORDER
  6
CONTINUOUS
 62
     2
100
AcDbLine
 39
96.0
 10
39.706329
 20
33.9236
 30
0.0
 11
39.706329
 21
33.9236
 31
0.0
  0
LINE
  5
6AB
100
AcDbEntity
  8
BORDER
  6
CONTINUOUS
 62
     2
100
AcDbLine
 39
96.0
 10
40.175129
 20
33.9236
 30
0.0
 11
40.175129
 21
33.9236
 31
0.0
  0
LINE
  5
6AC
100
AcDbEntity
  8
BORDER
  6
CONTINUOUS
 62
     2
100
AcDbLine
 39
96.0
 10
40.643829
 20
33.9236
 30
0.0
 11
40.643829
 21
33.9236
 31
0.0
  0
LINE
  5
6AD
100
AcDbEntity
  8
BORDER
  6
CONTINUOUS
 62
     2
100
AcDbLine
 39
96.0
 10
41.112629
 20
33.9236
 30
0.0
 11
41.112629
 21
33.9236
 31
0.0
  0
LINE
  5
6AE
100
AcDbEntity
  8
BORDER
  6
CONTINUOUS
 62
     2
100
AcDbLine
 39
96.0
 10
39.940729
 20
33.4548
 30
0.0
 11
39.940729
 21
33.4548
 31
0.0
  0
LINE
  5
6AF
100
AcDbEntity
  8
BORDER
  6
CONTINUOUS
 62
     2
100
AcDbLine
 39
96.0
 10
40.409429
 20
33.4548
 30
0.0
 11
40.409429
 21
33.4548
 31
0.0
  0
LINE
  5
6B0
100
AcDbEntity
  8
BORDER
  6
CONTINUOUS
 62
     2
100
AcDbLine
 39
96.0
 10
40.878229
 20
33.4548
 30
0.0
 11
40.878229
 21
33.4548
 31
0.0
  0
LINE
  5
6B1
100
AcDbEntity
  8
BORDER
  6
CONTINUOUS
 62
     2
100
AcDbLine
 39
96.0
 10
41.346929
 20
33.4548
 30
0.0
 11
41.346929
 21
33.4548
 31
0.0
  0
LINE
  5
6B2
100
AcDbEntity
  8
BORDER
  6
CONTINUOUS
 62
     2
100
AcDbLine
 39
96.0
 10
39.706329
 20
32.9861
 30
0.0
 11
39.706329
 21
32.9861
 31
0.0
  0
LINE
  5
6B3
100
AcDbEntity
  8
BORDER
  6
CONTINUOUS
 62
     2
100
AcDbLine
 39
96.0
 10
40.175129
 20
32.9861
 30
0.0
 11
40.175129
 21
32.9861
 31
0.0
  0
LINE
  5
6B4
100
AcDbEntity
  8
BORDER
  6
CONTINUOUS
 62
     2
100
AcDbLine
 39
96.0
 10
40.643829
 20
32.9861
 30
0.0
 11
40.643829
 21
32.9861
 31
0.0
  0
LINE
  5
6B5
100
AcDbEntity
  8
BORDER
  6
CONTINUOUS
 62
     2
100
AcDbLine
 39
96.0
 10
41.112629
 20
32.9861
 30
0.0
 11
41.112629
 21
32.9861
 31
0.0
  0
LINE
  5
6B6
100
AcDbEntity
  8
BORDER
  6
CONTINUOUS
 62
     2
100
AcDbLine
 39
96.0
 10
39.940729
 20
32.5173
 30
0.0
 11
39.940729
 21
32.5173
 31
0.0
  0
LINE
  5
6B7
100
AcDbEntity
  8
BORDER
  6
CONTINUOUS
 62
     2
100
AcDbLine
 39
96.0
 10
40.409429
 20
32.5173
 30
0.0
 11
40.409429
 21
32.5173
 31
0.0
  0
LINE
  5
6B8
100
AcDbEntity
  8
BORDER
  6
CONTINUOUS
 62
     2
100
AcDbLine
 39
96.0
 10
40.878229
 20
32.5173
 30
0.0
 11
40.878229
 21
32.5173
 31
0.0
  0
LINE
  5
6B9
100
AcDbEntity
  8
BORDER
  6
CONTINUOUS
 62
     2
100
AcDbLine
 39
96.0
 10
41.346929
 20
32.5173
 30
0.0
 11
41.346929
 21
32.5173
 31
0.0
  0
LINE
  5
6BA
100
AcDbEntity
  8
BORDER
  6
CONTINUOUS
 62
     2
100
AcDbLine
 39
96.0
 10
39.706329
 20
32.0486
 30
0.0
 11
39.706329
 21
32.0486
 31
0.0
  0
LINE
  5
6BB
100
AcDbEntity
  8
BORDER
  6
CONTINUOUS
 62
     2
100
AcDbLine
 39
96.0
 10
40.175129
 20
32.0486
 30
0.0
 11
40.175129
 21
32.0486
 31
0.0
  0
LINE
  5
6BC
100
AcDbEntity
  8
BORDER
  6
CONTINUOUS
 62
     2
100
AcDbLine
 39
96.0
 10
40.643829
 20
32.0486
 30
0.0
 11
40.643829
 21
32.0486
 31
0.0
  0
LINE
  5
6BD
100
AcDbEntity
  8
BORDER
  6
CONTINUOUS
 62
     2
100
AcDbLine
 39
96.0
 10
41.112629
 20
32.0486
 30
0.0
 11
41.112629
 21
32.0486
 31
0.0
  0
LINE
  5
6BE
100
AcDbEntity
  8
BORDER
  6
CONTINUOUS
 62
     2
100
AcDbLine
 39
96.0
 10
39.940729
 20
31.5798
 30
0.0
 11
39.940729
 21
31.5798
 31
0.0
  0
LINE
  5
6BF
100
AcDbEntity
  8
BORDER
  6
CONTINUOUS
 62
     2
100
AcDbLine
 39
96.0
 10
40.409429
 20
31.5798
 30
0.0
 11
40.409429
 21
31.5798
 31
0.0
  0
LINE
  5
6C0
100
AcDbEntity
  8
BORDER
  6
CONTINUOUS
 62
     2
100
AcDbLine
 39
96.0
 10
40.878229
 20
31.5798
 30
0.0
 11
40.878229
 21
31.5798
 31
0.0
  0
LINE
  5
6C1
100
AcDbEntity
  8
BORDER
  6
CONTINUOUS
 62
     2
100
AcDbLine
 39
96.0
 10
41.346929
 20
31.5798
 30
0.0
 11
41.346929
 21
31.5798
 31
0.0
  0
ARC
  5
6C2
100
AcDbEntity
  8
BORDER
  6
CONTINUOUS
 62
     3
100
AcDbCircle
 39
96.0
 10
44.493929
 20
39.5681
 30
0.0
 40
3.0
100
AcDbArc
 50
0.0
 51
69.239774
  0
ARC
  5
6C3
100
AcDbEntity
  8
BORDER
  6
CONTINUOUS
 62
     3
100
AcDbCircle
 39
96.0
 10
44.493929
 20
39.5681
 30
0.0
 40
3.0
100
AcDbArc
 50
180.0
 51
0.0
  0
LINE
  5
6C4
100
AcDbEntity
  8
BORDER
  6
CONTINUOUS
 62
     3
100
AcDbLine
 39
96.0
 10
39.493929
 20
44.001892
 30
0.0
 11
39.493929
 21
24.6844
 31
0.0
  0
LINE
  5
6C5
100
AcDbEntity
  8
BORDER
  6
CONTINUOUS
 62
     3
100
AcDbLine
 39
96.0
 10
41.368929
 20
44.001892
 30
0.0
 11
41.368929
 21
24.6844
 31
0.0
  0
LINE
  5
6C6
100
AcDbEntity
  8
BORDER
  6
CONTINUOUS
 62
    15
100
AcDbLine
 39
96.0
 10
45.278327
 20
1.8272
 30
0.0
 11
45.278327
 21
40.566491
 31
0.0
  0
LINE
  5
6C7
100
AcDbEntity
  8
BORDER
  6
CONTINUOUS
 62
     3
100
AcDbLine
 39
96.0
 10
47.618929
 20
24.6844
 30
0.0
 11
47.618929
 21
44.001892
 31
0.0
  0
LINE
  5
6C8
100
AcDbEntity
  8
BORDER
  6
CONTINUOUS
 62
     3
100
AcDbLine
 39
96.0
 10
49.493929
 20
24.5457
 30
0.0
 11
49.494517
 21
44.001892
 31
0.0
  0
LEADER
  5
6C9
100
AcDbEntity
  8
0
  6
CONTINUOUS
 62
    13
100
AcDbLeader
  3
STANDARD
 76
     3
 10
43.101402
 20
24.525631
 30
0.0
 10
53.920254
 20
29.054314
 30
0.0
 10
56.799406
 20
29.054314
 30
0.0
 77
   256
1001
ACAD
1000
DSTYLE
1002
{
1070
    78
1070
     1
1070
   140
1040
6.0
1070
    73
1070
     0
1070
    77
1070
     1
1070
    40
1040
12.0
1070
    42
1040
6.0
1070
    44
1040
0.0
1070
    43
1040
24.0
1070
   176
1070
    13
1070
   141
1040
3.0
1070
    41
1040
0.125
1002
}
  0
TEXT
  5
6CA
100
AcDbEntity
  8
0
  6
CONTINUOUS
100
AcDbText
 10
10.32532
 20
10.760919
 30
0.0
 40
1.125
  1
REQUIRED, PER DESIGN)
  7
ROMANS
100
AcDbText
  0
TEXT
  5
6CB
100
AcDbEntity
  8
0
  6
CONTINUOUS
100
AcDbText
 10
0.661376
 20
12.537509
 30
0.0
 40
1.125
  1
VERT. REINF. (MIN #4 @ 30" O.C.
  7
ROMANS
100
AcDbText
  0
LEADER
  5
6CC
100
AcDbEntity
  8
0
  6
CONTINUOUS
 62
    13
100
AcDbLeader
  3
STANDARD
 76
     3
 10
45.286153
 20
3.360168
 30
0.0
 10
34.684125
 20
13.076763
 30
0.0
 10
31.804974
 20
13.076763
 30
0.0
 77
   256
211
-1.0
221
0.0
231
0.0
1001
ACAD
1000
DSTYLE
1002
{
1070
    78
1070
     1
1070
   140
1040
6.0
1070
    73
1070
     0
1070
    77
1070
     1
1070
    40
1040
12.0
1070
    42
1040
6.0
1070
    44
1040
0.0
1070
    43
1040
24.0
1070
   176
1070
    13
1070
   141
1040
3.0
1070
    41
1040
0.125
1002
}
  0
TEXT
  5
6CD
100
AcDbEntity
  8
0
  6
CONTINUOUS
100
AcDbText
 10
9.855507
 20
29.330531
 30
0.0
 40
1.125
  1
REQUIRED, PER DESIGN)
  7
ROMANS
100
AcDbText
  0
TEXT
  5
6CE
100
AcDbEntity
  8
0
  6
CONTINUOUS
100
AcDbText
 10
7.20815
 20
37.106551
 30
0.0
 40
1.125
  1
SURFACE. CAN BE MADE AT ANY 
  7
ROMANS
100
AcDbText
  0
TEXT
  5
6CF
100
AcDbEntity
  8
0
  6
CONTINUOUS
100
AcDbText
 10
7.20815
 20
44.532972
 30
0.0
 40
1.125
  1
ROUTE OR SAWCUT CAVITIES
  7
ROMANS
100
AcDbText
  0
TEXT
  5
6D0
100
AcDbEntity
  8
0
  6
CONTINUOUS
100
AcDbText
 10
7.20815
 20
42.750631
 30
0.0
 40
1.125
  1
FOR ROMEX OF CONDUIT AND
  7
ROMANS
100
AcDbText
  0
TEXT
  5
6D1
100
AcDbEntity
  8
0
  6
CONTINUOUS
100
AcDbText
 10
7.20815
 20
40.819762
 30
0.0
 40
1.125
  1
PLACE WITH ADHESIVE FOAM. 
  7
ROMANS
100
AcDbText
  0
TEXT
  5
6D2
100
AcDbEntity
  8
0
  6
CONTINUOUS
100
AcDbText
 10
7.20815
 20
39.037421
 30
0.0
 40
1.125
  1
SET 1.25" MIN. FROM FINISHED
  7
ROMANS
100
AcDbText
  0
TEXT
  5
6D3
100
AcDbEntity
  8
0
  6
CONTINUOUS
100
AcDbText
 10
5.684716
 20
19.725714
 30
0.0
 40
1.125
  1
MADE AT ANY LOCATION
  7
ROMANS
100
AcDbText
  0
TEXT
  5
6D4
100
AcDbEntity
  8
0
  6
CONTINUOUS
100
AcDbText
 10
5.684716
 20
21.508054
 30
0.0
 40
1.125
  1
WITH ADHESIVE FOAM. CAN BE
  7
ROMANS
100
AcDbText
  0
TEXT
  5
6D5
100
AcDbEntity
  8
0
  6
CONTINUOUS
100
AcDbText
 10
5.684716
 20
23.438924
 30
0.0
 40
1.125
  1
FOR ELECT. BOXES AND PLACE
  7
ROMANS
100
AcDbText
  0
TEXT
  5
6D6
100
AcDbEntity
  8
0
  6
CONTINUOUS
100
AcDbText
 10
5.684716
 20
25.221265
 30
0.0
 40
1.125
  1
ROUTE OR SAW CUT CAVITIES
  7
ROMANS
100
AcDbText
  0
TEXT
  5
6D7
100
AcDbEntity
  8
0
  6
CONTINUOUS
100
AcDbText
 10
-0.214286
 20
31.276512
 30
0.0
 40
1.125
  1
HORIZ. REINF. (MIN #4 @ 30" O.C.
  7
ROMANS
100
AcDbText
  0
TEXT
  5
6D8
100
AcDbEntity
  8
0
  6
CONTINUOUS
100
AcDbText
 10
7.20815
 20
35.175682
 30
0.0
 40
1.125
  1
LOCATION
  7
ROMANS
100
AcDbText
  0
LEADER
  5
6D9
100
AcDbEntity
  8
0
  6
CONTINUOUS
 62
    13
100
AcDbLeader
  3
STANDARD
 76
     3
 10
39.493929
 20
36.7361
 30
0.0
 10
34.684125
 20
45.1589
 30
0.0
 10
31.804974
 20
45.1589
 30
0.0
 77
   256
211
-1.0
221
0.0
231
0.0
1001
ACAD
1000
DSTYLE
1002
{
1070
    78
1070
     1
1070
   140
1040
6.0
1070
    73
1070
     0
1070
    77
1070
     1
1070
    40
1040
12.0
1070
    42
1040
6.0
1070
    44
1040
0.0
1070
    43
1040
24.0
1070
   176
1070
    13
1070
   141
1040
3.0
1070
    41
1040
0.125
1002
}
  0
LEADER
  5
6DA
100
AcDbEntity
  8
0
  6
CONTINUOUS
 62
    13
100
AcDbLeader
  3
STANDARD
 76
     3
 10
39.493929
 20
22.343341
 30
0.0
 10
34.783812
 20
25.591128
 30
0.0
 10
31.904661
 20
25.591128
 30
0.0
 77
   256
211
-1.0
221
0.0
231
0.0
1001
ACAD
1000
DSTYLE
1002
{
1070
    78
1070
     1
1070
   140
1040
6.0
1070
    73
1070
     0
1070
    77
1070
     1
1070
    40
1040
12.0
1070
    42
1040
6.0
1070
    44
1040
0.0
1070
    43
1040
24.0
1070
   176
1070
    13
1070
   141
1040
3.0
1070
    41
1040
0.125
1002
}
  0
LEADER
  5
6DB
100
AcDbEntity
  8
0
  6
CONTINUOUS
 62
    13
100
AcDbLeader
  3
STANDARD
 76
     3
 10
43.850792
 20
38.296916
 30
0.0
 10
34.214312
 20
31.646375
 30
0.0
 10
31.33516
 20
31.646375
 30
0.0
 77
   256
211
-1.0
221
0.0
231
0.0
1001
ACAD
1000
DSTYLE
1002
{
1070
    78
1070
     1
1070
   140
1040
6.0
1070
    73
1070
     0
1070
    77
1070
     1
1070
    40
1040
12.0
1070
    42
1040
6.0
1070
    44
1040
0.0
1070
    43
1040
24.0
1070
   176
1070
    13
1070
   141
1040
3.0
1070
    41
1040
0.125
1002
}
  0
LWPOLYLINE
  5
6DC
100
AcDbEntity
  8
0
  6
CONTINUOUS
100
AcDbPolyline
 90
        4
 70
     0
 43
0.0
 10
39.493929
 20
20.468341
 10
41.118929
 20
20.468341
 10
41.118929
 20
24.218341
 10
39.493929
 20
24.218341
  0
LWPOLYLINE
  5
6DD
100
AcDbEntity
  8
0
  6
CONTINUOUS
100
AcDbPolyline
 90
        4
 70
     1
 43
0.0
 10
39.493929
 20
20.593341
 10
40.993929
 20
20.593341
 10
40.993929
 20
24.093341
 10
39.493929
 20
24.093341
  0
LWPOLYLINE
  5
6DE
100
AcDbEntity
  8
0
  6
CONTINUOUS
100
AcDbPolyline
 90
        4
 70
     1
 43
0.0
 10
39.493929
 20
36.2361
 10
40.993929
 20
36.2361
 10
40.993929
 20
37.2361
 10
39.493929
 20
37.2361
  0
TEXT
  5
6DF
100
AcDbEntity
  8
0
  6
CONTINUOUS
100
AcDbText
 10
56.984494
 20
28.684451
 30
0.0
 40
1.125
  1
ENT/ EMT CONDUIT
  7
ROMANS
100
AcDbText
  0
TEXT
  5
6E0
100
AcDbEntity
  8
0
  6
CONTINUOUS
100
AcDbText
 10
56.884518
 20
35.776718
 30
0.0
 40
1.125
  1
RASTA WALL
  7
ROMANS
100
AcDbText
  0
LEADER
  5
6E1
100
AcDbEntity
  8
0
  6
CONTINUOUS
 62
    13
100
AcDbLeader
  3
STANDARD
 76
     3
 10
49.243202
 20
30.220995
 30
0.0
 10
53.820279
 20
36.146581
 30
0.0
 10
56.69943
 20
36.146581
 30
0.0
 77
   256
1001
ACAD
1000
DSTYLE
1002
{
1070
    78
1070
     1
1070
   140
1040
6.0
1070
    73
1070
     0
1070
    77
1070
     1
1070
    40
1040
12.0
1070
    42
1040
6.0
1070
    44
1040
0.0
1070
    43
1040
24.0
1070
   176
1070
    13
1070
   141
1040
3.0
1070
    41
1040
0.125
1002
}
  0
ENDBLK
  5
6E3
100
AcDbEntity
  8
0
100
AcDbBlockEnd
  0
ENDSEC
  0
SECTION
  2
ENTITIES
  0
TEXT
  5
30B
100
AcDbEntity
  8
DRAWING
100
AcDbText
 10
14.546215
 20
4.961431
 30
0.0
 40
2.5
  1
ELECTRICAL ATTACHMENTS
  7
TITLE
 72
     1
 11
40.915262
 21
4.961431
 31
0.0
100
AcDbText
  0
CIRCLE
  5
6E7
100
AcDbEntity
  8
0
  6
CONTINUOUS
100
AcDbCircle
 39
96.0
 10
40.140653
 20
38.713126
 30
0.0
 40
0.565309
  0
LINE
  5
6E8
100
AcDbEntity
  8
BORDER
  6
CONTINUOUS
 62
     2
100
AcDbLine
 39
96.0
 10
38.417358
 20
57.444296
 30
0.0
 11
38.417358
 21
57.444296
 31
0.0
  0
LINE
  5
6E9
100
AcDbEntity
  8
BORDER
  6
CONTINUOUS
 62
     2
100
AcDbLine
 39
96.0
 10
37.948558
 20
57.444296
 30
0.0
 11
37.948558
 21
57.444296
 31
0.0
  0
LINE
  5
6EA
100
AcDbEntity
  8
BORDER
  6
CONTINUOUS
 62
     2
100
AcDbLine
 39
96.0
 10
37.479858
 20
57.444296
 30
0.0
 11
37.479858
 21
57.444296
 31
0.0
  0
LINE
  5
6EB
100
AcDbEntity
  8
BORDER
  6
CONTINUOUS
 62
     2
100
AcDbLine
 39
96.0
 10
38.651758
 20
57.913096
 30
0.0
 11
38.651758
 21
57.913096
 31
0.0
  0
LINE
  5
6EC
100
AcDbEntity
  8
BORDER
  6
CONTINUOUS
 62
     2
100
AcDbLine
 39
96.0
 10
38.182958
 20
57.913096
 30
0.0
 11
38.182958
 21
57.913096
 31
0.0
  0
LINE
  5
6ED
100
AcDbEntity
  8
BORDER
  6
CONTINUOUS
 62
     2
100
AcDbLine
 39
96.0
 10
37.714258
 20
57.913096
 30
0.0
 11
37.714258
 21
57.913096
 31
0.0
  0
LINE
  5
6EE
100
AcDbEntity
  8
BORDER
  6
CONTINUOUS
 62
     2
100
AcDbLine
 39
96.0
 10
37.245458
 20
57.913096
 30
0.0
 11
37.245458
 21
57.913096
 31
0.0
  0
LINE
  5
6EF
100
AcDbEntity
  8
BORDER
  6
CONTINUOUS
 62
     2
100
AcDbLine
 39
96.0
 10
38.417358
 20
56.506796
 30
0.0
 11
38.417358
 21
56.506796
 31
0.0
  0
LINE
  5
6F0
100
AcDbEntity
  8
BORDER
  6
CONTINUOUS
 62
     2
100
AcDbLine
 39
96.0
 10
37.948558
 20
56.506796
 30
0.0
 11
37.948558
 21
56.506796
 31
0.0
  0
LINE
  5
6F1
100
AcDbEntity
  8
BORDER
  6
CONTINUOUS
 62
     2
100
AcDbLine
 39
96.0
 10
37.479858
 20
56.506796
 30
0.0
 11
37.479858
 21
56.506796
 31
0.0
  0
LINE
  5
6F2
100
AcDbEntity
  8
BORDER
  6
CONTINUOUS
 62
     2
100
AcDbLine
 39
96.0
 10
38.651758
 20
56.975596
 30
0.0
 11
38.651758
 21
56.975596
 31
0.0
  0
LINE
  5
6F3
100
AcDbEntity
  8
BORDER
  6
CONTINUOUS
 62
     2
100
AcDbLine
 39
96.0
 10
38.182958
 20
56.975596
 30
0.0
 11
38.182958
 21
56.975596
 31
0.0
  0
LINE
  5
6F4
100
AcDbEntity
  8
BORDER
  6
CONTINUOUS
 62
     2
100
AcDbLine
 39
96.0
 10
37.714258
 20
56.975596
 30
0.0
 11
37.714258
 21
56.975596
 31
0.0
  0
LINE
  5
6F5
100
AcDbEntity
  8
BORDER
  6
CONTINUOUS
 62
     2
100
AcDbLine
 39
96.0
 10
37.245458
 20
56.975596
 30
0.0
 11
37.245458
 21
56.975596
 31
0.0
  0
LINE
  5
6F6
100
AcDbEntity
  8
BORDER
  6
CONTINUOUS
 62
     2
100
AcDbLine
 39
96.0
 10
38.651758
 20
56.038096
 30
0.0
 11
38.651758
 21
56.038096
 31
0.0
  0
LINE
  5
6F7
100
AcDbEntity
  8
BORDER
  6
CONTINUOUS
 62
     2
100
AcDbLine
 39
96.0
 10
38.182958
 20
56.038096
 30
0.0
 11
38.182958
 21
56.038096
 31
0.0
  0
LINE
  5
6F8
100
AcDbEntity
  8
BORDER
  6
CONTINUOUS
 62
     2
100
AcDbLine
 39
96.0
 10
37.714258
 20
56.038096
 30
0.0
 11
37.714258
 21
56.038096
 31
0.0
  0
LINE
  5
6F9
100
AcDbEntity
  8
BORDER
  6
CONTINUOUS
 62
     2
100
AcDbLine
 39
96.0
 10
37.245458
 20
56.038096
 30
0.0
 11
37.245458
 21
56.038096
 31
0.0
  0
LINE
  5
6FA
100
AcDbEntity
  8
BORDER
  6
CONTINUOUS
 62
     1
100
AcDbLine
 39
96.0
 10
45.072858
 20
56.927396
 30
0.0
 11
45.011358
 21
56.938096
 31
0.0
  0
LINE
  5
6FB
100
AcDbEntity
  8
BORDER
  6
CONTINUOUS
 62
     2
100
AcDbLine
 39
96.0
 10
46.092358
 20
55.929597
 30
0.0
 11
46.092358
 21
55.929597
 31
0.0
  0
LINE
  5
6FC
100
AcDbEntity
  8
BORDER
  6
CONTINUOUS
 62
     2
100
AcDbLine
 39
96.0
 10
47.029858
 20
55.929597
 30
0.0
 11
47.029858
 21
55.929597
 31
0.0
  0
LINE
  5
6FD
100
AcDbEntity
  8
BORDER
  6
CONTINUOUS
 62
     2
100
AcDbLine
 39
96.0
 10
45.448558
 20
56.378747
 30
0.0
 11
45.448558
 21
56.378747
 31
0.0
  0
LINE
  5
6FE
100
AcDbEntity
  8
BORDER
  6
CONTINUOUS
 62
     2
100
AcDbLine
 39
96.0
 10
45.917358
 20
56.378747
 30
0.0
 11
45.917358
 21
56.378747
 31
0.0
  0
LINE
  5
6FF
100
AcDbEntity
  8
BORDER
  6
CONTINUOUS
 62
     2
100
AcDbLine
 39
96.0
 10
46.386058
 20
56.378747
 30
0.0
 11
46.386058
 21
56.378747
 31
0.0
  0
LINE
  5
700
100
AcDbEntity
  8
BORDER
  6
CONTINUOUS
 62
     2
100
AcDbLine
 39
96.0
 10
46.854858
 20
56.378747
 30
0.0
 11
46.854858
 21
56.378747
 31
0.0
  0
LINE
  5
701
100
AcDbEntity
  8
BORDER
  6
CONTINUOUS
 62
     2
100
AcDbLine
 39
96.0
 10
45.682958
 20
55.910047
 30
0.0
 11
45.682958
 21
55.910047
 31
0.0
  0
LINE
  5
702
100
AcDbEntity
  8
BORDER
  6
CONTINUOUS
 62
     2
100
AcDbLine
 39
96.0
 10
46.151758
 20
55.910047
 30
0.0
 11
46.151758
 21
55.910047
 31
0.0
  0
LINE
  5
703
100
AcDbEntity
  8
BORDER
  6
CONTINUOUS
 62
     2
100
AcDbLine
 39
96.0
 10
46.620458
 20
55.910047
 30
0.0
 11
46.620458
 21
55.910047
 31
0.0
  0
LINE
  5
704
100
AcDbEntity
  8
BORDER
  6
CONTINUOUS
 62
     2
100
AcDbLine
 39
96.0
 10
45.448558
 20
57.316247
 30
0.0
 11
45.448558
 21
57.316247
 31
0.0
  0
LINE
  5
705
100
AcDbEntity
  8
BORDER
  6
CONTINUOUS
 62
     2
100
AcDbLine
 39
96.0
 10
45.917358
 20
57.316247
 30
0.0
 11
45.917358
 21
57.316247
 31
0.0
  0
LINE
  5
706
100
AcDbEntity
  8
BORDER
  6
CONTINUOUS
 62
     2
100
AcDbLine
 39
96.0
 10
46.386058
 20
57.316247
 30
0.0
 11
46.386058
 21
57.316247
 31
0.0
  0
LINE
  5
707
100
AcDbEntity
  8
BORDER
  6
CONTINUOUS
 62
     2
100
AcDbLine
 39
96.0
 10
46.854858
 20
57.316247
 30
0.0
 11
46.854858
 21
57.316247
 31
0.0
  0
LINE
  5
708
100
AcDbEntity
  8
BORDER
  6
CONTINUOUS
 62
     2
100
AcDbLine
 39
96.0
 10
45.682958
 20
56.847547
 30
0.0
 11
45.682958
 21
56.847547
 31
0.0
  0
LINE
  5
709
100
AcDbEntity
  8
BORDER
  6
CONTINUOUS
 62
     2
100
AcDbLine
 39
96.0
 10
46.151758
 20
56.847547
 30
0.0
 11
46.151758
 21
56.847547
 31
0.0
  0
LINE
  5
70A
100
AcDbEntity
  8
BORDER
  6
CONTINUOUS
 62
     2
100
AcDbLine
 39
96.0
 10
46.620458
 20
56.847547
 30
0.0
 11
46.620458
 21
56.847547
 31
0.0
  0
LINE
  5
70B
100
AcDbEntity
  8
BORDER
  6
CONTINUOUS
 62
     2
100
AcDbLine
 39
96.0
 10
45.682958
 20
57.785047
 30
0.0
 11
45.682958
 21
57.785047
 31
0.0
  0
LINE
  5
70C
100
AcDbEntity
  8
BORDER
  6
CONTINUOUS
 62
     2
100
AcDbLine
 39
96.0
 10
46.151758
 20
57.785047
 30
0.0
 11
46.151758
 21
57.785047
 31
0.0
  0
LINE
  5
70D
100
AcDbEntity
  8
BORDER
  6
CONTINUOUS
 62
     2
100
AcDbLine
 39
96.0
 10
46.620458
 20
57.785047
 30
0.0
 11
46.620458
 21
57.785047
 31
0.0
  0
LINE
  5
70E
100
AcDbEntity
  8
BORDER
  6
CONTINUOUS
 62
     3
100
AcDbLine
 39
96.0
 10
48.166158
 20
58.089496
 30
0.0
 11
43.736458
 21
58.089496
 31
0.0
  0
LINE
  5
70F
100
AcDbEntity
  8
BORDER
  6
CONTINUOUS
 62
     3
100
AcDbLine
 39
96.0
 10
40.310658
 20
58.089496
 30
0.0
 11
41.137558
 21
59.743296
 31
0.0
  0
LINE
  5
710
100
AcDbEntity
  8
BORDER
  6
CONTINUOUS
 62
     3
100
AcDbLine
 39
96.0
 10
40.310658
 20
58.089496
 30
0.0
 11
35.880958
 21
58.089496
 31
0.0
  0
LINE
  5
711
100
AcDbEntity
  8
BORDER
  6
CONTINUOUS
 62
     3
100
AcDbLine
 39
96.0
 10
43.086558
 20
56.435796
 30
0.0
 11
43.736458
 21
58.089496
 31
0.0
  0
LINE
  5
712
100
AcDbEntity
  8
BORDER
  6
CONTINUOUS
 62
     3
100
AcDbLine
 39
96.0
 10
41.137558
 20
59.743296
 30
0.0
 11
43.086558
 21
56.435796
 31
0.0
  0
CIRCLE
  5
713
100
AcDbEntity
  8
0
  6
CONTINUOUS
100
AcDbCircle
 39
96.0
 10
37.335251
 20
51.061707
 30
0.0
 40
0.138805
  0
CIRCLE
  5
714
100
AcDbEntity
  8
0
  6
CONTINUOUS
100
AcDbCircle
 39
96.0
 10
37.777629
 20
51.061707
 30
0.0
 40
0.138805
  0
CIRCLE
  5
715
100
AcDbEntity
  8
0
  6
CONTINUOUS
100
AcDbCircle
 39
96.0
 10
38.202992
 20
51.061707
 30
0.0
 40
0.138805
  0
CIRCLE
  5
716
100
AcDbEntity
  8
0
  6
CONTINUOUS
100
AcDbCircle
 39
96.0
 10
37.335251
 20
50.602703
 30
0.0
 40
0.138805
  0
CIRCLE
  5
717
100
AcDbEntity
  8
0
  6
CONTINUOUS
100
AcDbCircle
 39
96.0
 10
37.777629
 20
50.602703
 30
0.0
 40
0.138805
  0
LINE
  5
718
100
AcDbEntity
  8
BORDER
  6
CONTINUOUS
 62
     3
100
AcDbLine
 39
96.0
 10
37.033058
 20
34.680946
 30
0.0
 11
37.033058
 21
23.772005
 31
0.0
  0
CIRCLE
  5
719
100
AcDbEntity
  8
0
  6
CONTINUOUS
100
AcDbCircle
 39
96.0
 10
38.202992
 20
50.602703
 30
0.0
 40
0.138805
  0
LINE
  5
71A
100
AcDbEntity
  8
0
  6
CONTINUOUS
 62
     1
100
AcDbLine
 39
90.0
 10
41.904684
 20
46.253792
 30
0.0
 11
41.870993
 21
46.301765
 31
0.0
  0
ARC
  5
71B
100
AcDbEntity
  8
BORDER
  6
CONTINUOUS
 62
     3
100
AcDbCircle
 39
96.0
 10
42.033058
 20
53.655705
 30
0.0
 40
3.0
100
AcDbArc
 50
69.8843
 51
180.0
  0
LINE
  5
71C
100
AcDbEntity
  8
BORDER
  6
CONTINUOUS
 62
     2
100
AcDbLine
 39
96.0
 10
46.620458
 20
56.320656
 30
0.0
 11
46.620458
 21
56.320656
 31
0.0
  0
LINE
  5
71D
100
AcDbEntity
  8
BORDER
  6
CONTINUOUS
 62
     2
100
AcDbLine
 39
96.0
 10
46.151758
 20
56.320656
 30
0.0
 11
46.151758
 21
56.320656
 31
0.0
  0
LINE
  5
71E
100
AcDbEntity
  8
BORDER
  6
CONTINUOUS
 62
     2
100
AcDbLine
 39
96.0
 10
45.682958
 20
56.320656
 30
0.0
 11
45.682958
 21
56.320656
 31
0.0
  0
LINE
  5
71F
100
AcDbEntity
  8
BORDER
  6
CONTINUOUS
 62
     2
100
AcDbLine
 39
96.0
 10
46.620458
 20
55.383156
 30
0.0
 11
46.620458
 21
55.383156
 31
0.0
  0
LINE
  5
720
100
AcDbEntity
  8
BORDER
  6
CONTINUOUS
 62
     2
100
AcDbLine
 39
96.0
 10
46.151758
 20
55.383156
 30
0.0
 11
46.151758
 21
55.383156
 31
0.0
  0
LINE
  5
721
100
AcDbEntity
  8
BORDER
  6
CONTINUOUS
 62
     2
100
AcDbLine
 39
96.0
 10
45.682958
 20
55.383156
 30
0.0
 11
45.682958
 21
55.383156
 31
0.0
  0
LINE
  5
722
100
AcDbEntity
  8
BORDER
  6
CONTINUOUS
 62
     2
100
AcDbLine
 39
96.0
 10
46.854858
 20
55.851856
 30
0.0
 11
46.854858
 21
55.851856
 31
0.0
  0
LINE
  5
723
100
AcDbEntity
  8
BORDER
  6
CONTINUOUS
 62
     2
100
AcDbLine
 39
96.0
 10
46.386058
 20
55.851856
 30
0.0
 11
46.386058
 21
55.851856
 31
0.0
  0
LINE
  5
724
100
AcDbEntity
  8
BORDER
  6
CONTINUOUS
 62
     2
100
AcDbLine
 39
96.0
 10
45.917358
 20
55.851856
 30
0.0
 11
45.917358
 21
55.851856
 31
0.0
  0
LINE
  5
725
100
AcDbEntity
  8
BORDER
  6
CONTINUOUS
 62
     2
100
AcDbLine
 39
96.0
 10
45.448558
 20
55.851856
 30
0.0
 11
45.448558
 21
55.851856
 31
0.0
  0
LINE
  5
726
100
AcDbEntity
  8
BORDER
  6
CONTINUOUS
 62
     2
100
AcDbLine
 39
96.0
 10
46.620458
 20
54.445656
 30
0.0
 11
46.620458
 21
54.445656
 31
0.0
  0
LINE
  5
727
100
AcDbEntity
  8
BORDER
  6
CONTINUOUS
 62
     2
100
AcDbLine
 39
96.0
 10
46.151758
 20
54.445656
 30
0.0
 11
46.151758
 21
54.445656
 31
0.0
  0
LINE
  5
728
100
AcDbEntity
  8
BORDER
  6
CONTINUOUS
 62
     2
100
AcDbLine
 39
96.0
 10
45.682958
 20
54.445656
 30
0.0
 11
45.682958
 21
54.445656
 31
0.0
  0
LINE
  5
729
100
AcDbEntity
  8
BORDER
  6
CONTINUOUS
 62
     2
100
AcDbLine
 39
96.0
 10
46.854858
 20
54.914356
 30
0.0
 11
46.854858
 21
54.914356
 31
0.0
  0
LINE
  5
72A
100
AcDbEntity
  8
BORDER
  6
CONTINUOUS
 62
     2
100
AcDbLine
 39
96.0
 10
46.386058
 20
54.914356
 30
0.0
 11
46.386058
 21
54.914356
 31
0.0
  0
LINE
  5
72B
100
AcDbEntity
  8
BORDER
  6
CONTINUOUS
 62
     2
100
AcDbLine
 39
96.0
 10
45.917358
 20
54.914356
 30
0.0
 11
45.917358
 21
54.914356
 31
0.0
  0
LINE
  5
72C
100
AcDbEntity
  8
BORDER
  6
CONTINUOUS
 62
     2
100
AcDbLine
 39
96.0
 10
45.448558
 20
54.914356
 30
0.0
 11
45.448558
 21
54.914356
 31
0.0
  0
LINE
  5
72D
100
AcDbEntity
  8
BORDER
  6
CONTINUOUS
 62
     2
100
AcDbLine
 39
96.0
 10
46.620458
 20
53.239205
 30
0.0
 11
46.620458
 21
53.239205
 31
0.0
  0
LINE
  5
72E
100
AcDbEntity
  8
BORDER
  6
CONTINUOUS
 62
     2
100
AcDbLine
 39
96.0
 10
46.151758
 20
53.239205
 30
0.0
 11
46.151758
 21
53.239205
 31
0.0
  0
LINE
  5
72F
100
AcDbEntity
  8
BORDER
  6
CONTINUOUS
 62
     2
100
AcDbLine
 39
96.0
 10
45.682958
 20
53.239205
 30
0.0
 11
45.682958
 21
53.239205
 31
0.0
  0
LINE
  5
730
100
AcDbEntity
  8
BORDER
  6
CONTINUOUS
 62
     2
100
AcDbLine
 39
96.0
 10
45.917358
 20
53.707905
 30
0.0
 11
45.917358
 21
53.707905
 31
0.0
  0
LINE
  5
731
100
AcDbEntity
  8
BORDER
  6
CONTINUOUS
 62
     2
100
AcDbLine
 39
96.0
 10
45.448558
 20
53.707905
 30
0.0
 11
45.448558
 21
53.707905
 31
0.0
  0
LINE
  5
732
100
AcDbEntity
  8
BORDER
  6
CONTINUOUS
 62
     2
100
AcDbLine
 39
96.0
 10
46.620458
 20
52.301705
 30
0.0
 11
46.620458
 21
52.301705
 31
0.0
  0
LINE
  5
733
100
AcDbEntity
  8
BORDER
  6
CONTINUOUS
 62
     2
100
AcDbLine
 39
96.0
 10
46.151758
 20
52.301705
 30
0.0
 11
46.151758
 21
52.301705
 31
0.0
  0
LINE
  5
734
100
AcDbEntity
  8
BORDER
  6
CONTINUOUS
 62
     2
100
AcDbLine
 39
96.0
 10
45.682958
 20
52.301705
 30
0.0
 11
45.682958
 21
52.301705
 31
0.0
  0
LINE
  5
735
100
AcDbEntity
  8
BORDER
  6
CONTINUOUS
 62
     2
100
AcDbLine
 39
96.0
 10
46.854858
 20
52.770405
 30
0.0
 11
46.854858
 21
52.770405
 31
0.0
  0
LINE
  5
736
100
AcDbEntity
  8
BORDER
  6
CONTINUOUS
 62
     2
100
AcDbLine
 39
96.0
 10
46.386058
 20
52.770405
 30
0.0
 11
46.386058
 21
52.770405
 31
0.0
  0
LINE
  5
737
100
AcDbEntity
  8
BORDER
  6
CONTINUOUS
 62
     2
100
AcDbLine
 39
96.0
 10
45.917358
 20
52.770405
 30
0.0
 11
45.917358
 21
52.770405
 31
0.0
  0
LINE
  5
738
100
AcDbEntity
  8
BORDER
  6
CONTINUOUS
 62
     2
100
AcDbLine
 39
96.0
 10
45.448558
 20
52.770405
 30
0.0
 11
45.448558
 21
52.770405
 31
0.0
  0
LINE
  5
739
100
AcDbEntity
  8
BORDER
  6
CONTINUOUS
 62
     2
100
AcDbLine
 39
96.0
 10
46.620458
 20
51.364205
 30
0.0
 11
46.620458
 21
51.364205
 31
0.0
  0
LINE
  5
73A
100
AcDbEntity
  8
BORDER
  6
CONTINUOUS
 62
     2
100
AcDbLine
 39
96.0
 10
46.151758
 20
51.364205
 30
0.0
 11
46.151758
 21
51.364205
 31
0.0
  0
LINE
  5
73B
100
AcDbEntity
  8
BORDER
  6
CONTINUOUS
 62
     2
100
AcDbLine
 39
96.0
 10
45.682958
 20
51.364205
 30
0.0
 11
45.682958
 21
51.364205
 31
0.0
  0
LINE
  5
73C
100
AcDbEntity
  8
BORDER
  6
CONTINUOUS
 62
     2
100
AcDbLine
 39
96.0
 10
46.854858
 20
51.832905
 30
0.0
 11
46.854858
 21
51.832905
 31
0.0
  0
LINE
  5
73D
100
AcDbEntity
  8
BORDER
  6
CONTINUOUS
 62
     2
100
AcDbLine
 39
96.0
 10
46.386058
 20
51.832905
 30
0.0
 11
46.386058
 21
51.832905
 31
0.0
  0
LINE
  5
73E
100
AcDbEntity
  8
BORDER
  6
CONTINUOUS
 62
     2
100
AcDbLine
 39
96.0
 10
45.917358
 20
51.832905
 30
0.0
 11
45.917358
 21
51.832905
 31
0.0
  0
LINE
  5
73F
100
AcDbEntity
  8
BORDER
  6
CONTINUOUS
 62
     2
100
AcDbLine
 39
96.0
 10
45.448558
 20
51.832905
 30
0.0
 11
45.448558
 21
51.832905
 31
0.0
  0
LINE
  5
740
100
AcDbEntity
  8
BORDER
  6
CONTINUOUS
 62
     2
100
AcDbLine
 39
96.0
 10
46.620458
 20
50.426705
 30
0.0
 11
46.620458
 21
50.426705
 31
0.0
  0
LINE
  5
741
100
AcDbEntity
  8
BORDER
  6
CONTINUOUS
 62
     2
100
AcDbLine
 39
96.0
 10
46.151758
 20
50.426705
 30
0.0
 11
46.151758
 21
50.426705
 31
0.0
  0
LINE
  5
742
100
AcDbEntity
  8
BORDER
  6
CONTINUOUS
 62
     2
100
AcDbLine
 39
96.0
 10
45.682958
 20
50.426705
 30
0.0
 11
45.682958
 21
50.426705
 31
0.0
  0
LINE
  5
743
100
AcDbEntity
  8
BORDER
  6
CONTINUOUS
 62
     2
100
AcDbLine
 39
96.0
 10
46.854858
 20
50.895405
 30
0.0
 11
46.854858
 21
50.895405
 31
0.0
  0
LINE
  5
744
100
AcDbEntity
  8
BORDER
  6
CONTINUOUS
 62
     2
100
AcDbLine
 39
96.0
 10
46.386058
 20
50.895405
 30
0.0
 11
46.386058
 21
50.895405
 31
0.0
  0
LINE
  5
745
100
AcDbEntity
  8
BORDER
  6
CONTINUOUS
 62
     2
100
AcDbLine
 39
96.0
 10
45.917358
 20
50.895405
 30
0.0
 11
45.917358
 21
50.895405
 31
0.0
  0
LINE
  5
746
100
AcDbEntity
  8
BORDER
  6
CONTINUOUS
 62
     2
100
AcDbLine
 39
96.0
 10
45.448558
 20
50.895405
 30
0.0
 11
45.448558
 21
50.895405
 31
0.0
  0
LINE
  5
747
100
AcDbEntity
  8
BORDER
  6
CONTINUOUS
 62
     2
100
AcDbLine
 39
96.0
 10
47.029858
 20
54.465205
 30
0.0
 11
47.029858
 21
54.465205
 31
0.0
  0
LINE
  5
748
100
AcDbEntity
  8
BORDER
  6
CONTINUOUS
 62
     2
100
AcDbLine
 39
96.0
 10
47.029858
 20
53.996405
 30
0.0
 11
47.029858
 21
53.996405
 31
0.0
  0
LINE
  5
749
100
AcDbEntity
  8
BORDER
  6
CONTINUOUS
 62
     2
100
AcDbLine
 39
96.0
 10
47.029858
 20
53.527705
 30
0.0
 11
47.029858
 21
53.527705
 31
0.0
  0
LINE
  5
74A
100
AcDbEntity
  8
BORDER
  6
CONTINUOUS
 62
     2
100
AcDbLine
 39
96.0
 10
47.029858
 20
53.058905
 30
0.0
 11
47.029858
 21
53.058905
 31
0.0
  0
LINE
  5
74B
100
AcDbEntity
  8
BORDER
  6
CONTINUOUS
 62
     2
100
AcDbLine
 39
96.0
 10
46.561158
 20
54.230805
 30
0.0
 11
46.561158
 21
54.230805
 31
0.0
  0
LINE
  5
74C
100
AcDbEntity
  8
BORDER
  6
CONTINUOUS
 62
     2
100
AcDbLine
 39
96.0
 10
46.561158
 20
53.762005
 30
0.0
 11
46.561158
 21
53.762005
 31
0.0
  0
LINE
  5
74D
100
AcDbEntity
  8
BORDER
  6
CONTINUOUS
 62
     2
100
AcDbLine
 39
96.0
 10
46.092358
 20
54.465205
 30
0.0
 11
46.092358
 21
54.465205
 31
0.0
  0
LINE
  5
74E
100
AcDbEntity
  8
BORDER
  6
CONTINUOUS
 62
     3
100
AcDbLine
 39
96.0
 10
47.033058
 20
38.772005
 30
0.0
 11
45.158058
 21
38.772005
 31
0.0
  0
LINE
  5
74F
100
AcDbEntity
  8
BORDER
  6
CONTINUOUS
 62
     3
100
AcDbLine
 39
96.0
 10
38.908058
 20
38.772005
 30
0.0
 11
37.033058
 21
38.772005
 31
0.0
  0
LINE
  5
750
100
AcDbEntity
  8
BORDER
  6
CONTINUOUS
 62
     3
100
AcDbLine
 39
96.0
 10
37.033058
 20
38.772005
 30
0.0
 11
38.908058
 21
38.772005
 31
0.0
  0
ARC
  5
751
100
AcDbEntity
  8
BORDER
  6
CONTINUOUS
 62
     3
100
AcDbCircle
 39
96.0
 10
42.033058
 20
38.772005
 30
0.0
 40
3.0
100
AcDbArc
 50
0.0
 51
180.0
  0
LINE
  5
752
100
AcDbEntity
  8
BORDER
  6
CONTINUOUS
 62
     3
100
AcDbLine
 39
96.0
 10
45.158058
 20
38.772005
 30
0.0
 11
47.033058
 21
38.772005
 31
0.0
  0
LINE
  5
753
100
AcDbEntity
  8
BORDER
  6
CONTINUOUS
 62
     1
100
AcDbLine
 39
96.0
 10
40.296458
 20
44.907905
 30
0.0
 11
40.355358
 21
44.929205
 31
0.0
  0
LINE
  5
754
100
AcDbEntity
  8
BORDER
  6
CONTINUOUS
 62
     1
100
AcDbLine
 39
96.0
 10
41.151458
 20
42.558605
 30
0.0
 11
41.210358
 21
42.580005
 31
0.0
  0
LINE
  5
755
100
AcDbEntity
  8
BORDER
  6
CONTINUOUS
 62
     1
100
AcDbLine
 39
96.0
 10
43.500858
 20
43.413705
 30
0.0
 11
43.559658
 21
43.435105
 31
0.0
  0
LINE
  5
756
100
AcDbEntity
  8
BORDER
  6
CONTINUOUS
 62
     1
100
AcDbLine
 39
96.0
 10
44.355558
 20
41.064505
 30
0.0
 11
44.414458
 21
41.085905
 31
0.0
  0
LINE
  5
757
100
AcDbEntity
  8
BORDER
  6
CONTINUOUS
 62
     1
100
AcDbLine
 39
96.0
 10
39.491858
 20
42.301805
 30
0.0
 11
39.527658
 21
42.353005
 31
0.0
  0
LINE
  5
758
100
AcDbEntity
  8
BORDER
  6
CONTINUOUS
 62
     1
100
AcDbLine
 39
96.0
 10
40.925858
 20
44.349705
 30
0.0
 11
40.961758
 21
44.400905
 31
0.0
  0
LINE
  5
759
100
AcDbEntity
  8
BORDER
  6
CONTINUOUS
 62
     1
100
AcDbLine
 39
96.0
 10
42.973758
 20
42.915805
 30
0.0
 11
43.009658
 21
42.967005
 31
0.0
  0
LINE
  5
75A
100
AcDbEntity
  8
BORDER
  6
CONTINUOUS
 62
     1
100
AcDbLine
 39
96.0
 10
44.407858
 20
44.963705
 30
0.0
 11
44.443758
 21
45.014805
 31
0.0
  0
LINE
  5
75B
100
AcDbEntity
  8
BORDER
  6
CONTINUOUS
 62
     1
100
AcDbLine
 39
96.0
 10
45.021358
 20
41.482005
 30
0.0
 11
45.057258
 21
41.533205
 31
0.0
  0
LINE
  5
75C
100
AcDbEntity
  8
BORDER
  6
CONTINUOUS
 62
     1
100
AcDbLine
 39
96.0
 10
39.742058
 20
41.491705
 30
0.0
 11
39.752758
 21
41.553305
 31
0.0
  0
LINE
  5
75D
100
AcDbEntity
  8
BORDER
  6
CONTINUOUS
 62
     1
100
AcDbLine
 39
96.0
 10
40.176158
 20
43.953805
 30
0.0
 11
40.186858
 21
44.015305
 31
0.0
  0
LINE
  5
75E
100
AcDbEntity
  8
BORDER
  6
CONTINUOUS
 62
     1
100
AcDbLine
 39
96.0
 10
42.637858
 20
43.519705
 30
0.0
 11
42.648558
 21
43.581205
 31
0.0
  0
LINE
  5
75F
100
AcDbEntity
  8
BORDER
  6
CONTINUOUS
 62
     1
100
AcDbLine
 39
96.0
 10
44.665658
 20
40.623605
 30
0.0
 11
44.676358
 21
40.685105
 31
0.0
  0
LINE
  5
760
100
AcDbEntity
  8
BORDER
  6
CONTINUOUS
 62
     1
100
AcDbLine
 39
96.0
 10
45.099758
 20
43.085605
 30
0.0
 11
45.110458
 21
43.147105
 31
0.0
  0
LINE
  5
761
100
AcDbEntity
  8
BORDER
  6
CONTINUOUS
 62
     2
100
AcDbLine
 39
96.0
 10
37.245458
 20
45.198705
 30
0.0
 11
37.245458
 21
45.198705
 31
0.0
  0
LINE
  5
762
100
AcDbEntity
  8
BORDER
  6
CONTINUOUS
 62
     2
100
AcDbLine
 39
96.0
 10
37.714258
 20
45.198705
 30
0.0
 11
37.714258
 21
45.198705
 31
0.0
  0
LINE
  5
763
100
AcDbEntity
  8
BORDER
  6
CONTINUOUS
 62
     2
100
AcDbLine
 39
96.0
 10
38.182958
 20
45.198705
 30
0.0
 11
38.182958
 21
45.198705
 31
0.0
  0
LINE
  5
764
100
AcDbEntity
  8
BORDER
  6
CONTINUOUS
 62
     2
100
AcDbLine
 39
96.0
 10
38.651758
 20
45.198705
 30
0.0
 11
38.651758
 21
45.198705
 31
0.0
  0
LINE
  5
765
100
AcDbEntity
  8
BORDER
  6
CONTINUOUS
 62
     2
100
AcDbLine
 39
96.0
 10
37.479858
 20
44.729905
 30
0.0
 11
37.479858
 21
44.729905
 31
0.0
  0
LINE
  5
766
100
AcDbEntity
  8
BORDER
  6
CONTINUOUS
 62
     2
100
AcDbLine
 39
96.0
 10
37.948558
 20
44.729905
 30
0.0
 11
37.948558
 21
44.729905
 31
0.0
  0
LINE
  5
767
100
AcDbEntity
  8
BORDER
  6
CONTINUOUS
 62
     2
100
AcDbLine
 39
96.0
 10
38.417358
 20
44.729905
 30
0.0
 11
38.417358
 21
44.729905
 31
0.0
  0
LINE
  5
768
100
AcDbEntity
  8
BORDER
  6
CONTINUOUS
 62
     2
100
AcDbLine
 39
96.0
 10
38.886058
 20
44.729905
 30
0.0
 11
38.886058
 21
44.729905
 31
0.0
  0
LINE
  5
769
100
AcDbEntity
  8
BORDER
  6
CONTINUOUS
 62
     2
100
AcDbLine
 39
96.0
 10
37.245458
 20
44.261205
 30
0.0
 11
37.245458
 21
44.261205
 31
0.0
  0
LINE
  5
76A
100
AcDbEntity
  8
BORDER
  6
CONTINUOUS
 62
     2
100
AcDbLine
 39
96.0
 10
37.714258
 20
44.261205
 30
0.0
 11
37.714258
 21
44.261205
 31
0.0
  0
LINE
  5
76B
100
AcDbEntity
  8
BORDER
  6
CONTINUOUS
 62
     2
100
AcDbLine
 39
96.0
 10
38.182958
 20
44.261205
 30
0.0
 11
38.182958
 21
44.261205
 31
0.0
  0
LINE
  5
76C
100
AcDbEntity
  8
BORDER
  6
CONTINUOUS
 62
     2
100
AcDbLine
 39
96.0
 10
38.651758
 20
44.261205
 30
0.0
 11
38.651758
 21
44.261205
 31
0.0
  0
LINE
  5
76D
100
AcDbEntity
  8
BORDER
  6
CONTINUOUS
 62
     2
100
AcDbLine
 39
96.0
 10
37.479858
 20
43.792405
 30
0.0
 11
37.479858
 21
43.792405
 31
0.0
  0
LINE
  5
76E
100
AcDbEntity
  8
BORDER
  6
CONTINUOUS
 62
     2
100
AcDbLine
 39
96.0
 10
37.948558
 20
43.792405
 30
0.0
 11
37.948558
 21
43.792405
 31
0.0
  0
LINE
  5
76F
100
AcDbEntity
  8
BORDER
  6
CONTINUOUS
 62
     2
100
AcDbLine
 39
96.0
 10
38.417358
 20
43.792405
 30
0.0
 11
38.417358
 21
43.792405
 31
0.0
  0
LINE
  5
770
100
AcDbEntity
  8
BORDER
  6
CONTINUOUS
 62
     2
100
AcDbLine
 39
96.0
 10
38.886058
 20
43.792405
 30
0.0
 11
38.886058
 21
43.792405
 31
0.0
  0
LINE
  5
771
100
AcDbEntity
  8
BORDER
  6
CONTINUOUS
 62
     2
100
AcDbLine
 39
96.0
 10
37.245458
 20
43.323705
 30
0.0
 11
37.245458
 21
43.323705
 31
0.0
  0
LINE
  5
772
100
AcDbEntity
  8
BORDER
  6
CONTINUOUS
 62
     2
100
AcDbLine
 39
96.0
 10
37.714258
 20
43.323705
 30
0.0
 11
37.714258
 21
43.323705
 31
0.0
  0
LINE
  5
773
100
AcDbEntity
  8
BORDER
  6
CONTINUOUS
 62
     2
100
AcDbLine
 39
96.0
 10
38.182958
 20
43.323705
 30
0.0
 11
38.182958
 21
43.323705
 31
0.0
  0
LINE
  5
774
100
AcDbEntity
  8
BORDER
  6
CONTINUOUS
 62
     2
100
AcDbLine
 39
96.0
 10
38.651758
 20
43.323705
 30
0.0
 11
38.651758
 21
43.323705
 31
0.0
  0
LINE
  5
775
100
AcDbEntity
  8
BORDER
  6
CONTINUOUS
 62
     2
100
AcDbLine
 39
96.0
 10
37.479858
 20
42.854905
 30
0.0
 11
37.479858
 21
42.854905
 31
0.0
  0
LINE
  5
776
100
AcDbEntity
  8
BORDER
  6
CONTINUOUS
 62
     2
100
AcDbLine
 39
96.0
 10
37.948558
 20
42.854905
 30
0.0
 11
37.948558
 21
42.854905
 31
0.0
  0
LINE
  5
777
100
AcDbEntity
  8
BORDER
  6
CONTINUOUS
 62
     2
100
AcDbLine
 39
96.0
 10
38.417358
 20
42.854905
 30
0.0
 11
38.417358
 21
42.854905
 31
0.0
  0
LINE
  5
778
100
AcDbEntity
  8
BORDER
  6
CONTINUOUS
 62
     2
100
AcDbLine
 39
96.0
 10
38.886058
 20
42.854905
 30
0.0
 11
38.886058
 21
42.854905
 31
0.0
  0
LINE
  5
779
100
AcDbEntity
  8
BORDER
  6
CONTINUOUS
 62
     2
100
AcDbLine
 39
96.0
 10
37.245458
 20
42.386205
 30
0.0
 11
37.245458
 21
42.386205
 31
0.0
  0
LINE
  5
77A
100
AcDbEntity
  8
BORDER
  6
CONTINUOUS
 62
     2
100
AcDbLine
 39
96.0
 10
37.714258
 20
42.386205
 30
0.0
 11
37.714258
 21
42.386205
 31
0.0
  0
LINE
  5
77B
100
AcDbEntity
  8
BORDER
  6
CONTINUOUS
 62
     2
100
AcDbLine
 39
96.0
 10
38.182958
 20
42.386205
 30
0.0
 11
38.182958
 21
42.386205
 31
0.0
  0
LINE
  5
77C
100
AcDbEntity
  8
BORDER
  6
CONTINUOUS
 62
     2
100
AcDbLine
 39
96.0
 10
38.651758
 20
42.386205
 30
0.0
 11
38.651758
 21
42.386205
 31
0.0
  0
LINE
  5
77D
100
AcDbEntity
  8
BORDER
  6
CONTINUOUS
 62
     2
100
AcDbLine
 39
96.0
 10
37.479858
 20
41.917405
 30
0.0
 11
37.479858
 21
41.917405
 31
0.0
  0
LINE
  5
77E
100
AcDbEntity
  8
BORDER
  6
CONTINUOUS
 62
     2
100
AcDbLine
 39
96.0
 10
37.948558
 20
41.917405
 30
0.0
 11
37.948558
 21
41.917405
 31
0.0
  0
LINE
  5
77F
100
AcDbEntity
  8
BORDER
  6
CONTINUOUS
 62
     2
100
AcDbLine
 39
96.0
 10
38.417358
 20
41.917405
 30
0.0
 11
38.417358
 21
41.917405
 31
0.0
  0
LINE
  5
780
100
AcDbEntity
  8
BORDER
  6
CONTINUOUS
 62
     2
100
AcDbLine
 39
96.0
 10
38.886058
 20
41.917405
 30
0.0
 11
38.886058
 21
41.917405
 31
0.0
  0
LINE
  5
781
100
AcDbEntity
  8
BORDER
  6
CONTINUOUS
 62
     2
100
AcDbLine
 39
96.0
 10
37.245458
 20
41.448705
 30
0.0
 11
37.245458
 21
41.448705
 31
0.0
  0
LINE
  5
782
100
AcDbEntity
  8
BORDER
  6
CONTINUOUS
 62
     2
100
AcDbLine
 39
96.0
 10
37.714258
 20
41.448705
 30
0.0
 11
37.714258
 21
41.448705
 31
0.0
  0
LINE
  5
783
100
AcDbEntity
  8
BORDER
  6
CONTINUOUS
 62
     2
100
AcDbLine
 39
96.0
 10
38.182958
 20
41.448705
 30
0.0
 11
38.182958
 21
41.448705
 31
0.0
  0
LINE
  5
784
100
AcDbEntity
  8
BORDER
  6
CONTINUOUS
 62
     2
100
AcDbLine
 39
96.0
 10
38.651758
 20
41.448705
 30
0.0
 11
38.651758
 21
41.448705
 31
0.0
  0
LINE
  5
785
100
AcDbEntity
  8
BORDER
  6
CONTINUOUS
 62
     2
100
AcDbLine
 39
96.0
 10
37.479858
 20
40.979905
 30
0.0
 11
37.479858
 21
40.979905
 31
0.0
  0
LINE
  5
786
100
AcDbEntity
  8
BORDER
  6
CONTINUOUS
 62
     2
100
AcDbLine
 39
96.0
 10
37.948558
 20
40.979905
 30
0.0
 11
37.948558
 21
40.979905
 31
0.0
  0
LINE
  5
787
100
AcDbEntity
  8
BORDER
  6
CONTINUOUS
 62
     2
100
AcDbLine
 39
96.0
 10
38.417358
 20
40.979905
 30
0.0
 11
38.417358
 21
40.979905
 31
0.0
  0
LINE
  5
788
100
AcDbEntity
  8
BORDER
  6
CONTINUOUS
 62
     2
100
AcDbLine
 39
96.0
 10
38.886058
 20
40.979905
 30
0.0
 11
38.886058
 21
40.979905
 31
0.0
  0
LINE
  5
789
100
AcDbEntity
  8
BORDER
  6
CONTINUOUS
 62
     2
100
AcDbLine
 39
96.0
 10
37.245458
 20
40.511205
 30
0.0
 11
37.245458
 21
40.511205
 31
0.0
  0
LINE
  5
78A
100
AcDbEntity
  8
BORDER
  6
CONTINUOUS
 62
     2
100
AcDbLine
 39
96.0
 10
37.714258
 20
40.511205
 30
0.0
 11
37.714258
 21
40.511205
 31
0.0
  0
LINE
  5
78B
100
AcDbEntity
  8
BORDER
  6
CONTINUOUS
 62
     2
100
AcDbLine
 39
96.0
 10
38.182958
 20
40.511205
 30
0.0
 11
38.182958
 21
40.511205
 31
0.0
  0
LINE
  5
78C
100
AcDbEntity
  8
BORDER
  6
CONTINUOUS
 62
     2
100
AcDbLine
 39
96.0
 10
38.651758
 20
40.511205
 30
0.0
 11
38.651758
 21
40.511205
 31
0.0
  0
LINE
  5
78D
100
AcDbEntity
  8
BORDER
  6
CONTINUOUS
 62
     2
100
AcDbLine
 39
96.0
 10
37.479858
 20
40.042405
 30
0.0
 11
37.479858
 21
40.042405
 31
0.0
  0
LINE
  5
78E
100
AcDbEntity
  8
BORDER
  6
CONTINUOUS
 62
     2
100
AcDbLine
 39
96.0
 10
37.948558
 20
40.042405
 30
0.0
 11
37.948558
 21
40.042405
 31
0.0
  0
LINE
  5
78F
100
AcDbEntity
  8
BORDER
  6
CONTINUOUS
 62
     2
100
AcDbLine
 39
96.0
 10
38.417358
 20
40.042405
 30
0.0
 11
38.417358
 21
40.042405
 31
0.0
  0
LINE
  5
790
100
AcDbEntity
  8
BORDER
  6
CONTINUOUS
 62
     2
100
AcDbLine
 39
96.0
 10
38.886058
 20
40.042405
 30
0.0
 11
38.886058
 21
40.042405
 31
0.0
  0
LINE
  5
791
100
AcDbEntity
  8
BORDER
  6
CONTINUOUS
 62
     2
100
AcDbLine
 39
96.0
 10
37.245458
 20
39.573705
 30
0.0
 11
37.245458
 21
39.573705
 31
0.0
  0
LINE
  5
792
100
AcDbEntity
  8
BORDER
  6
CONTINUOUS
 62
     2
100
AcDbLine
 39
96.0
 10
37.714258
 20
39.573705
 30
0.0
 11
37.714258
 21
39.573705
 31
0.0
  0
LINE
  5
793
100
AcDbEntity
  8
BORDER
  6
CONTINUOUS
 62
     2
100
AcDbLine
 39
96.0
 10
38.182958
 20
39.573705
 30
0.0
 11
38.182958
 21
39.573705
 31
0.0
  0
LINE
  5
794
100
AcDbEntity
  8
BORDER
  6
CONTINUOUS
 62
     2
100
AcDbLine
 39
96.0
 10
38.651758
 20
39.573705
 30
0.0
 11
38.651758
 21
39.573705
 31
0.0
  0
LINE
  5
795
100
AcDbEntity
  8
BORDER
  6
CONTINUOUS
 62
     2
100
AcDbLine
 39
96.0
 10
37.479858
 20
39.104905
 30
0.0
 11
37.479858
 21
39.104905
 31
0.0
  0
LINE
  5
796
100
AcDbEntity
  8
BORDER
  6
CONTINUOUS
 62
     2
100
AcDbLine
 39
96.0
 10
37.948558
 20
39.104905
 30
0.0
 11
37.948558
 21
39.104905
 31
0.0
  0
LINE
  5
797
100
AcDbEntity
  8
BORDER
  6
CONTINUOUS
 62
     2
100
AcDbLine
 39
96.0
 10
38.417358
 20
39.104905
 30
0.0
 11
38.417358
 21
39.104905
 31
0.0
  0
LINE
  5
798
100
AcDbEntity
  8
BORDER
  6
CONTINUOUS
 62
     2
100
AcDbLine
 39
96.0
 10
38.886058
 20
39.104905
 30
0.0
 11
38.886058
 21
39.104905
 31
0.0
  0
LINE
  5
799
100
AcDbEntity
  8
BORDER
  6
CONTINUOUS
 62
     2
100
AcDbLine
 39
96.0
 10
45.214258
 20
45.198705
 30
0.0
 11
45.214258
 21
45.198705
 31
0.0
  0
LINE
  5
79A
100
AcDbEntity
  8
BORDER
  6
CONTINUOUS
 62
     2
100
AcDbLine
 39
96.0
 10
45.682958
 20
45.198705
 30
0.0
 11
45.682958
 21
45.198705
 31
0.0
  0
LINE
  5
79B
100
AcDbEntity
  8
BORDER
  6
CONTINUOUS
 62
     2
100
AcDbLine
 39
96.0
 10
46.151758
 20
45.198705
 30
0.0
 11
46.151758
 21
45.198705
 31
0.0
  0
LINE
  5
79C
100
AcDbEntity
  8
BORDER
  6
CONTINUOUS
 62
     2
100
AcDbLine
 39
96.0
 10
46.620458
 20
45.198705
 30
0.0
 11
46.620458
 21
45.198705
 31
0.0
  0
LINE
  5
79D
100
AcDbEntity
  8
BORDER
  6
CONTINUOUS
 62
     2
100
AcDbLine
 39
96.0
 10
45.448558
 20
44.729905
 30
0.0
 11
45.448558
 21
44.729905
 31
0.0
  0
LINE
  5
79E
100
AcDbEntity
  8
BORDER
  6
CONTINUOUS
 62
     2
100
AcDbLine
 39
96.0
 10
45.917358
 20
44.729905
 30
0.0
 11
45.917358
 21
44.729905
 31
0.0
  0
LINE
  5
79F
100
AcDbEntity
  8
BORDER
  6
CONTINUOUS
 62
     2
100
AcDbLine
 39
96.0
 10
46.386058
 20
44.729905
 30
0.0
 11
46.386058
 21
44.729905
 31
0.0
  0
LINE
  5
7A0
100
AcDbEntity
  8
BORDER
  6
CONTINUOUS
 62
     2
100
AcDbLine
 39
96.0
 10
46.854858
 20
44.729905
 30
0.0
 11
46.854858
 21
44.729905
 31
0.0
  0
LINE
  5
7A1
100
AcDbEntity
  8
BORDER
  6
CONTINUOUS
 62
     2
100
AcDbLine
 39
96.0
 10
45.214258
 20
44.261205
 30
0.0
 11
45.214258
 21
44.261205
 31
0.0
  0
LINE
  5
7A2
100
AcDbEntity
  8
BORDER
  6
CONTINUOUS
 62
     2
100
AcDbLine
 39
96.0
 10
45.682958
 20
44.261205
 30
0.0
 11
45.682958
 21
44.261205
 31
0.0
  0
LINE
  5
7A3
100
AcDbEntity
  8
BORDER
  6
CONTINUOUS
 62
     2
100
AcDbLine
 39
96.0
 10
46.151758
 20
44.261205
 30
0.0
 11
46.151758
 21
44.261205
 31
0.0
  0
LINE
  5
7A4
100
AcDbEntity
  8
BORDER
  6
CONTINUOUS
 62
     2
100
AcDbLine
 39
96.0
 10
46.620458
 20
44.261205
 30
0.0
 11
46.620458
 21
44.261205
 31
0.0
  0
LINE
  5
7A5
100
AcDbEntity
  8
BORDER
  6
CONTINUOUS
 62
     2
100
AcDbLine
 39
96.0
 10
45.448558
 20
43.792405
 30
0.0
 11
45.448558
 21
43.792405
 31
0.0
  0
LINE
  5
7A6
100
AcDbEntity
  8
BORDER
  6
CONTINUOUS
 62
     2
100
AcDbLine
 39
96.0
 10
45.917358
 20
43.792405
 30
0.0
 11
45.917358
 21
43.792405
 31
0.0
  0
LINE
  5
7A7
100
AcDbEntity
  8
BORDER
  6
CONTINUOUS
 62
     2
100
AcDbLine
 39
96.0
 10
46.386058
 20
43.792405
 30
0.0
 11
46.386058
 21
43.792405
 31
0.0
  0
LINE
  5
7A8
100
AcDbEntity
  8
BORDER
  6
CONTINUOUS
 62
     2
100
AcDbLine
 39
96.0
 10
46.854858
 20
43.792405
 30
0.0
 11
46.854858
 21
43.792405
 31
0.0
  0
LINE
  5
7A9
100
AcDbEntity
  8
BORDER
  6
CONTINUOUS
 62
     2
100
AcDbLine
 39
96.0
 10
45.214258
 20
43.323705
 30
0.0
 11
45.214258
 21
43.323705
 31
0.0
  0
LINE
  5
7AA
100
AcDbEntity
  8
BORDER
  6
CONTINUOUS
 62
     2
100
AcDbLine
 39
96.0
 10
45.682958
 20
43.323705
 30
0.0
 11
45.682958
 21
43.323705
 31
0.0
  0
LINE
  5
7AB
100
AcDbEntity
  8
BORDER
  6
CONTINUOUS
 62
     2
100
AcDbLine
 39
96.0
 10
46.151758
 20
43.323705
 30
0.0
 11
46.151758
 21
43.323705
 31
0.0
  0
LINE
  5
7AC
100
AcDbEntity
  8
BORDER
  6
CONTINUOUS
 62
     2
100
AcDbLine
 39
96.0
 10
46.620458
 20
43.323705
 30
0.0
 11
46.620458
 21
43.323705
 31
0.0
  0
LINE
  5
7AD
100
AcDbEntity
  8
BORDER
  6
CONTINUOUS
 62
     2
100
AcDbLine
 39
96.0
 10
45.448558
 20
42.854905
 30
0.0
 11
45.448558
 21
42.854905
 31
0.0
  0
LINE
  5
7AE
100
AcDbEntity
  8
BORDER
  6
CONTINUOUS
 62
     2
100
AcDbLine
 39
96.0
 10
45.917358
 20
42.854905
 30
0.0
 11
45.917358
 21
42.854905
 31
0.0
  0
LINE
  5
7AF
100
AcDbEntity
  8
BORDER
  6
CONTINUOUS
 62
     2
100
AcDbLine
 39
96.0
 10
46.386058
 20
42.854905
 30
0.0
 11
46.386058
 21
42.854905
 31
0.0
  0
LINE
  5
7B0
100
AcDbEntity
  8
BORDER
  6
CONTINUOUS
 62
     2
100
AcDbLine
 39
96.0
 10
46.854858
 20
42.854905
 30
0.0
 11
46.854858
 21
42.854905
 31
0.0
  0
LINE
  5
7B1
100
AcDbEntity
  8
BORDER
  6
CONTINUOUS
 62
     2
100
AcDbLine
 39
96.0
 10
45.214258
 20
42.386205
 30
0.0
 11
45.214258
 21
42.386205
 31
0.0
  0
LINE
  5
7B2
100
AcDbEntity
  8
BORDER
  6
CONTINUOUS
 62
     2
100
AcDbLine
 39
96.0
 10
45.682958
 20
42.386205
 30
0.0
 11
45.682958
 21
42.386205
 31
0.0
  0
LINE
  5
7B3
100
AcDbEntity
  8
BORDER
  6
CONTINUOUS
 62
     2
100
AcDbLine
 39
96.0
 10
46.151758
 20
42.386205
 30
0.0
 11
46.151758
 21
42.386205
 31
0.0
  0
LINE
  5
7B4
100
AcDbEntity
  8
BORDER
  6
CONTINUOUS
 62
     2
100
AcDbLine
 39
96.0
 10
46.620458
 20
42.386205
 30
0.0
 11
46.620458
 21
42.386205
 31
0.0
  0
LINE
  5
7B5
100
AcDbEntity
  8
BORDER
  6
CONTINUOUS
 62
     2
100
AcDbLine
 39
96.0
 10
45.448558
 20
41.917405
 30
0.0
 11
45.448558
 21
41.917405
 31
0.0
  0
LINE
  5
7B6
100
AcDbEntity
  8
BORDER
  6
CONTINUOUS
 62
     2
100
AcDbLine
 39
96.0
 10
45.917358
 20
41.917405
 30
0.0
 11
45.917358
 21
41.917405
 31
0.0
  0
LINE
  5
7B7
100
AcDbEntity
  8
BORDER
  6
CONTINUOUS
 62
     2
100
AcDbLine
 39
96.0
 10
46.386058
 20
41.917405
 30
0.0
 11
46.386058
 21
41.917405
 31
0.0
  0
LINE
  5
7B8
100
AcDbEntity
  8
BORDER
  6
CONTINUOUS
 62
     2
100
AcDbLine
 39
96.0
 10
46.854858
 20
41.917405
 30
0.0
 11
46.854858
 21
41.917405
 31
0.0
  0
LINE
  5
7B9
100
AcDbEntity
  8
BORDER
  6
CONTINUOUS
 62
     2
100
AcDbLine
 39
96.0
 10
45.214258
 20
41.448705
 30
0.0
 11
45.214258
 21
41.448705
 31
0.0
  0
LINE
  5
7BA
100
AcDbEntity
  8
BORDER
  6
CONTINUOUS
 62
     2
100
AcDbLine
 39
96.0
 10
45.682958
 20
41.448705
 30
0.0
 11
45.682958
 21
41.448705
 31
0.0
  0
LINE
  5
7BB
100
AcDbEntity
  8
BORDER
  6
CONTINUOUS
 62
     2
100
AcDbLine
 39
96.0
 10
46.151758
 20
41.448705
 30
0.0
 11
46.151758
 21
41.448705
 31
0.0
  0
LINE
  5
7BC
100
AcDbEntity
  8
BORDER
  6
CONTINUOUS
 62
     2
100
AcDbLine
 39
96.0
 10
46.620458
 20
41.448705
 30
0.0
 11
46.620458
 21
41.448705
 31
0.0
  0
LINE
  5
7BD
100
AcDbEntity
  8
BORDER
  6
CONTINUOUS
 62
     2
100
AcDbLine
 39
96.0
 10
45.448558
 20
40.979905
 30
0.0
 11
45.448558
 21
40.979905
 31
0.0
  0
LINE
  5
7BE
100
AcDbEntity
  8
BORDER
  6
CONTINUOUS
 62
     2
100
AcDbLine
 39
96.0
 10
45.917358
 20
40.979905
 30
0.0
 11
45.917358
 21
40.979905
 31
0.0
  0
LINE
  5
7BF
100
AcDbEntity
  8
BORDER
  6
CONTINUOUS
 62
     2
100
AcDbLine
 39
96.0
 10
46.386058
 20
40.979905
 30
0.0
 11
46.386058
 21
40.979905
 31
0.0
  0
LINE
  5
7C0
100
AcDbEntity
  8
BORDER
  6
CONTINUOUS
 62
     2
100
AcDbLine
 39
96.0
 10
46.854858
 20
40.979905
 30
0.0
 11
46.854858
 21
40.979905
 31
0.0
  0
LINE
  5
7C1
100
AcDbEntity
  8
BORDER
  6
CONTINUOUS
 62
     2
100
AcDbLine
 39
96.0
 10
45.214258
 20
40.511205
 30
0.0
 11
45.214258
 21
40.511205
 31
0.0
  0
LINE
  5
7C2
100
AcDbEntity
  8
BORDER
  6
CONTINUOUS
 62
     2
100
AcDbLine
 39
96.0
 10
45.682958
 20
40.511205
 30
0.0
 11
45.682958
 21
40.511205
 31
0.0
  0
LINE
  5
7C3
100
AcDbEntity
  8
BORDER
  6
CONTINUOUS
 62
     2
100
AcDbLine
 39
96.0
 10
46.151758
 20
40.511205
 30
0.0
 11
46.151758
 21
40.511205
 31
0.0
  0
LINE
  5
7C4
100
AcDbEntity
  8
BORDER
  6
CONTINUOUS
 62
     2
100
AcDbLine
 39
96.0
 10
46.620458
 20
40.511205
 30
0.0
 11
46.620458
 21
40.511205
 31
0.0
  0
LINE
  5
7C5
100
AcDbEntity
  8
BORDER
  6
CONTINUOUS
 62
     2
100
AcDbLine
 39
96.0
 10
45.448558
 20
40.042405
 30
0.0
 11
45.448558
 21
40.042405
 31
0.0
  0
LINE
  5
7C6
100
AcDbEntity
  8
BORDER
  6
CONTINUOUS
 62
     2
100
AcDbLine
 39
96.0
 10
45.917358
 20
40.042405
 30
0.0
 11
45.917358
 21
40.042405
 31
0.0
  0
LINE
  5
7C7
100
AcDbEntity
  8
BORDER
  6
CONTINUOUS
 62
     2
100
AcDbLine
 39
96.0
 10
46.386058
 20
40.042405
 30
0.0
 11
46.386058
 21
40.042405
 31
0.0
  0
LINE
  5
7C8
100
AcDbEntity
  8
BORDER
  6
CONTINUOUS
 62
     2
100
AcDbLine
 39
96.0
 10
46.854858
 20
40.042405
 30
0.0
 11
46.854858
 21
40.042405
 31
0.0
  0
LINE
  5
7C9
100
AcDbEntity
  8
BORDER
  6
CONTINUOUS
 62
     2
100
AcDbLine
 39
96.0
 10
45.214258
 20
39.573705
 30
0.0
 11
45.214258
 21
39.573705
 31
0.0
  0
LINE
  5
7CA
100
AcDbEntity
  8
BORDER
  6
CONTINUOUS
 62
     2
100
AcDbLine
 39
96.0
 10
45.682958
 20
39.573705
 30
0.0
 11
45.682958
 21
39.573705
 31
0.0
  0
LINE
  5
7CB
100
AcDbEntity
  8
BORDER
  6
CONTINUOUS
 62
     2
100
AcDbLine
 39
96.0
 10
46.151758
 20
39.573705
 30
0.0
 11
46.151758
 21
39.573705
 31
0.0
  0
LINE
  5
7CC
100
AcDbEntity
  8
BORDER
  6
CONTINUOUS
 62
     2
100
AcDbLine
 39
96.0
 10
46.620458
 20
39.573705
 30
0.0
 11
46.620458
 21
39.573705
 31
0.0
  0
LINE
  5
7CD
100
AcDbEntity
  8
BORDER
  6
CONTINUOUS
 62
     2
100
AcDbLine
 39
96.0
 10
45.448558
 20
39.104905
 30
0.0
 11
45.448558
 21
39.104905
 31
0.0
  0
LINE
  5
7CE
100
AcDbEntity
  8
BORDER
  6
CONTINUOUS
 62
     2
100
AcDbLine
 39
96.0
 10
45.917358
 20
39.104905
 30
0.0
 11
45.917358
 21
39.104905
 31
0.0
  0
LINE
  5
7CF
100
AcDbEntity
  8
BORDER
  6
CONTINUOUS
 62
     2
100
AcDbLine
 39
96.0
 10
46.386058
 20
39.104905
 30
0.0
 11
46.386058
 21
39.104905
 31
0.0
  0
LINE
  5
7D0
100
AcDbEntity
  8
BORDER
  6
CONTINUOUS
 62
     2
100
AcDbLine
 39
96.0
 10
46.854858
 20
39.104905
 30
0.0
 11
46.854858
 21
39.104905
 31
0.0
  0
LINE
  5
7D1
100
AcDbEntity
  8
BORDER
  6
CONTINUOUS
 62
    10
100
AcDbLine
 39
96.0
 10
39.885858
 20
40.704105
 30
0.0
 11
39.812358
 21
40.677405
 31
0.0
  0
LINE
  5
7D2
100
AcDbEntity
  8
BORDER
  6
CONTINUOUS
 62
    10
100
AcDbLine
 39
96.0
 10
42.025958
 20
41.219605
 30
0.0
 11
41.981058
 21
41.155605
 31
0.0
  0
LINE
  5
7D3
100
AcDbEntity
  8
BORDER
  6
CONTINUOUS
 62
    10
100
AcDbLine
 39
96.0
 10
40.233558
 20
38.659705
 30
0.0
 11
40.188558
 21
38.595805
 31
0.0
  0
LINE
  5
7D4
100
AcDbEntity
  8
BORDER
  6
CONTINUOUS
 62
    10
100
AcDbLine
 39
96.0
 10
42.585058
 20
41.720805
 30
0.0
 11
42.574058
 21
41.659205
 31
0.0
  0
LINE
  5
7D5
100
AcDbEntity
  8
BORDER
  6
CONTINUOUS
 62
     1
100
AcDbLine
 39
96.0
 10
42.645858
 20
39.088905
 30
0.0
 11
42.704658
 21
39.110205
 31
0.0
  0
LINE
  5
7D6
100
AcDbEntity
  8
BORDER
  6
CONTINUOUS
 62
     1
100
AcDbLine
 39
96.0
 10
43.071858
 20
39.307705
 30
0.0
 11
43.082658
 21
39.369205
 31
0.0
  0
LINE
  5
7D7
100
AcDbEntity
  8
BORDER
  6
CONTINUOUS
 62
     1
100
AcDbLine
 39
96.0
 10
42.359958
 20
39.723505
 30
0.0
 11
42.395858
 21
39.774705
 31
0.0
  0
LINE
  5
7D8
100
AcDbEntity
  8
BORDER
  6
CONTINUOUS
 62
     3
100
AcDbLine
 39
96.0
 10
47.033058
 20
23.772005
 30
0.0
 11
45.158058
 21
23.772005
 31
0.0
  0
LINE
  5
7D9
100
AcDbEntity
  8
BORDER
  6
CONTINUOUS
 62
     3
100
AcDbLine
 39
96.0
 10
38.908058
 20
23.772005
 30
0.0
 11
37.033058
 21
23.772005
 31
0.0
  0
LINE
  5
7DA
100
AcDbEntity
  8
BORDER
  6
CONTINUOUS
 62
     3
100
AcDbLine
 39
96.0
 10
37.033058
 20
23.772005
 30
0.0
 11
38.908058
 21
23.772005
 31
0.0
  0
LINE
  5
7DB
100
AcDbEntity
  8
BORDER
  6
CONTINUOUS
 62
     3
100
AcDbLine
 39
96.0
 10
47.033058
 20
23.772005
 30
0.0
 11
47.033058
 21
38.772005
 31
0.0
  0
LINE
  5
7DC
100
AcDbEntity
  8
BORDER
  6
CONTINUOUS
 62
     3
100
AcDbLine
 39
96.0
 10
47.033058
 20
38.772005
 30
0.0
 11
45.158058
 21
38.772005
 31
0.0
  0
LINE
  5
7DD
100
AcDbEntity
  8
BORDER
  6
CONTINUOUS
 62
     3
100
AcDbLine
 39
96.0
 10
37.033058
 20
38.772005
 30
0.0
 11
37.033058
 21
38.180946
 31
0.0
  0
LINE
  5
7DE
100
AcDbEntity
  8
BORDER
  6
CONTINUOUS
 62
     3
100
AcDbLine
 39
96.0
 10
38.908058
 20
38.772005
 30
0.0
 11
38.908058
 21
23.772005
 31
0.0
  0
LINE
  5
7DF
100
AcDbEntity
  8
BORDER
  6
CONTINUOUS
 62
     3
100
AcDbLine
 39
96.0
 10
45.158058
 20
23.772005
 30
0.0
 11
45.158058
 21
38.772005
 31
0.0
  0
ARC
  5
7E0
100
AcDbEntity
  8
BORDER
  6
CONTINUOUS
 62
     3
100
AcDbCircle
 39
96.0
 10
42.033058
 20
23.772005
 30
0.0
 40
3.0
100
AcDbArc
 50
0.0
 51
180.0
  0
ARC
  5
7E1
100
AcDbEntity
  8
BORDER
  6
CONTINUOUS
 62
     3
100
AcDbCircle
 39
96.0
 10
42.033058
 20
38.772005
 30
0.0
 40
3.0
100
AcDbArc
 50
180.0
 51
0.0
  0
LINE
  5
7E2
100
AcDbEntity
  8
BORDER
  6
CONTINUOUS
 62
     3
100
AcDbLine
 39
96.0
 10
38.908058
 20
38.772005
 30
0.0
 11
37.033058
 21
38.772005
 31
0.0
  0
LINE
  5
7E3
100
AcDbEntity
  8
BORDER
  6
CONTINUOUS
 62
     3
100
AcDbLine
 39
96.0
 10
45.158058
 20
23.772005
 30
0.0
 11
47.033058
 21
23.772005
 31
0.0
  0
LINE
  5
7E4
100
AcDbEntity
  8
BORDER
  6
CONTINUOUS
 62
     1
100
AcDbLine
 39
96.0
 10
40.935858
 20
35.461505
 30
0.0
 11
40.994758
 21
35.482805
 31
0.0
  0
LINE
  5
7E5
100
AcDbEntity
  8
BORDER
  6
CONTINUOUS
 62
     1
100
AcDbLine
 39
96.0
 10
39.441558
 20
32.257105
 30
0.0
 11
39.500358
 21
32.278505
 31
0.0
  0
LINE
  5
7E6
100
AcDbEntity
  8
BORDER
  6
CONTINUOUS
 62
     1
100
AcDbLine
 39
96.0
 10
41.790858
 20
33.112205
 30
0.0
 11
41.849758
 21
33.133505
 31
0.0
  0
LINE
  5
7E7
100
AcDbEntity
  8
BORDER
  6
CONTINUOUS
 62
     1
100
AcDbLine
 39
96.0
 10
44.140258
 20
33.967205
 30
0.0
 11
44.199058
 21
33.988605
 31
0.0
  0
LINE
  5
7E8
100
AcDbEntity
  8
BORDER
  6
CONTINUOUS
 62
     1
100
AcDbLine
 39
96.0
 10
40.296458
 20
29.907905
 30
0.0
 11
40.355358
 21
29.929205
 31
0.0
  0
LINE
  5
7E9
100
AcDbEntity
  8
BORDER
  6
CONTINUOUS
 62
     1
100
AcDbLine
 39
96.0
 10
42.645858
 20
30.762905
 30
0.0
 11
42.704658
 21
30.784305
 31
0.0
  0
LINE
  5
7EA
100
AcDbEntity
  8
BORDER
  6
CONTINUOUS
 62
     1
100
AcDbLine
 39
96.0
 10
44.995258
 20
31.618005
 30
0.0
 11
45.054058
 21
31.639305
 31
0.0
  0
LINE
  5
7EB
100
AcDbEntity
  8
BORDER
  6
CONTINUOUS
 62
     1
100
AcDbLine
 39
96.0
 10
41.151458
 20
27.558605
 30
0.0
 11
41.210358
 21
27.580005
 31
0.0
  0
LINE
  5
7EC
100
AcDbEntity
  8
BORDER
  6
CONTINUOUS
 62
     1
100
AcDbLine
 39
96.0
 10
43.500858
 20
28.413705
 30
0.0
 11
43.559658
 21
28.435105
 31
0.0
  0
LINE
  5
7ED
100
AcDbEntity
  8
BORDER
  6
CONTINUOUS
 62
     1
100
AcDbLine
 39
96.0
 10
44.355558
 20
26.064505
 30
0.0
 11
44.414458
 21
26.085905
 31
0.0
  0
LINE
  5
7EE
100
AcDbEntity
  8
BORDER
  6
CONTINUOUS
 62
     1
100
AcDbLine
 39
96.0
 10
39.698158
 20
36.313305
 30
0.0
 11
39.733958
 21
36.364505
 31
0.0
  0
LINE
  5
7EF
100
AcDbEntity
  8
BORDER
  6
CONTINUOUS
 62
     1
100
AcDbLine
 39
96.0
 10
40.312158
 20
32.831505
 30
0.0
 11
40.348058
 21
32.882605
 31
0.0
  0
LINE
  5
7F0
100
AcDbEntity
  8
BORDER
  6
CONTINUOUS
 62
     1
100
AcDbLine
 39
96.0
 10
41.746258
 20
34.879305
 30
0.0
 11
41.782058
 21
34.930505
 31
0.0
  0
LINE
  5
7F1
100
AcDbEntity
  8
BORDER
  6
CONTINUOUS
 62
     1
100
AcDbLine
 39
96.0
 10
39.491858
 20
27.301805
 30
0.0
 11
39.527658
 21
27.353005
 31
0.0
  0
LINE
  5
7F2
100
AcDbEntity
  8
BORDER
  6
CONTINUOUS
 62
     1
100
AcDbLine
 39
96.0
 10
40.925858
 20
29.349705
 30
0.0
 11
40.961758
 21
29.400905
 31
0.0
  0
LINE
  5
7F3
100
AcDbEntity
  8
BORDER
  6
CONTINUOUS
 62
     1
100
AcDbLine
 39
96.0
 10
42.359958
 20
31.397605
 30
0.0
 11
42.395858
 21
31.448805
 31
0.0
  0
LINE
  5
7F4
100
AcDbEntity
  8
BORDER
  6
CONTINUOUS
 62
     1
100
AcDbLine
 39
96.0
 10
43.794058
 20
33.445505
 30
0.0
 11
43.829958
 21
33.496605
 31
0.0
  0
LINE
  5
7F5
100
AcDbEntity
  8
BORDER
  6
CONTINUOUS
 62
     1
100
AcDbLine
 39
96.0
 10
42.973758
 20
27.915805
 30
0.0
 11
43.009658
 21
27.967005
 31
0.0
  0
LINE
  5
7F6
100
AcDbEntity
  8
BORDER
  6
CONTINUOUS
 62
     1
100
AcDbLine
 39
96.0
 10
44.407858
 20
29.963705
 30
0.0
 11
44.443758
 21
30.014805
 31
0.0
  0
LINE
  5
7F7
100
AcDbEntity
  8
BORDER
  6
CONTINUOUS
 62
     1
100
AcDbLine
 39
96.0
 10
45.021358
 20
26.482005
 30
0.0
 11
45.057258
 21
26.533205
 31
0.0
  0
LINE
  5
7F8
100
AcDbEntity
  8
BORDER
  6
CONTINUOUS
 62
     1
100
AcDbLine
 39
96.0
 10
39.016458
 20
36.774005
 30
0.0
 11
39.027258
 21
36.835505
 31
0.0
  0
LINE
  5
7F9
100
AcDbEntity
  8
BORDER
  6
CONTINUOUS
 62
     1
100
AcDbLine
 39
96.0
 10
39.742058
 20
26.491705
 30
0.0
 11
39.752758
 21
26.553305
 31
0.0
  0
LINE
  5
7FA
100
AcDbEntity
  8
BORDER
  6
CONTINUOUS
 62
     1
100
AcDbLine
 39
96.0
 10
40.176158
 20
28.953805
 30
0.0
 11
40.186858
 21
29.015305
 31
0.0
  0
LINE
  5
7FB
100
AcDbEntity
  8
BORDER
  6
CONTINUOUS
 62
     1
100
AcDbLine
 39
96.0
 10
40.610258
 20
31.415805
 30
0.0
 11
40.620958
 21
31.477305
 31
0.0
  0
LINE
  5
7FC
100
AcDbEntity
  8
BORDER
  6
CONTINUOUS
 62
     1
100
AcDbLine
 39
96.0
 10
41.044258
 20
33.877905
 30
0.0
 11
41.055058
 21
33.939405
 31
0.0
  0
LINE
  5
7FD
100
AcDbEntity
  8
BORDER
  6
CONTINUOUS
 62
     1
100
AcDbLine
 39
96.0
 10
42.637858
 20
28.519705
 30
0.0
 11
42.648558
 21
28.581205
 31
0.0
  0
LINE
  5
7FE
100
AcDbEntity
  8
BORDER
  6
CONTINUOUS
 62
     1
100
AcDbLine
 39
96.0
 10
43.071858
 20
30.981705
 30
0.0
 11
43.082658
 21
31.043305
 31
0.0
  0
LINE
  5
7FF
100
AcDbEntity
  8
BORDER
  6
CONTINUOUS
 62
     1
100
AcDbLine
 39
96.0
 10
43.505958
 20
33.443805
 30
0.0
 11
43.516758
 21
33.505305
 31
0.0
  0
LINE
  5
800
100
AcDbEntity
  8
BORDER
  6
CONTINUOUS
 62
     1
100
AcDbLine
 39
96.0
 10
43.940058
 20
35.905805
 30
0.0
 11
43.950758
 21
35.967305
 31
0.0
  0
LINE
  5
801
100
AcDbEntity
  8
BORDER
  6
CONTINUOUS
 62
     1
100
AcDbLine
 39
96.0
 10
44.665658
 20
25.623605
 30
0.0
 11
44.676358
 21
25.685105
 31
0.0
  0
LINE
  5
802
100
AcDbEntity
  8
BORDER
  6
CONTINUOUS
 62
     1
100
AcDbLine
 39
96.0
 10
45.099758
 20
28.085605
 30
0.0
 11
45.110458
 21
28.147105
 31
0.0
  0
LINE
  5
803
100
AcDbEntity
  8
BORDER
  6
CONTINUOUS
 62
     2
100
AcDbLine
 39
96.0
 10
37.245458
 20
38.636205
 30
0.0
 11
37.245458
 21
38.636205
 31
0.0
  0
LINE
  5
804
100
AcDbEntity
  8
BORDER
  6
CONTINUOUS
 62
     2
100
AcDbLine
 39
96.0
 10
37.714258
 20
38.636205
 30
0.0
 11
37.714258
 21
38.636205
 31
0.0
  0
LINE
  5
805
100
AcDbEntity
  8
BORDER
  6
CONTINUOUS
 62
     2
100
AcDbLine
 39
96.0
 10
38.182958
 20
38.636205
 30
0.0
 11
38.182958
 21
38.636205
 31
0.0
  0
LINE
  5
806
100
AcDbEntity
  8
BORDER
  6
CONTINUOUS
 62
     2
100
AcDbLine
 39
96.0
 10
38.651758
 20
38.636205
 30
0.0
 11
38.651758
 21
38.636205
 31
0.0
  0
LINE
  5
807
100
AcDbEntity
  8
BORDER
  6
CONTINUOUS
 62
     2
100
AcDbLine
 39
96.0
 10
37.479858
 20
38.167405
 30
0.0
 11
37.479858
 21
38.167405
 31
0.0
  0
LINE
  5
808
100
AcDbEntity
  8
BORDER
  6
CONTINUOUS
 62
     2
100
AcDbLine
 39
96.0
 10
37.948558
 20
38.167405
 30
0.0
 11
37.948558
 21
38.167405
 31
0.0
  0
LINE
  5
809
100
AcDbEntity
  8
BORDER
  6
CONTINUOUS
 62
     2
100
AcDbLine
 39
96.0
 10
38.417358
 20
38.167405
 30
0.0
 11
38.417358
 21
38.167405
 31
0.0
  0
LINE
  5
80A
100
AcDbEntity
  8
BORDER
  6
CONTINUOUS
 62
     2
100
AcDbLine
 39
96.0
 10
38.886058
 20
38.167405
 30
0.0
 11
38.886058
 21
38.167405
 31
0.0
  0
LINE
  5
80B
100
AcDbEntity
  8
BORDER
  6
CONTINUOUS
 62
     2
100
AcDbLine
 39
96.0
 10
38.651758
 20
37.698705
 30
0.0
 11
38.651758
 21
37.698705
 31
0.0
  0
LINE
  5
80C
100
AcDbEntity
  8
BORDER
  6
CONTINUOUS
 62
     2
100
AcDbLine
 39
96.0
 10
38.886058
 20
37.229905
 30
0.0
 11
38.886058
 21
37.229905
 31
0.0
  0
LINE
  5
80D
100
AcDbEntity
  8
BORDER
  6
CONTINUOUS
 62
     2
100
AcDbLine
 39
96.0
 10
38.651758
 20
36.761205
 30
0.0
 11
38.651758
 21
36.761205
 31
0.0
  0
LINE
  5
80E
100
AcDbEntity
  8
BORDER
  6
CONTINUOUS
 62
     2
100
AcDbLine
 39
96.0
 10
38.886058
 20
36.292405
 30
0.0
 11
38.886058
 21
36.292405
 31
0.0
  0
LINE
  5
80F
100
AcDbEntity
  8
BORDER
  6
CONTINUOUS
 62
     2
100
AcDbLine
 39
96.0
 10
38.651758
 20
35.823705
 30
0.0
 11
38.651758
 21
35.823705
 31
0.0
  0
LINE
  5
810
100
AcDbEntity
  8
BORDER
  6
CONTINUOUS
 62
     2
100
AcDbLine
 39
96.0
 10
38.886058
 20
35.354905
 30
0.0
 11
38.886058
 21
35.354905
 31
0.0
  0
LINE
  5
811
100
AcDbEntity
  8
BORDER
  6
CONTINUOUS
 62
     2
100
AcDbLine
 39
96.0
 10
38.651758
 20
34.886205
 30
0.0
 11
38.651758
 21
34.886205
 31
0.0
  0
LINE
  5
812
100
AcDbEntity
  8
BORDER
  6
CONTINUOUS
 62
     2
100
AcDbLine
 39
96.0
 10
37.479858
 20
34.417405
 30
0.0
 11
37.479858
 21
34.417405
 31
0.0
  0
LINE
  5
813
100
AcDbEntity
  8
BORDER
  6
CONTINUOUS
 62
     2
100
AcDbLine
 39
96.0
 10
37.948558
 20
34.417405
 30
0.0
 11
37.948558
 21
34.417405
 31
0.0
  0
LINE
  5
814
100
AcDbEntity
  8
BORDER
  6
CONTINUOUS
 62
     2
100
AcDbLine
 39
96.0
 10
38.417358
 20
34.417405
 30
0.0
 11
38.417358
 21
34.417405
 31
0.0
  0
LINE
  5
815
100
AcDbEntity
  8
BORDER
  6
CONTINUOUS
 62
     2
100
AcDbLine
 39
96.0
 10
38.886058
 20
34.417405
 30
0.0
 11
38.886058
 21
34.417405
 31
0.0
  0
LINE
  5
816
100
AcDbEntity
  8
BORDER
  6
CONTINUOUS
 62
     2
100
AcDbLine
 39
96.0
 10
37.245458
 20
33.948705
 30
0.0
 11
37.245458
 21
33.948705
 31
0.0
  0
LINE
  5
817
100
AcDbEntity
  8
BORDER
  6
CONTINUOUS
 62
     2
100
AcDbLine
 39
96.0
 10
37.714258
 20
33.948705
 30
0.0
 11
37.714258
 21
33.948705
 31
0.0
  0
LINE
  5
818
100
AcDbEntity
  8
BORDER
  6
CONTINUOUS
 62
     2
100
AcDbLine
 39
96.0
 10
38.182958
 20
33.948705
 30
0.0
 11
38.182958
 21
33.948705
 31
0.0
  0
LINE
  5
819
100
AcDbEntity
  8
BORDER
  6
CONTINUOUS
 62
     2
100
AcDbLine
 39
96.0
 10
38.651758
 20
33.948705
 30
0.0
 11
38.651758
 21
33.948705
 31
0.0
  0
LINE
  5
81A
100
AcDbEntity
  8
BORDER
  6
CONTINUOUS
 62
     2
100
AcDbLine
 39
96.0
 10
37.479858
 20
33.479905
 30
0.0
 11
37.479858
 21
33.479905
 31
0.0
  0
LINE
  5
81B
100
AcDbEntity
  8
BORDER
  6
CONTINUOUS
 62
     2
100
AcDbLine
 39
96.0
 10
37.948558
 20
33.479905
 30
0.0
 11
37.948558
 21
33.479905
 31
0.0
  0
LINE
  5
81C
100
AcDbEntity
  8
BORDER
  6
CONTINUOUS
 62
     2
100
AcDbLine
 39
96.0
 10
38.417358
 20
33.479905
 30
0.0
 11
38.417358
 21
33.479905
 31
0.0
  0
LINE
  5
81D
100
AcDbEntity
  8
BORDER
  6
CONTINUOUS
 62
     2
100
AcDbLine
 39
96.0
 10
38.886058
 20
33.479905
 30
0.0
 11
38.886058
 21
33.479905
 31
0.0
  0
LINE
  5
81E
100
AcDbEntity
  8
BORDER
  6
CONTINUOUS
 62
     2
100
AcDbLine
 39
96.0
 10
37.245458
 20
33.011205
 30
0.0
 11
37.245458
 21
33.011205
 31
0.0
  0
LINE
  5
81F
100
AcDbEntity
  8
BORDER
  6
CONTINUOUS
 62
     2
100
AcDbLine
 39
96.0
 10
37.714258
 20
33.011205
 30
0.0
 11
37.714258
 21
33.011205
 31
0.0
  0
LINE
  5
820
100
AcDbEntity
  8
BORDER
  6
CONTINUOUS
 62
     2
100
AcDbLine
 39
96.0
 10
38.182958
 20
33.011205
 30
0.0
 11
38.182958
 21
33.011205
 31
0.0
  0
LINE
  5
821
100
AcDbEntity
  8
BORDER
  6
CONTINUOUS
 62
     2
100
AcDbLine
 39
96.0
 10
38.651758
 20
33.011205
 30
0.0
 11
38.651758
 21
33.011205
 31
0.0
  0
LINE
  5
822
100
AcDbEntity
  8
BORDER
  6
CONTINUOUS
 62
     2
100
AcDbLine
 39
96.0
 10
37.479858
 20
32.542405
 30
0.0
 11
37.479858
 21
32.542405
 31
0.0
  0
LINE
  5
823
100
AcDbEntity
  8
BORDER
  6
CONTINUOUS
 62
     2
100
AcDbLine
 39
96.0
 10
37.948558
 20
32.542405
 30
0.0
 11
37.948558
 21
32.542405
 31
0.0
  0
LINE
  5
824
100
AcDbEntity
  8
BORDER
  6
CONTINUOUS
 62
     2
100
AcDbLine
 39
96.0
 10
38.417358
 20
32.542405
 30
0.0
 11
38.417358
 21
32.542405
 31
0.0
  0
LINE
  5
825
100
AcDbEntity
  8
BORDER
  6
CONTINUOUS
 62
     2
100
AcDbLine
 39
96.0
 10
38.886058
 20
32.542405
 30
0.0
 11
38.886058
 21
32.542405
 31
0.0
  0
LINE
  5
826
100
AcDbEntity
  8
BORDER
  6
CONTINUOUS
 62
     2
100
AcDbLine
 39
96.0
 10
37.245458
 20
32.073705
 30
0.0
 11
37.245458
 21
32.073705
 31
0.0
  0
LINE
  5
827
100
AcDbEntity
  8
BORDER
  6
CONTINUOUS
 62
     2
100
AcDbLine
 39
96.0
 10
37.714258
 20
32.073705
 30
0.0
 11
37.714258
 21
32.073705
 31
0.0
  0
LINE
  5
828
100
AcDbEntity
  8
BORDER
  6
CONTINUOUS
 62
     2
100
AcDbLine
 39
96.0
 10
38.182958
 20
32.073705
 30
0.0
 11
38.182958
 21
32.073705
 31
0.0
  0
LINE
  5
829
100
AcDbEntity
  8
BORDER
  6
CONTINUOUS
 62
     2
100
AcDbLine
 39
96.0
 10
38.651758
 20
32.073705
 30
0.0
 11
38.651758
 21
32.073705
 31
0.0
  0
LINE
  5
82A
100
AcDbEntity
  8
BORDER
  6
CONTINUOUS
 62
     2
100
AcDbLine
 39
96.0
 10
37.479858
 20
31.604905
 30
0.0
 11
37.479858
 21
31.604905
 31
0.0
  0
LINE
  5
82B
100
AcDbEntity
  8
BORDER
  6
CONTINUOUS
 62
     2
100
AcDbLine
 39
96.0
 10
37.948558
 20
31.604905
 30
0.0
 11
37.948558
 21
31.604905
 31
0.0
  0
LINE
  5
82C
100
AcDbEntity
  8
BORDER
  6
CONTINUOUS
 62
     2
100
AcDbLine
 39
96.0
 10
38.417358
 20
31.604905
 30
0.0
 11
38.417358
 21
31.604905
 31
0.0
  0
LINE
  5
82D
100
AcDbEntity
  8
BORDER
  6
CONTINUOUS
 62
     2
100
AcDbLine
 39
96.0
 10
38.886058
 20
31.604905
 30
0.0
 11
38.886058
 21
31.604905
 31
0.0
  0
LINE
  5
82E
100
AcDbEntity
  8
BORDER
  6
CONTINUOUS
 62
     2
100
AcDbLine
 39
96.0
 10
37.245458
 20
31.136205
 30
0.0
 11
37.245458
 21
31.136205
 31
0.0
  0
LINE
  5
82F
100
AcDbEntity
  8
BORDER
  6
CONTINUOUS
 62
     2
100
AcDbLine
 39
96.0
 10
37.714258
 20
31.136205
 30
0.0
 11
37.714258
 21
31.136205
 31
0.0
  0
LINE
  5
830
100
AcDbEntity
  8
BORDER
  6
CONTINUOUS
 62
     2
100
AcDbLine
 39
96.0
 10
38.182958
 20
31.136205
 30
0.0
 11
38.182958
 21
31.136205
 31
0.0
  0
LINE
  5
831
100
AcDbEntity
  8
BORDER
  6
CONTINUOUS
 62
     2
100
AcDbLine
 39
96.0
 10
38.651758
 20
31.136205
 30
0.0
 11
38.651758
 21
31.136205
 31
0.0
  0
LINE
  5
832
100
AcDbEntity
  8
BORDER
  6
CONTINUOUS
 62
     2
100
AcDbLine
 39
96.0
 10
37.479858
 20
30.667405
 30
0.0
 11
37.479858
 21
30.667405
 31
0.0
  0
LINE
  5
833
100
AcDbEntity
  8
BORDER
  6
CONTINUOUS
 62
     2
100
AcDbLine
 39
96.0
 10
37.948558
 20
30.667405
 30
0.0
 11
37.948558
 21
30.667405
 31
0.0
  0
LINE
  5
834
100
AcDbEntity
  8
BORDER
  6
CONTINUOUS
 62
     2
100
AcDbLine
 39
96.0
 10
38.417358
 20
30.667405
 30
0.0
 11
38.417358
 21
30.667405
 31
0.0
  0
LINE
  5
835
100
AcDbEntity
  8
BORDER
  6
CONTINUOUS
 62
     2
100
AcDbLine
 39
96.0
 10
38.886058
 20
30.667405
 30
0.0
 11
38.886058
 21
30.667405
 31
0.0
  0
LINE
  5
836
100
AcDbEntity
  8
BORDER
  6
CONTINUOUS
 62
     2
100
AcDbLine
 39
96.0
 10
37.245458
 20
30.198705
 30
0.0
 11
37.245458
 21
30.198705
 31
0.0
  0
LINE
  5
837
100
AcDbEntity
  8
BORDER
  6
CONTINUOUS
 62
     2
100
AcDbLine
 39
96.0
 10
37.714258
 20
30.198705
 30
0.0
 11
37.714258
 21
30.198705
 31
0.0
  0
LINE
  5
838
100
AcDbEntity
  8
BORDER
  6
CONTINUOUS
 62
     2
100
AcDbLine
 39
96.0
 10
38.182958
 20
30.198705
 30
0.0
 11
38.182958
 21
30.198705
 31
0.0
  0
LINE
  5
839
100
AcDbEntity
  8
BORDER
  6
CONTINUOUS
 62
     2
100
AcDbLine
 39
96.0
 10
38.651758
 20
30.198705
 30
0.0
 11
38.651758
 21
30.198705
 31
0.0
  0
LINE
  5
83A
100
AcDbEntity
  8
BORDER
  6
CONTINUOUS
 62
     2
100
AcDbLine
 39
96.0
 10
37.479858
 20
29.729905
 30
0.0
 11
37.479858
 21
29.729905
 31
0.0
  0
LINE
  5
83B
100
AcDbEntity
  8
BORDER
  6
CONTINUOUS
 62
     2
100
AcDbLine
 39
96.0
 10
37.948558
 20
29.729905
 30
0.0
 11
37.948558
 21
29.729905
 31
0.0
  0
LINE
  5
83C
100
AcDbEntity
  8
BORDER
  6
CONTINUOUS
 62
     2
100
AcDbLine
 39
96.0
 10
38.417358
 20
29.729905
 30
0.0
 11
38.417358
 21
29.729905
 31
0.0
  0
LINE
  5
83D
100
AcDbEntity
  8
BORDER
  6
CONTINUOUS
 62
     2
100
AcDbLine
 39
96.0
 10
38.886058
 20
29.729905
 30
0.0
 11
38.886058
 21
29.729905
 31
0.0
  0
LINE
  5
83E
100
AcDbEntity
  8
BORDER
  6
CONTINUOUS
 62
     2
100
AcDbLine
 39
96.0
 10
37.245458
 20
29.261205
 30
0.0
 11
37.245458
 21
29.261205
 31
0.0
  0
LINE
  5
83F
100
AcDbEntity
  8
BORDER
  6
CONTINUOUS
 62
     2
100
AcDbLine
 39
96.0
 10
37.714258
 20
29.261205
 30
0.0
 11
37.714258
 21
29.261205
 31
0.0
  0
LINE
  5
840
100
AcDbEntity
  8
BORDER
  6
CONTINUOUS
 62
     2
100
AcDbLine
 39
96.0
 10
38.182958
 20
29.261205
 30
0.0
 11
38.182958
 21
29.261205
 31
0.0
  0
LINE
  5
841
100
AcDbEntity
  8
BORDER
  6
CONTINUOUS
 62
     2
100
AcDbLine
 39
96.0
 10
38.651758
 20
29.261205
 30
0.0
 11
38.651758
 21
29.261205
 31
0.0
  0
LINE
  5
842
100
AcDbEntity
  8
BORDER
  6
CONTINUOUS
 62
     2
100
AcDbLine
 39
96.0
 10
37.479858
 20
28.792405
 30
0.0
 11
37.479858
 21
28.792405
 31
0.0
  0
LINE
  5
843
100
AcDbEntity
  8
BORDER
  6
CONTINUOUS
 62
     2
100
AcDbLine
 39
96.0
 10
37.948558
 20
28.792405
 30
0.0
 11
37.948558
 21
28.792405
 31
0.0
  0
LINE
  5
844
100
AcDbEntity
  8
BORDER
  6
CONTINUOUS
 62
     2
100
AcDbLine
 39
96.0
 10
38.417358
 20
28.792405
 30
0.0
 11
38.417358
 21
28.792405
 31
0.0
  0
LINE
  5
845
100
AcDbEntity
  8
BORDER
  6
CONTINUOUS
 62
     2
100
AcDbLine
 39
96.0
 10
38.886058
 20
28.792405
 30
0.0
 11
38.886058
 21
28.792405
 31
0.0
  0
LINE
  5
846
100
AcDbEntity
  8
BORDER
  6
CONTINUOUS
 62
     2
100
AcDbLine
 39
96.0
 10
37.245458
 20
28.323705
 30
0.0
 11
37.245458
 21
28.323705
 31
0.0
  0
LINE
  5
847
100
AcDbEntity
  8
BORDER
  6
CONTINUOUS
 62
     2
100
AcDbLine
 39
96.0
 10
37.714258
 20
28.323705
 30
0.0
 11
37.714258
 21
28.323705
 31
0.0
  0
LINE
  5
848
100
AcDbEntity
  8
BORDER
  6
CONTINUOUS
 62
     2
100
AcDbLine
 39
96.0
 10
38.182958
 20
28.323705
 30
0.0
 11
38.182958
 21
28.323705
 31
0.0
  0
LINE
  5
849
100
AcDbEntity
  8
BORDER
  6
CONTINUOUS
 62
     2
100
AcDbLine
 39
96.0
 10
38.651758
 20
28.323705
 30
0.0
 11
38.651758
 21
28.323705
 31
0.0
  0
LINE
  5
84A
100
AcDbEntity
  8
BORDER
  6
CONTINUOUS
 62
     2
100
AcDbLine
 39
96.0
 10
37.479858
 20
27.854905
 30
0.0
 11
37.479858
 21
27.854905
 31
0.0
  0
LINE
  5
84B
100
AcDbEntity
  8
BORDER
  6
CONTINUOUS
 62
     2
100
AcDbLine
 39
96.0
 10
37.948558
 20
27.854905
 30
0.0
 11
37.948558
 21
27.854905
 31
0.0
  0
LINE
  5
84C
100
AcDbEntity
  8
BORDER
  6
CONTINUOUS
 62
     2
100
AcDbLine
 39
96.0
 10
38.417358
 20
27.854905
 30
0.0
 11
38.417358
 21
27.854905
 31
0.0
  0
LINE
  5
84D
100
AcDbEntity
  8
BORDER
  6
CONTINUOUS
 62
     2
100
AcDbLine
 39
96.0
 10
38.886058
 20
27.854905
 30
0.0
 11
38.886058
 21
27.854905
 31
0.0
  0
LINE
  5
84E
100
AcDbEntity
  8
BORDER
  6
CONTINUOUS
 62
     2
100
AcDbLine
 39
96.0
 10
37.245458
 20
27.386205
 30
0.0
 11
37.245458
 21
27.386205
 31
0.0
  0
LINE
  5
84F
100
AcDbEntity
  8
BORDER
  6
CONTINUOUS
 62
     2
100
AcDbLine
 39
96.0
 10
37.714258
 20
27.386205
 30
0.0
 11
37.714258
 21
27.386205
 31
0.0
  0
LINE
  5
850
100
AcDbEntity
  8
BORDER
  6
CONTINUOUS
 62
     2
100
AcDbLine
 39
96.0
 10
38.182958
 20
27.386205
 30
0.0
 11
38.182958
 21
27.386205
 31
0.0
  0
LINE
  5
851
100
AcDbEntity
  8
BORDER
  6
CONTINUOUS
 62
     2
100
AcDbLine
 39
96.0
 10
38.651758
 20
27.386205
 30
0.0
 11
38.651758
 21
27.386205
 31
0.0
  0
LINE
  5
852
100
AcDbEntity
  8
BORDER
  6
CONTINUOUS
 62
     2
100
AcDbLine
 39
96.0
 10
37.479858
 20
26.917405
 30
0.0
 11
37.479858
 21
26.917405
 31
0.0
  0
LINE
  5
853
100
AcDbEntity
  8
BORDER
  6
CONTINUOUS
 62
     2
100
AcDbLine
 39
96.0
 10
37.948558
 20
26.917405
 30
0.0
 11
37.948558
 21
26.917405
 31
0.0
  0
LINE
  5
854
100
AcDbEntity
  8
BORDER
  6
CONTINUOUS
 62
     2
100
AcDbLine
 39
96.0
 10
38.417358
 20
26.917405
 30
0.0
 11
38.417358
 21
26.917405
 31
0.0
  0
LINE
  5
855
100
AcDbEntity
  8
BORDER
  6
CONTINUOUS
 62
     2
100
AcDbLine
 39
96.0
 10
38.886058
 20
26.917405
 30
0.0
 11
38.886058
 21
26.917405
 31
0.0
  0
LINE
  5
856
100
AcDbEntity
  8
BORDER
  6
CONTINUOUS
 62
     2
100
AcDbLine
 39
96.0
 10
37.245458
 20
26.448705
 30
0.0
 11
37.245458
 21
26.448705
 31
0.0
  0
LINE
  5
857
100
AcDbEntity
  8
BORDER
  6
CONTINUOUS
 62
     2
100
AcDbLine
 39
96.0
 10
37.714258
 20
26.448705
 30
0.0
 11
37.714258
 21
26.448705
 31
0.0
  0
LINE
  5
858
100
AcDbEntity
  8
BORDER
  6
CONTINUOUS
 62
     2
100
AcDbLine
 39
96.0
 10
38.182958
 20
26.448705
 30
0.0
 11
38.182958
 21
26.448705
 31
0.0
  0
LINE
  5
859
100
AcDbEntity
  8
BORDER
  6
CONTINUOUS
 62
     2
100
AcDbLine
 39
96.0
 10
38.651758
 20
26.448705
 30
0.0
 11
38.651758
 21
26.448705
 31
0.0
  0
LINE
  5
85A
100
AcDbEntity
  8
BORDER
  6
CONTINUOUS
 62
     2
100
AcDbLine
 39
96.0
 10
37.479858
 20
25.979905
 30
0.0
 11
37.479858
 21
25.979905
 31
0.0
  0
LINE
  5
85B
100
AcDbEntity
  8
BORDER
  6
CONTINUOUS
 62
     2
100
AcDbLine
 39
96.0
 10
37.948558
 20
25.979905
 30
0.0
 11
37.948558
 21
25.979905
 31
0.0
  0
LINE
  5
85C
100
AcDbEntity
  8
BORDER
  6
CONTINUOUS
 62
     2
100
AcDbLine
 39
96.0
 10
38.417358
 20
25.979905
 30
0.0
 11
38.417358
 21
25.979905
 31
0.0
  0
LINE
  5
85D
100
AcDbEntity
  8
BORDER
  6
CONTINUOUS
 62
     2
100
AcDbLine
 39
96.0
 10
38.886058
 20
25.979905
 30
0.0
 11
38.886058
 21
25.979905
 31
0.0
  0
LINE
  5
85E
100
AcDbEntity
  8
BORDER
  6
CONTINUOUS
 62
     2
100
AcDbLine
 39
96.0
 10
37.245458
 20
25.511205
 30
0.0
 11
37.245458
 21
25.511205
 31
0.0
  0
LINE
  5
85F
100
AcDbEntity
  8
BORDER
  6
CONTINUOUS
 62
     2
100
AcDbLine
 39
96.0
 10
37.714258
 20
25.511205
 30
0.0
 11
37.714258
 21
25.511205
 31
0.0
  0
LINE
  5
860
100
AcDbEntity
  8
BORDER
  6
CONTINUOUS
 62
     2
100
AcDbLine
 39
96.0
 10
38.182958
 20
25.511205
 30
0.0
 11
38.182958
 21
25.511205
 31
0.0
  0
LINE
  5
861
100
AcDbEntity
  8
BORDER
  6
CONTINUOUS
 62
     2
100
AcDbLine
 39
96.0
 10
38.651758
 20
25.511205
 30
0.0
 11
38.651758
 21
25.511205
 31
0.0
  0
LINE
  5
862
100
AcDbEntity
  8
BORDER
  6
CONTINUOUS
 62
     2
100
AcDbLine
 39
96.0
 10
37.479858
 20
25.042405
 30
0.0
 11
37.479858
 21
25.042405
 31
0.0
  0
LINE
  5
863
100
AcDbEntity
  8
BORDER
  6
CONTINUOUS
 62
     2
100
AcDbLine
 39
96.0
 10
37.948558
 20
25.042405
 30
0.0
 11
37.948558
 21
25.042405
 31
0.0
  0
LINE
  5
864
100
AcDbEntity
  8
BORDER
  6
CONTINUOUS
 62
     2
100
AcDbLine
 39
96.0
 10
38.417358
 20
25.042405
 30
0.0
 11
38.417358
 21
25.042405
 31
0.0
  0
LINE
  5
865
100
AcDbEntity
  8
BORDER
  6
CONTINUOUS
 62
     2
100
AcDbLine
 39
96.0
 10
38.886058
 20
25.042405
 30
0.0
 11
38.886058
 21
25.042405
 31
0.0
  0
LINE
  5
866
100
AcDbEntity
  8
BORDER
  6
CONTINUOUS
 62
     2
100
AcDbLine
 39
96.0
 10
37.245458
 20
24.573705
 30
0.0
 11
37.245458
 21
24.573705
 31
0.0
  0
LINE
  5
867
100
AcDbEntity
  8
BORDER
  6
CONTINUOUS
 62
     2
100
AcDbLine
 39
96.0
 10
37.714258
 20
24.573705
 30
0.0
 11
37.714258
 21
24.573705
 31
0.0
  0
LINE
  5
868
100
AcDbEntity
  8
BORDER
  6
CONTINUOUS
 62
     2
100
AcDbLine
 39
96.0
 10
38.182958
 20
24.573705
 30
0.0
 11
38.182958
 21
24.573705
 31
0.0
  0
LINE
  5
869
100
AcDbEntity
  8
BORDER
  6
CONTINUOUS
 62
     2
100
AcDbLine
 39
96.0
 10
38.651758
 20
24.573705
 30
0.0
 11
38.651758
 21
24.573705
 31
0.0
  0
LINE
  5
86A
100
AcDbEntity
  8
BORDER
  6
CONTINUOUS
 62
     2
100
AcDbLine
 39
96.0
 10
37.479858
 20
24.104905
 30
0.0
 11
37.479858
 21
24.104905
 31
0.0
  0
LINE
  5
86B
100
AcDbEntity
  8
BORDER
  6
CONTINUOUS
 62
     2
100
AcDbLine
 39
96.0
 10
37.948558
 20
24.104905
 30
0.0
 11
37.948558
 21
24.104905
 31
0.0
  0
LINE
  5
86C
100
AcDbEntity
  8
BORDER
  6
CONTINUOUS
 62
     2
100
AcDbLine
 39
96.0
 10
38.417358
 20
24.104905
 30
0.0
 11
38.417358
 21
24.104905
 31
0.0
  0
LINE
  5
86D
100
AcDbEntity
  8
BORDER
  6
CONTINUOUS
 62
     2
100
AcDbLine
 39
96.0
 10
38.886058
 20
24.104905
 30
0.0
 11
38.886058
 21
24.104905
 31
0.0
  0
LINE
  5
86E
100
AcDbEntity
  8
BORDER
  6
CONTINUOUS
 62
     2
100
AcDbLine
 39
96.0
 10
45.214258
 20
38.636205
 30
0.0
 11
45.214258
 21
38.636205
 31
0.0
  0
LINE
  5
86F
100
AcDbEntity
  8
BORDER
  6
CONTINUOUS
 62
     2
100
AcDbLine
 39
96.0
 10
45.682958
 20
38.636205
 30
0.0
 11
45.682958
 21
38.636205
 31
0.0
  0
LINE
  5
870
100
AcDbEntity
  8
BORDER
  6
CONTINUOUS
 62
     2
100
AcDbLine
 39
96.0
 10
46.151758
 20
38.636205
 30
0.0
 11
46.151758
 21
38.636205
 31
0.0
  0
LINE
  5
871
100
AcDbEntity
  8
BORDER
  6
CONTINUOUS
 62
     2
100
AcDbLine
 39
96.0
 10
46.620458
 20
38.636205
 30
0.0
 11
46.620458
 21
38.636205
 31
0.0
  0
LINE
  5
872
100
AcDbEntity
  8
BORDER
  6
CONTINUOUS
 62
     2
100
AcDbLine
 39
96.0
 10
45.448558
 20
38.167405
 30
0.0
 11
45.448558
 21
38.167405
 31
0.0
  0
LINE
  5
873
100
AcDbEntity
  8
BORDER
  6
CONTINUOUS
 62
     2
100
AcDbLine
 39
96.0
 10
45.917358
 20
38.167405
 30
0.0
 11
45.917358
 21
38.167405
 31
0.0
  0
LINE
  5
874
100
AcDbEntity
  8
BORDER
  6
CONTINUOUS
 62
     2
100
AcDbLine
 39
96.0
 10
46.386058
 20
38.167405
 30
0.0
 11
46.386058
 21
38.167405
 31
0.0
  0
LINE
  5
875
100
AcDbEntity
  8
BORDER
  6
CONTINUOUS
 62
     2
100
AcDbLine
 39
96.0
 10
46.854858
 20
38.167405
 30
0.0
 11
46.854858
 21
38.167405
 31
0.0
  0
LINE
  5
876
100
AcDbEntity
  8
BORDER
  6
CONTINUOUS
 62
     2
100
AcDbLine
 39
96.0
 10
45.214258
 20
37.698705
 30
0.0
 11
45.214258
 21
37.698705
 31
0.0
  0
LINE
  5
877
100
AcDbEntity
  8
BORDER
  6
CONTINUOUS
 62
     2
100
AcDbLine
 39
96.0
 10
45.682958
 20
37.698705
 30
0.0
 11
45.682958
 21
37.698705
 31
0.0
  0
LINE
  5
878
100
AcDbEntity
  8
BORDER
  6
CONTINUOUS
 62
     2
100
AcDbLine
 39
96.0
 10
46.151758
 20
37.698705
 30
0.0
 11
46.151758
 21
37.698705
 31
0.0
  0
LINE
  5
879
100
AcDbEntity
  8
BORDER
  6
CONTINUOUS
 62
     2
100
AcDbLine
 39
96.0
 10
46.620458
 20
37.698705
 30
0.0
 11
46.620458
 21
37.698705
 31
0.0
  0
LINE
  5
87A
100
AcDbEntity
  8
BORDER
  6
CONTINUOUS
 62
     2
100
AcDbLine
 39
96.0
 10
45.448558
 20
37.229905
 30
0.0
 11
45.448558
 21
37.229905
 31
0.0
  0
LINE
  5
87B
100
AcDbEntity
  8
BORDER
  6
CONTINUOUS
 62
     2
100
AcDbLine
 39
96.0
 10
45.917358
 20
37.229905
 30
0.0
 11
45.917358
 21
37.229905
 31
0.0
  0
LINE
  5
87C
100
AcDbEntity
  8
BORDER
  6
CONTINUOUS
 62
     2
100
AcDbLine
 39
96.0
 10
46.386058
 20
37.229905
 30
0.0
 11
46.386058
 21
37.229905
 31
0.0
  0
LINE
  5
87D
100
AcDbEntity
  8
BORDER
  6
CONTINUOUS
 62
     2
100
AcDbLine
 39
96.0
 10
46.854858
 20
37.229905
 30
0.0
 11
46.854858
 21
37.229905
 31
0.0
  0
LINE
  5
87E
100
AcDbEntity
  8
BORDER
  6
CONTINUOUS
 62
     2
100
AcDbLine
 39
96.0
 10
45.214258
 20
36.761205
 30
0.0
 11
45.214258
 21
36.761205
 31
0.0
  0
LINE
  5
87F
100
AcDbEntity
  8
BORDER
  6
CONTINUOUS
 62
     2
100
AcDbLine
 39
96.0
 10
45.682958
 20
36.761205
 30
0.0
 11
45.682958
 21
36.761205
 31
0.0
  0
LINE
  5
880
100
AcDbEntity
  8
BORDER
  6
CONTINUOUS
 62
     2
100
AcDbLine
 39
96.0
 10
46.151758
 20
36.761205
 30
0.0
 11
46.151758
 21
36.761205
 31
0.0
  0
LINE
  5
881
100
AcDbEntity
  8
BORDER
  6
CONTINUOUS
 62
     2
100
AcDbLine
 39
96.0
 10
46.620458
 20
36.761205
 30
0.0
 11
46.620458
 21
36.761205
 31
0.0
  0
LINE
  5
882
100
AcDbEntity
  8
BORDER
  6
CONTINUOUS
 62
     2
100
AcDbLine
 39
96.0
 10
45.448558
 20
36.292405
 30
0.0
 11
45.448558
 21
36.292405
 31
0.0
  0
LINE
  5
883
100
AcDbEntity
  8
BORDER
  6
CONTINUOUS
 62
     2
100
AcDbLine
 39
96.0
 10
45.917358
 20
36.292405
 30
0.0
 11
45.917358
 21
36.292405
 31
0.0
  0
LINE
  5
884
100
AcDbEntity
  8
BORDER
  6
CONTINUOUS
 62
     2
100
AcDbLine
 39
96.0
 10
46.386058
 20
36.292405
 30
0.0
 11
46.386058
 21
36.292405
 31
0.0
  0
LINE
  5
885
100
AcDbEntity
  8
BORDER
  6
CONTINUOUS
 62
     2
100
AcDbLine
 39
96.0
 10
46.854858
 20
36.292405
 30
0.0
 11
46.854858
 21
36.292405
 31
0.0
  0
LINE
  5
886
100
AcDbEntity
  8
BORDER
  6
CONTINUOUS
 62
     2
100
AcDbLine
 39
96.0
 10
45.214258
 20
35.823705
 30
0.0
 11
45.214258
 21
35.823705
 31
0.0
  0
LINE
  5
887
100
AcDbEntity
  8
BORDER
  6
CONTINUOUS
 62
     2
100
AcDbLine
 39
96.0
 10
45.682958
 20
35.823705
 30
0.0
 11
45.682958
 21
35.823705
 31
0.0
  0
LINE
  5
888
100
AcDbEntity
  8
BORDER
  6
CONTINUOUS
 62
     2
100
AcDbLine
 39
96.0
 10
46.151758
 20
35.823705
 30
0.0
 11
46.151758
 21
35.823705
 31
0.0
  0
LINE
  5
889
100
AcDbEntity
  8
BORDER
  6
CONTINUOUS
 62
     2
100
AcDbLine
 39
96.0
 10
46.620458
 20
35.823705
 30
0.0
 11
46.620458
 21
35.823705
 31
0.0
  0
LINE
  5
88A
100
AcDbEntity
  8
BORDER
  6
CONTINUOUS
 62
     2
100
AcDbLine
 39
96.0
 10
45.448558
 20
35.354905
 30
0.0
 11
45.448558
 21
35.354905
 31
0.0
  0
LINE
  5
88B
100
AcDbEntity
  8
BORDER
  6
CONTINUOUS
 62
     2
100
AcDbLine
 39
96.0
 10
45.917358
 20
35.354905
 30
0.0
 11
45.917358
 21
35.354905
 31
0.0
  0
LINE
  5
88C
100
AcDbEntity
  8
BORDER
  6
CONTINUOUS
 62
     2
100
AcDbLine
 39
96.0
 10
46.386058
 20
35.354905
 30
0.0
 11
46.386058
 21
35.354905
 31
0.0
  0
LINE
  5
88D
100
AcDbEntity
  8
BORDER
  6
CONTINUOUS
 62
     2
100
AcDbLine
 39
96.0
 10
46.854858
 20
35.354905
 30
0.0
 11
46.854858
 21
35.354905
 31
0.0
  0
LINE
  5
88E
100
AcDbEntity
  8
BORDER
  6
CONTINUOUS
 62
     2
100
AcDbLine
 39
96.0
 10
45.214258
 20
34.886205
 30
0.0
 11
45.214258
 21
34.886205
 31
0.0
  0
LINE
  5
88F
100
AcDbEntity
  8
BORDER
  6
CONTINUOUS
 62
     2
100
AcDbLine
 39
96.0
 10
45.682958
 20
34.886205
 30
0.0
 11
45.682958
 21
34.886205
 31
0.0
  0
LINE
  5
890
100
AcDbEntity
  8
BORDER
  6
CONTINUOUS
 62
     2
100
AcDbLine
 39
96.0
 10
46.151758
 20
34.886205
 30
0.0
 11
46.151758
 21
34.886205
 31
0.0
  0
LINE
  5
891
100
AcDbEntity
  8
BORDER
  6
CONTINUOUS
 62
     2
100
AcDbLine
 39
96.0
 10
46.620458
 20
34.886205
 30
0.0
 11
46.620458
 21
34.886205
 31
0.0
  0
LINE
  5
892
100
AcDbEntity
  8
BORDER
  6
CONTINUOUS
 62
     2
100
AcDbLine
 39
96.0
 10
45.448558
 20
34.417405
 30
0.0
 11
45.448558
 21
34.417405
 31
0.0
  0
LINE
  5
893
100
AcDbEntity
  8
BORDER
  6
CONTINUOUS
 62
     2
100
AcDbLine
 39
96.0
 10
45.917358
 20
34.417405
 30
0.0
 11
45.917358
 21
34.417405
 31
0.0
  0
LINE
  5
894
100
AcDbEntity
  8
BORDER
  6
CONTINUOUS
 62
     2
100
AcDbLine
 39
96.0
 10
46.386058
 20
34.417405
 30
0.0
 11
46.386058
 21
34.417405
 31
0.0
  0
LINE
  5
895
100
AcDbEntity
  8
BORDER
  6
CONTINUOUS
 62
     2
100
AcDbLine
 39
96.0
 10
46.854858
 20
34.417405
 30
0.0
 11
46.854858
 21
34.417405
 31
0.0
  0
LINE
  5
896
100
AcDbEntity
  8
BORDER
  6
CONTINUOUS
 62
     2
100
AcDbLine
 39
96.0
 10
45.214258
 20
33.948705
 30
0.0
 11
45.214258
 21
33.948705
 31
0.0
  0
LINE
  5
897
100
AcDbEntity
  8
BORDER
  6
CONTINUOUS
 62
     2
100
AcDbLine
 39
96.0
 10
45.682958
 20
33.948705
 30
0.0
 11
45.682958
 21
33.948705
 31
0.0
  0
LINE
  5
898
100
AcDbEntity
  8
BORDER
  6
CONTINUOUS
 62
     2
100
AcDbLine
 39
96.0
 10
46.151758
 20
33.948705
 30
0.0
 11
46.151758
 21
33.948705
 31
0.0
  0
LINE
  5
899
100
AcDbEntity
  8
BORDER
  6
CONTINUOUS
 62
     2
100
AcDbLine
 39
96.0
 10
46.620458
 20
33.948705
 30
0.0
 11
46.620458
 21
33.948705
 31
0.0
  0
LINE
  5
89A
100
AcDbEntity
  8
BORDER
  6
CONTINUOUS
 62
     2
100
AcDbLine
 39
96.0
 10
45.448558
 20
33.479905
 30
0.0
 11
45.448558
 21
33.479905
 31
0.0
  0
LINE
  5
89B
100
AcDbEntity
  8
BORDER
  6
CONTINUOUS
 62
     2
100
AcDbLine
 39
96.0
 10
45.917358
 20
33.479905
 30
0.0
 11
45.917358
 21
33.479905
 31
0.0
  0
LINE
  5
89C
100
AcDbEntity
  8
BORDER
  6
CONTINUOUS
 62
     2
100
AcDbLine
 39
96.0
 10
46.386058
 20
33.479905
 30
0.0
 11
46.386058
 21
33.479905
 31
0.0
  0
LINE
  5
89D
100
AcDbEntity
  8
BORDER
  6
CONTINUOUS
 62
     2
100
AcDbLine
 39
96.0
 10
46.854858
 20
33.479905
 30
0.0
 11
46.854858
 21
33.479905
 31
0.0
  0
LINE
  5
89E
100
AcDbEntity
  8
BORDER
  6
CONTINUOUS
 62
     2
100
AcDbLine
 39
96.0
 10
45.214258
 20
33.011205
 30
0.0
 11
45.214258
 21
33.011205
 31
0.0
  0
LINE
  5
89F
100
AcDbEntity
  8
BORDER
  6
CONTINUOUS
 62
     2
100
AcDbLine
 39
96.0
 10
45.682958
 20
33.011205
 30
0.0
 11
45.682958
 21
33.011205
 31
0.0
  0
LINE
  5
8A0
100
AcDbEntity
  8
BORDER
  6
CONTINUOUS
 62
     2
100
AcDbLine
 39
96.0
 10
46.151758
 20
33.011205
 30
0.0
 11
46.151758
 21
33.011205
 31
0.0
  0
LINE
  5
8A1
100
AcDbEntity
  8
BORDER
  6
CONTINUOUS
 62
     2
100
AcDbLine
 39
96.0
 10
46.620458
 20
33.011205
 30
0.0
 11
46.620458
 21
33.011205
 31
0.0
  0
LINE
  5
8A2
100
AcDbEntity
  8
BORDER
  6
CONTINUOUS
 62
     2
100
AcDbLine
 39
96.0
 10
45.448558
 20
32.542405
 30
0.0
 11
45.448558
 21
32.542405
 31
0.0
  0
LINE
  5
8A3
100
AcDbEntity
  8
BORDER
  6
CONTINUOUS
 62
     2
100
AcDbLine
 39
96.0
 10
45.917358
 20
32.542405
 30
0.0
 11
45.917358
 21
32.542405
 31
0.0
  0
LINE
  5
8A4
100
AcDbEntity
  8
BORDER
  6
CONTINUOUS
 62
     2
100
AcDbLine
 39
96.0
 10
46.386058
 20
32.542405
 30
0.0
 11
46.386058
 21
32.542405
 31
0.0
  0
LINE
  5
8A5
100
AcDbEntity
  8
BORDER
  6
CONTINUOUS
 62
     2
100
AcDbLine
 39
96.0
 10
46.854858
 20
32.542405
 30
0.0
 11
46.854858
 21
32.542405
 31
0.0
  0
LINE
  5
8A6
100
AcDbEntity
  8
BORDER
  6
CONTINUOUS
 62
     2
100
AcDbLine
 39
96.0
 10
45.214258
 20
32.073705
 30
0.0
 11
45.214258
 21
32.073705
 31
0.0
  0
LINE
  5
8A7
100
AcDbEntity
  8
BORDER
  6
CONTINUOUS
 62
     2
100
AcDbLine
 39
96.0
 10
45.682958
 20
32.073705
 30
0.0
 11
45.682958
 21
32.073705
 31
0.0
  0
LINE
  5
8A8
100
AcDbEntity
  8
BORDER
  6
CONTINUOUS
 62
     2
100
AcDbLine
 39
96.0
 10
46.151758
 20
32.073705
 30
0.0
 11
46.151758
 21
32.073705
 31
0.0
  0
LINE
  5
8A9
100
AcDbEntity
  8
BORDER
  6
CONTINUOUS
 62
     2
100
AcDbLine
 39
96.0
 10
46.620458
 20
32.073705
 30
0.0
 11
46.620458
 21
32.073705
 31
0.0
  0
LINE
  5
8AA
100
AcDbEntity
  8
BORDER
  6
CONTINUOUS
 62
     2
100
AcDbLine
 39
96.0
 10
45.448558
 20
31.604905
 30
0.0
 11
45.448558
 21
31.604905
 31
0.0
  0
LINE
  5
8AB
100
AcDbEntity
  8
BORDER
  6
CONTINUOUS
 62
     2
100
AcDbLine
 39
96.0
 10
45.917358
 20
31.604905
 30
0.0
 11
45.917358
 21
31.604905
 31
0.0
  0
LINE
  5
8AC
100
AcDbEntity
  8
BORDER
  6
CONTINUOUS
 62
     2
100
AcDbLine
 39
96.0
 10
46.386058
 20
31.604905
 30
0.0
 11
46.386058
 21
31.604905
 31
0.0
  0
LINE
  5
8AD
100
AcDbEntity
  8
BORDER
  6
CONTINUOUS
 62
     2
100
AcDbLine
 39
96.0
 10
46.854858
 20
31.604905
 30
0.0
 11
46.854858
 21
31.604905
 31
0.0
  0
LINE
  5
8AE
100
AcDbEntity
  8
BORDER
  6
CONTINUOUS
 62
     2
100
AcDbLine
 39
96.0
 10
45.214258
 20
31.136205
 30
0.0
 11
45.214258
 21
31.136205
 31
0.0
  0
LINE
  5
8AF
100
AcDbEntity
  8
BORDER
  6
CONTINUOUS
 62
     2
100
AcDbLine
 39
96.0
 10
45.682958
 20
31.136205
 30
0.0
 11
45.682958
 21
31.136205
 31
0.0
  0
LINE
  5
8B0
100
AcDbEntity
  8
BORDER
  6
CONTINUOUS
 62
     2
100
AcDbLine
 39
96.0
 10
46.151758
 20
31.136205
 30
0.0
 11
46.151758
 21
31.136205
 31
0.0
  0
LINE
  5
8B1
100
AcDbEntity
  8
BORDER
  6
CONTINUOUS
 62
     2
100
AcDbLine
 39
96.0
 10
46.620458
 20
31.136205
 30
0.0
 11
46.620458
 21
31.136205
 31
0.0
  0
LINE
  5
8B2
100
AcDbEntity
  8
BORDER
  6
CONTINUOUS
 62
     2
100
AcDbLine
 39
96.0
 10
45.448558
 20
30.667405
 30
0.0
 11
45.448558
 21
30.667405
 31
0.0
  0
LINE
  5
8B3
100
AcDbEntity
  8
BORDER
  6
CONTINUOUS
 62
     2
100
AcDbLine
 39
96.0
 10
45.917358
 20
30.667405
 30
0.0
 11
45.917358
 21
30.667405
 31
0.0
  0
LINE
  5
8B4
100
AcDbEntity
  8
BORDER
  6
CONTINUOUS
 62
     2
100
AcDbLine
 39
96.0
 10
46.386058
 20
30.667405
 30
0.0
 11
46.386058
 21
30.667405
 31
0.0
  0
LINE
  5
8B5
100
AcDbEntity
  8
BORDER
  6
CONTINUOUS
 62
     2
100
AcDbLine
 39
96.0
 10
46.854858
 20
30.667405
 30
0.0
 11
46.854858
 21
30.667405
 31
0.0
  0
LINE
  5
8B6
100
AcDbEntity
  8
BORDER
  6
CONTINUOUS
 62
     2
100
AcDbLine
 39
96.0
 10
45.214258
 20
30.198705
 30
0.0
 11
45.214258
 21
30.198705
 31
0.0
  0
LINE
  5
8B7
100
AcDbEntity
  8
BORDER
  6
CONTINUOUS
 62
     2
100
AcDbLine
 39
96.0
 10
45.682958
 20
30.198705
 30
0.0
 11
45.682958
 21
30.198705
 31
0.0
  0
LINE
  5
8B8
100
AcDbEntity
  8
BORDER
  6
CONTINUOUS
 62
     2
100
AcDbLine
 39
96.0
 10
46.151758
 20
30.198705
 30
0.0
 11
46.151758
 21
30.198705
 31
0.0
  0
LINE
  5
8B9
100
AcDbEntity
  8
BORDER
  6
CONTINUOUS
 62
     2
100
AcDbLine
 39
96.0
 10
46.620458
 20
30.198705
 30
0.0
 11
46.620458
 21
30.198705
 31
0.0
  0
LINE
  5
8BA
100
AcDbEntity
  8
BORDER
  6
CONTINUOUS
 62
     2
100
AcDbLine
 39
96.0
 10
45.448558
 20
29.729905
 30
0.0
 11
45.448558
 21
29.729905
 31
0.0
  0
LINE
  5
8BB
100
AcDbEntity
  8
BORDER
  6
CONTINUOUS
 62
     2
100
AcDbLine
 39
96.0
 10
45.917358
 20
29.729905
 30
0.0
 11
45.917358
 21
29.729905
 31
0.0
  0
LINE
  5
8BC
100
AcDbEntity
  8
BORDER
  6
CONTINUOUS
 62
     2
100
AcDbLine
 39
96.0
 10
46.386058
 20
29.729905
 30
0.0
 11
46.386058
 21
29.729905
 31
0.0
  0
LINE
  5
8BD
100
AcDbEntity
  8
BORDER
  6
CONTINUOUS
 62
     2
100
AcDbLine
 39
96.0
 10
46.854858
 20
29.729905
 30
0.0
 11
46.854858
 21
29.729905
 31
0.0
  0
LINE
  5
8BE
100
AcDbEntity
  8
BORDER
  6
CONTINUOUS
 62
     2
100
AcDbLine
 39
96.0
 10
45.214258
 20
29.261205
 30
0.0
 11
45.214258
 21
29.261205
 31
0.0
  0
LINE
  5
8BF
100
AcDbEntity
  8
BORDER
  6
CONTINUOUS
 62
     2
100
AcDbLine
 39
96.0
 10
45.682958
 20
29.261205
 30
0.0
 11
45.682958
 21
29.261205
 31
0.0
  0
LINE
  5
8C0
100
AcDbEntity
  8
BORDER
  6
CONTINUOUS
 62
     2
100
AcDbLine
 39
96.0
 10
46.151758
 20
29.261205
 30
0.0
 11
46.151758
 21
29.261205
 31
0.0
  0
LINE
  5
8C1
100
AcDbEntity
  8
BORDER
  6
CONTINUOUS
 62
     2
100
AcDbLine
 39
96.0
 10
46.620458
 20
29.261205
 30
0.0
 11
46.620458
 21
29.261205
 31
0.0
  0
LINE
  5
8C2
100
AcDbEntity
  8
BORDER
  6
CONTINUOUS
 62
     2
100
AcDbLine
 39
96.0
 10
45.448558
 20
28.792405
 30
0.0
 11
45.448558
 21
28.792405
 31
0.0
  0
LINE
  5
8C3
100
AcDbEntity
  8
BORDER
  6
CONTINUOUS
 62
     2
100
AcDbLine
 39
96.0
 10
45.917358
 20
28.792405
 30
0.0
 11
45.917358
 21
28.792405
 31
0.0
  0
LINE
  5
8C4
100
AcDbEntity
  8
BORDER
  6
CONTINUOUS
 62
     2
100
AcDbLine
 39
96.0
 10
46.386058
 20
28.792405
 30
0.0
 11
46.386058
 21
28.792405
 31
0.0
  0
LINE
  5
8C5
100
AcDbEntity
  8
BORDER
  6
CONTINUOUS
 62
     2
100
AcDbLine
 39
96.0
 10
46.854858
 20
28.792405
 30
0.0
 11
46.854858
 21
28.792405
 31
0.0
  0
LINE
  5
8C6
100
AcDbEntity
  8
BORDER
  6
CONTINUOUS
 62
     2
100
AcDbLine
 39
96.0
 10
45.214258
 20
28.323705
 30
0.0
 11
45.214258
 21
28.323705
 31
0.0
  0
LINE
  5
8C7
100
AcDbEntity
  8
BORDER
  6
CONTINUOUS
 62
     2
100
AcDbLine
 39
96.0
 10
45.682958
 20
28.323705
 30
0.0
 11
45.682958
 21
28.323705
 31
0.0
  0
LINE
  5
8C8
100
AcDbEntity
  8
BORDER
  6
CONTINUOUS
 62
     2
100
AcDbLine
 39
96.0
 10
46.151758
 20
28.323705
 30
0.0
 11
46.151758
 21
28.323705
 31
0.0
  0
LINE
  5
8C9
100
AcDbEntity
  8
BORDER
  6
CONTINUOUS
 62
     2
100
AcDbLine
 39
96.0
 10
46.620458
 20
28.323705
 30
0.0
 11
46.620458
 21
28.323705
 31
0.0
  0
LINE
  5
8CA
100
AcDbEntity
  8
BORDER
  6
CONTINUOUS
 62
     2
100
AcDbLine
 39
96.0
 10
45.448558
 20
27.854905
 30
0.0
 11
45.448558
 21
27.854905
 31
0.0
  0
LINE
  5
8CB
100
AcDbEntity
  8
BORDER
  6
CONTINUOUS
 62
     2
100
AcDbLine
 39
96.0
 10
45.917358
 20
27.854905
 30
0.0
 11
45.917358
 21
27.854905
 31
0.0
  0
LINE
  5
8CC
100
AcDbEntity
  8
BORDER
  6
CONTINUOUS
 62
     2
100
AcDbLine
 39
96.0
 10
46.386058
 20
27.854905
 30
0.0
 11
46.386058
 21
27.854905
 31
0.0
  0
LINE
  5
8CD
100
AcDbEntity
  8
BORDER
  6
CONTINUOUS
 62
     2
100
AcDbLine
 39
96.0
 10
46.854858
 20
27.854905
 30
0.0
 11
46.854858
 21
27.854905
 31
0.0
  0
LINE
  5
8CE
100
AcDbEntity
  8
BORDER
  6
CONTINUOUS
 62
     2
100
AcDbLine
 39
96.0
 10
45.214258
 20
27.386205
 30
0.0
 11
45.214258
 21
27.386205
 31
0.0
  0
LINE
  5
8CF
100
AcDbEntity
  8
BORDER
  6
CONTINUOUS
 62
     2
100
AcDbLine
 39
96.0
 10
45.682958
 20
27.386205
 30
0.0
 11
45.682958
 21
27.386205
 31
0.0
  0
LINE
  5
8D0
100
AcDbEntity
  8
BORDER
  6
CONTINUOUS
 62
     2
100
AcDbLine
 39
96.0
 10
46.151758
 20
27.386205
 30
0.0
 11
46.151758
 21
27.386205
 31
0.0
  0
LINE
  5
8D1
100
AcDbEntity
  8
BORDER
  6
CONTINUOUS
 62
     2
100
AcDbLine
 39
96.0
 10
46.620458
 20
27.386205
 30
0.0
 11
46.620458
 21
27.386205
 31
0.0
  0
LINE
  5
8D2
100
AcDbEntity
  8
BORDER
  6
CONTINUOUS
 62
     2
100
AcDbLine
 39
96.0
 10
45.448558
 20
26.917405
 30
0.0
 11
45.448558
 21
26.917405
 31
0.0
  0
LINE
  5
8D3
100
AcDbEntity
  8
BORDER
  6
CONTINUOUS
 62
     2
100
AcDbLine
 39
96.0
 10
45.917358
 20
26.917405
 30
0.0
 11
45.917358
 21
26.917405
 31
0.0
  0
LINE
  5
8D4
100
AcDbEntity
  8
BORDER
  6
CONTINUOUS
 62
     2
100
AcDbLine
 39
96.0
 10
46.386058
 20
26.917405
 30
0.0
 11
46.386058
 21
26.917405
 31
0.0
  0
LINE
  5
8D5
100
AcDbEntity
  8
BORDER
  6
CONTINUOUS
 62
     2
100
AcDbLine
 39
96.0
 10
46.854858
 20
26.917405
 30
0.0
 11
46.854858
 21
26.917405
 31
0.0
  0
LINE
  5
8D6
100
AcDbEntity
  8
BORDER
  6
CONTINUOUS
 62
     2
100
AcDbLine
 39
96.0
 10
45.214258
 20
26.448705
 30
0.0
 11
45.214258
 21
26.448705
 31
0.0
  0
LINE
  5
8D7
100
AcDbEntity
  8
BORDER
  6
CONTINUOUS
 62
     2
100
AcDbLine
 39
96.0
 10
45.682958
 20
26.448705
 30
0.0
 11
45.682958
 21
26.448705
 31
0.0
  0
LINE
  5
8D8
100
AcDbEntity
  8
BORDER
  6
CONTINUOUS
 62
     2
100
AcDbLine
 39
96.0
 10
46.151758
 20
26.448705
 30
0.0
 11
46.151758
 21
26.448705
 31
0.0
  0
LINE
  5
8D9
100
AcDbEntity
  8
BORDER
  6
CONTINUOUS
 62
     2
100
AcDbLine
 39
96.0
 10
46.620458
 20
26.448705
 30
0.0
 11
46.620458
 21
26.448705
 31
0.0
  0
LINE
  5
8DA
100
AcDbEntity
  8
BORDER
  6
CONTINUOUS
 62
     2
100
AcDbLine
 39
96.0
 10
45.448558
 20
25.979905
 30
0.0
 11
45.448558
 21
25.979905
 31
0.0
  0
LINE
  5
8DB
100
AcDbEntity
  8
BORDER
  6
CONTINUOUS
 62
     2
100
AcDbLine
 39
96.0
 10
45.917358
 20
25.979905
 30
0.0
 11
45.917358
 21
25.979905
 31
0.0
  0
LINE
  5
8DC
100
AcDbEntity
  8
BORDER
  6
CONTINUOUS
 62
     2
100
AcDbLine
 39
96.0
 10
46.386058
 20
25.979905
 30
0.0
 11
46.386058
 21
25.979905
 31
0.0
  0
LINE
  5
8DD
100
AcDbEntity
  8
BORDER
  6
CONTINUOUS
 62
     2
100
AcDbLine
 39
96.0
 10
46.854858
 20
25.979905
 30
0.0
 11
46.854858
 21
25.979905
 31
0.0
  0
LINE
  5
8DE
100
AcDbEntity
  8
BORDER
  6
CONTINUOUS
 62
     2
100
AcDbLine
 39
96.0
 10
45.214258
 20
25.511205
 30
0.0
 11
45.214258
 21
25.511205
 31
0.0
  0
LINE
  5
8DF
100
AcDbEntity
  8
BORDER
  6
CONTINUOUS
 62
     2
100
AcDbLine
 39
96.0
 10
45.682958
 20
25.511205
 30
0.0
 11
45.682958
 21
25.511205
 31
0.0
  0
LINE
  5
8E0
100
AcDbEntity
  8
BORDER
  6
CONTINUOUS
 62
     2
100
AcDbLine
 39
96.0
 10
46.151758
 20
25.511205
 30
0.0
 11
46.151758
 21
25.511205
 31
0.0
  0
LINE
  5
8E1
100
AcDbEntity
  8
BORDER
  6
CONTINUOUS
 62
     2
100
AcDbLine
 39
96.0
 10
46.620458
 20
25.511205
 30
0.0
 11
46.620458
 21
25.511205
 31
0.0
  0
LINE
  5
8E2
100
AcDbEntity
  8
BORDER
  6
CONTINUOUS
 62
     2
100
AcDbLine
 39
96.0
 10
45.448558
 20
25.042405
 30
0.0
 11
45.448558
 21
25.042405
 31
0.0
  0
LINE
  5
8E3
100
AcDbEntity
  8
BORDER
  6
CONTINUOUS
 62
     2
100
AcDbLine
 39
96.0
 10
45.917358
 20
25.042405
 30
0.0
 11
45.917358
 21
25.042405
 31
0.0
  0
LINE
  5
8E4
100
AcDbEntity
  8
BORDER
  6
CONTINUOUS
 62
     2
100
AcDbLine
 39
96.0
 10
46.386058
 20
25.042405
 30
0.0
 11
46.386058
 21
25.042405
 31
0.0
  0
LINE
  5
8E5
100
AcDbEntity
  8
BORDER
  6
CONTINUOUS
 62
     2
100
AcDbLine
 39
96.0
 10
46.854858
 20
25.042405
 30
0.0
 11
46.854858
 21
25.042405
 31
0.0
  0
LINE
  5
8E6
100
AcDbEntity
  8
BORDER
  6
CONTINUOUS
 62
     2
100
AcDbLine
 39
96.0
 10
45.214258
 20
24.573705
 30
0.0
 11
45.214258
 21
24.573705
 31
0.0
  0
LINE
  5
8E7
100
AcDbEntity
  8
BORDER
  6
CONTINUOUS
 62
     2
100
AcDbLine
 39
96.0
 10
45.682958
 20
24.573705
 30
0.0
 11
45.682958
 21
24.573705
 31
0.0
  0
LINE
  5
8E8
100
AcDbEntity
  8
BORDER
  6
CONTINUOUS
 62
     2
100
AcDbLine
 39
96.0
 10
46.151758
 20
24.573705
 30
0.0
 11
46.151758
 21
24.573705
 31
0.0
  0
LINE
  5
8E9
100
AcDbEntity
  8
BORDER
  6
CONTINUOUS
 62
     2
100
AcDbLine
 39
96.0
 10
46.620458
 20
24.573705
 30
0.0
 11
46.620458
 21
24.573705
 31
0.0
  0
LINE
  5
8EA
100
AcDbEntity
  8
BORDER
  6
CONTINUOUS
 62
     2
100
AcDbLine
 39
96.0
 10
45.448558
 20
24.104905
 30
0.0
 11
45.448558
 21
24.104905
 31
0.0
  0
LINE
  5
8EB
100
AcDbEntity
  8
BORDER
  6
CONTINUOUS
 62
     2
100
AcDbLine
 39
96.0
 10
45.917358
 20
24.104905
 30
0.0
 11
45.917358
 21
24.104905
 31
0.0
  0
LINE
  5
8EC
100
AcDbEntity
  8
BORDER
  6
CONTINUOUS
 62
     2
100
AcDbLine
 39
96.0
 10
46.386058
 20
24.104905
 30
0.0
 11
46.386058
 21
24.104905
 31
0.0
  0
LINE
  5
8ED
100
AcDbEntity
  8
BORDER
  6
CONTINUOUS
 62
     2
100
AcDbLine
 39
96.0
 10
46.854858
 20
24.104905
 30
0.0
 11
46.854858
 21
24.104905
 31
0.0
  0
LINE
  5
8EE
100
AcDbEntity
  8
BORDER
  6
CONTINUOUS
 62
     3
100
AcDbLine
 39
96.0
 10
37.033058
 20
38.772005
 30
0.0
 11
38.908058
 21
38.772005
 31
0.0
  0
LINE
  5
8EF
100
AcDbEntity
  8
BORDER
  6
CONTINUOUS
 62
     3
100
AcDbLine
 39
96.0
 10
45.158058
 20
38.772005
 30
0.0
 11
47.033058
 21
38.772005
 31
0.0
  0
LINE
  5
8F0
100
AcDbEntity
  8
BORDER
  6
CONTINUOUS
 62
    10
100
AcDbLine
 39
96.0
 10
39.885858
 20
25.704105
 30
0.0
 11
39.812358
 21
25.677405
 31
0.0
  0
LINE
  5
8F1
100
AcDbEntity
  8
BORDER
  6
CONTINUOUS
 62
    10
100
AcDbLine
 39
96.0
 10
42.025958
 20
26.219605
 30
0.0
 11
41.981058
 21
26.155605
 31
0.0
  0
LINE
  5
8F2
100
AcDbEntity
  8
BORDER
  6
CONTINUOUS
 62
    10
100
AcDbLine
 39
96.0
 10
40.233558
 20
23.659705
 30
0.0
 11
40.188558
 21
23.595805
 31
0.0
  0
LINE
  5
8F3
100
AcDbEntity
  8
BORDER
  6
CONTINUOUS
 62
    10
100
AcDbLine
 39
96.0
 10
42.585058
 20
26.720805
 30
0.0
 11
42.574058
 21
26.659205
 31
0.0
  0
LINE
  5
8F4
100
AcDbEntity
  8
BORDER
  6
CONTINUOUS
 62
    10
100
AcDbLine
 39
96.0
 10
42.552358
 20
36.651405
 30
0.0
 11
42.478858
 21
36.624705
 31
0.0
  0
LINE
  5
8F5
100
AcDbEntity
  8
BORDER
  6
CONTINUOUS
 62
    10
100
AcDbLine
 39
96.0
 10
42.283558
 20
37.484105
 30
0.0
 11
42.238658
 21
37.420105
 31
0.0
  0
LINE
  5
8F6
100
AcDbEntity
  8
BORDER
  6
CONTINUOUS
 62
    10
100
AcDbLine
 39
96.0
 10
41.138258
 20
36.511305
 30
0.0
 11
41.124658
 21
36.434405
 31
0.0
  0
LINE
  5
8F7
100
AcDbEntity
  8
BORDER
  6
CONTINUOUS
 62
     1
100
AcDbLine
 39
96.0
 10
42.645858
 20
24.088905
 30
0.0
 11
42.704658
 21
24.110205
 31
0.0
  0
LINE
  5
8F8
100
AcDbEntity
  8
BORDER
  6
CONTINUOUS
 62
     1
100
AcDbLine
 39
96.0
 10
43.071858
 20
24.307705
 30
0.0
 11
43.082658
 21
24.369205
 31
0.0
  0
LINE
  5
8F9
100
AcDbEntity
  8
BORDER
  6
CONTINUOUS
 62
     1
100
AcDbLine
 39
96.0
 10
42.359958
 20
24.723505
 30
0.0
 11
42.395858
 21
24.774705
 31
0.0
  0
LINE
  5
8FA
100
AcDbEntity
  8
BORDER
  6
CONTINUOUS
 62
     3
100
AcDbLine
 39
96.0
 10
47.033058
 20
15.741305
 30
0.0
 11
47.033058
 21
23.772005
 31
0.0
  0
LINE
  5
8FB
100
AcDbEntity
  8
BORDER
  6
CONTINUOUS
 62
     3
100
AcDbLine
 39
96.0
 10
47.033058
 20
23.772005
 30
0.0
 11
45.158058
 21
23.772005
 31
0.0
  0
LINE
  5
8FC
100
AcDbEntity
  8
BORDER
  6
CONTINUOUS
 62
     3
100
AcDbLine
 39
96.0
 10
37.033058
 20
23.772005
 30
0.0
 11
37.033058
 21
15.741305
 31
0.0
  0
LINE
  5
8FD
100
AcDbEntity
  8
BORDER
  6
CONTINUOUS
 62
     3
100
AcDbLine
 39
96.0
 10
38.908058
 20
23.772005
 30
0.0
 11
38.908058
 21
15.741305
 31
0.0
  0
LINE
  5
8FE
100
AcDbEntity
  8
BORDER
  6
CONTINUOUS
 62
     3
100
AcDbLine
 39
96.0
 10
45.158058
 20
15.741305
 30
0.0
 11
45.158058
 21
23.772005
 31
0.0
  0
ARC
  5
8FF
100
AcDbEntity
  8
BORDER
  6
CONTINUOUS
 62
     3
100
AcDbCircle
 39
96.0
 10
42.033058
 20
23.772005
 30
0.0
 40
3.0
100
AcDbArc
 50
180.0
 51
0.0
  0
LINE
  5
900
100
AcDbEntity
  8
BORDER
  6
CONTINUOUS
 62
     3
100
AcDbLine
 39
96.0
 10
38.908058
 20
23.772005
 30
0.0
 11
37.033058
 21
23.772005
 31
0.0
  0
LINE
  5
901
100
AcDbEntity
  8
BORDER
  6
CONTINUOUS
 62
     1
100
AcDbLine
 39
96.0
 10
40.935858
 20
20.461405
 30
0.0
 11
40.994758
 21
20.482805
 31
0.0
  0
LINE
  5
902
100
AcDbEntity
  8
BORDER
  6
CONTINUOUS
 62
     1
100
AcDbLine
 39
96.0
 10
39.441558
 20
17.257105
 30
0.0
 11
39.500358
 21
17.278505
 31
0.0
  0
LINE
  5
903
100
AcDbEntity
  8
BORDER
  6
CONTINUOUS
 62
     1
100
AcDbLine
 39
96.0
 10
41.790858
 20
18.112205
 30
0.0
 11
41.849758
 21
18.133505
 31
0.0
  0
LINE
  5
904
100
AcDbEntity
  8
BORDER
  6
CONTINUOUS
 62
     1
100
AcDbLine
 39
96.0
 10
44.140258
 20
18.967205
 30
0.0
 11
44.199058
 21
18.988605
 31
0.0
  0
LINE
  5
905
100
AcDbEntity
  8
BORDER
  6
CONTINUOUS
 62
     1
100
AcDbLine
 39
96.0
 10
42.645858
 20
15.762905
 30
0.0
 11
42.704658
 21
15.784305
 31
0.0
  0
LINE
  5
906
100
AcDbEntity
  8
BORDER
  6
CONTINUOUS
 62
     1
100
AcDbLine
 39
96.0
 10
44.995258
 20
16.618005
 30
0.0
 11
45.054058
 21
16.639305
 31
0.0
  0
LINE
  5
907
100
AcDbEntity
  8
BORDER
  6
CONTINUOUS
 62
     1
100
AcDbLine
 39
96.0
 10
39.698158
 20
21.313305
 30
0.0
 11
39.733958
 21
21.364505
 31
0.0
  0
LINE
  5
908
100
AcDbEntity
  8
BORDER
  6
CONTINUOUS
 62
     1
100
AcDbLine
 39
96.0
 10
40.312158
 20
17.831405
 30
0.0
 11
40.348058
 21
17.882705
 31
0.0
  0
LINE
  5
909
100
AcDbEntity
  8
BORDER
  6
CONTINUOUS
 62
     1
100
AcDbLine
 39
96.0
 10
41.746258
 20
19.879305
 30
0.0
 11
41.782058
 21
19.930505
 31
0.0
  0
LINE
  5
90A
100
AcDbEntity
  8
BORDER
  6
CONTINUOUS
 62
     1
100
AcDbLine
 39
96.0
 10
42.359958
 20
16.397605
 30
0.0
 11
42.395858
 21
16.448805
 31
0.0
  0
LINE
  5
90B
100
AcDbEntity
  8
BORDER
  6
CONTINUOUS
 62
     1
100
AcDbLine
 39
96.0
 10
43.794058
 20
18.445405
 30
0.0
 11
43.829958
 21
18.496705
 31
0.0
  0
LINE
  5
90C
100
AcDbEntity
  8
BORDER
  6
CONTINUOUS
 62
     1
100
AcDbLine
 39
96.0
 10
39.016458
 20
21.773905
 30
0.0
 11
39.027258
 21
21.835505
 31
0.0
  0
LINE
  5
90D
100
AcDbEntity
  8
BORDER
  6
CONTINUOUS
 62
     1
100
AcDbLine
 39
96.0
 10
40.610258
 20
16.415805
 30
0.0
 11
40.620958
 21
16.477405
 31
0.0
  0
LINE
  5
90E
100
AcDbEntity
  8
BORDER
  6
CONTINUOUS
 62
     1
100
AcDbLine
 39
96.0
 10
41.044258
 20
18.877905
 30
0.0
 11
41.055058
 21
18.939405
 31
0.0
  0
LINE
  5
90F
100
AcDbEntity
  8
BORDER
  6
CONTINUOUS
 62
     1
100
AcDbLine
 39
96.0
 10
43.071858
 20
15.981705
 30
0.0
 11
43.082658
 21
16.043305
 31
0.0
  0
LINE
  5
910
100
AcDbEntity
  8
BORDER
  6
CONTINUOUS
 62
     1
100
AcDbLine
 39
96.0
 10
43.505958
 20
18.443805
 30
0.0
 11
43.516758
 21
18.505405
 31
0.0
  0
LINE
  5
911
100
AcDbEntity
  8
BORDER
  6
CONTINUOUS
 62
     1
100
AcDbLine
 39
96.0
 10
43.940058
 20
20.905805
 30
0.0
 11
43.950758
 21
20.967405
 31
0.0
  0
LINE
  5
912
100
AcDbEntity
  8
BORDER
  6
CONTINUOUS
 62
     2
100
AcDbLine
 39
96.0
 10
37.245458
 20
23.636205
 30
0.0
 11
37.245458
 21
23.636205
 31
0.0
  0
LINE
  5
913
100
AcDbEntity
  8
BORDER
  6
CONTINUOUS
 62
     2
100
AcDbLine
 39
96.0
 10
37.714258
 20
23.636205
 30
0.0
 11
37.714258
 21
23.636205
 31
0.0
  0
LINE
  5
914
100
AcDbEntity
  8
BORDER
  6
CONTINUOUS
 62
     2
100
AcDbLine
 39
96.0
 10
38.182958
 20
23.636205
 30
0.0
 11
38.182958
 21
23.636205
 31
0.0
  0
LINE
  5
915
100
AcDbEntity
  8
BORDER
  6
CONTINUOUS
 62
     2
100
AcDbLine
 39
96.0
 10
38.651758
 20
23.636205
 30
0.0
 11
38.651758
 21
23.636205
 31
0.0
  0
LINE
  5
916
100
AcDbEntity
  8
BORDER
  6
CONTINUOUS
 62
     2
100
AcDbLine
 39
96.0
 10
37.479858
 20
23.167505
 30
0.0
 11
37.479858
 21
23.167505
 31
0.0
  0
LINE
  5
917
100
AcDbEntity
  8
BORDER
  6
CONTINUOUS
 62
     2
100
AcDbLine
 39
96.0
 10
37.948558
 20
23.167505
 30
0.0
 11
37.948558
 21
23.167505
 31
0.0
  0
LINE
  5
918
100
AcDbEntity
  8
BORDER
  6
CONTINUOUS
 62
     2
100
AcDbLine
 39
96.0
 10
38.417358
 20
23.167505
 30
0.0
 11
38.417358
 21
23.167505
 31
0.0
  0
LINE
  5
919
100
AcDbEntity
  8
BORDER
  6
CONTINUOUS
 62
     2
100
AcDbLine
 39
96.0
 10
38.886058
 20
23.167505
 30
0.0
 11
38.886058
 21
23.167505
 31
0.0
  0
LINE
  5
91A
100
AcDbEntity
  8
BORDER
  6
CONTINUOUS
 62
     2
100
AcDbLine
 39
96.0
 10
37.245458
 20
22.698705
 30
0.0
 11
37.245458
 21
22.698705
 31
0.0
  0
LINE
  5
91B
100
AcDbEntity
  8
BORDER
  6
CONTINUOUS
 62
     2
100
AcDbLine
 39
96.0
 10
37.714258
 20
22.698705
 30
0.0
 11
37.714258
 21
22.698705
 31
0.0
  0
LINE
  5
91C
100
AcDbEntity
  8
BORDER
  6
CONTINUOUS
 62
     2
100
AcDbLine
 39
96.0
 10
38.182958
 20
22.698705
 30
0.0
 11
38.182958
 21
22.698705
 31
0.0
  0
LINE
  5
91D
100
AcDbEntity
  8
BORDER
  6
CONTINUOUS
 62
     2
100
AcDbLine
 39
96.0
 10
38.651758
 20
22.698705
 30
0.0
 11
38.651758
 21
22.698705
 31
0.0
  0
LINE
  5
91E
100
AcDbEntity
  8
BORDER
  6
CONTINUOUS
 62
     2
100
AcDbLine
 39
96.0
 10
37.479858
 20
22.230005
 30
0.0
 11
37.479858
 21
22.230005
 31
0.0
  0
LINE
  5
91F
100
AcDbEntity
  8
BORDER
  6
CONTINUOUS
 62
     2
100
AcDbLine
 39
96.0
 10
37.948558
 20
22.230005
 30
0.0
 11
37.948558
 21
22.230005
 31
0.0
  0
LINE
  5
920
100
AcDbEntity
  8
BORDER
  6
CONTINUOUS
 62
     2
100
AcDbLine
 39
96.0
 10
38.417358
 20
22.230005
 30
0.0
 11
38.417358
 21
22.230005
 31
0.0
  0
LINE
  5
921
100
AcDbEntity
  8
BORDER
  6
CONTINUOUS
 62
     2
100
AcDbLine
 39
96.0
 10
38.886058
 20
22.230005
 30
0.0
 11
38.886058
 21
22.230005
 31
0.0
  0
LINE
  5
922
100
AcDbEntity
  8
BORDER
  6
CONTINUOUS
 62
     2
100
AcDbLine
 39
96.0
 10
37.245458
 20
21.761205
 30
0.0
 11
37.245458
 21
21.761205
 31
0.0
  0
LINE
  5
923
100
AcDbEntity
  8
BORDER
  6
CONTINUOUS
 62
     2
100
AcDbLine
 39
96.0
 10
37.714258
 20
21.761205
 30
0.0
 11
37.714258
 21
21.761205
 31
0.0
  0
LINE
  5
924
100
AcDbEntity
  8
BORDER
  6
CONTINUOUS
 62
     2
100
AcDbLine
 39
96.0
 10
38.182958
 20
21.761205
 30
0.0
 11
38.182958
 21
21.761205
 31
0.0
  0
LINE
  5
925
100
AcDbEntity
  8
BORDER
  6
CONTINUOUS
 62
     2
100
AcDbLine
 39
96.0
 10
38.651758
 20
21.761205
 30
0.0
 11
38.651758
 21
21.761205
 31
0.0
  0
LINE
  5
926
100
AcDbEntity
  8
BORDER
  6
CONTINUOUS
 62
     2
100
AcDbLine
 39
96.0
 10
37.479858
 20
21.292505
 30
0.0
 11
37.479858
 21
21.292505
 31
0.0
  0
LINE
  5
927
100
AcDbEntity
  8
BORDER
  6
CONTINUOUS
 62
     2
100
AcDbLine
 39
96.0
 10
37.948558
 20
21.292505
 30
0.0
 11
37.948558
 21
21.292505
 31
0.0
  0
LINE
  5
928
100
AcDbEntity
  8
BORDER
  6
CONTINUOUS
 62
     2
100
AcDbLine
 39
96.0
 10
38.417358
 20
21.292505
 30
0.0
 11
38.417358
 21
21.292505
 31
0.0
  0
LINE
  5
929
100
AcDbEntity
  8
BORDER
  6
CONTINUOUS
 62
     2
100
AcDbLine
 39
96.0
 10
38.886058
 20
21.292505
 30
0.0
 11
38.886058
 21
21.292505
 31
0.0
  0
LINE
  5
92A
100
AcDbEntity
  8
BORDER
  6
CONTINUOUS
 62
     2
100
AcDbLine
 39
96.0
 10
37.245458
 20
20.823705
 30
0.0
 11
37.245458
 21
20.823705
 31
0.0
  0
LINE
  5
92B
100
AcDbEntity
  8
BORDER
  6
CONTINUOUS
 62
     2
100
AcDbLine
 39
96.0
 10
37.714258
 20
20.823705
 30
0.0
 11
37.714258
 21
20.823705
 31
0.0
  0
LINE
  5
92C
100
AcDbEntity
  8
BORDER
  6
CONTINUOUS
 62
     2
100
AcDbLine
 39
96.0
 10
38.182958
 20
20.823705
 30
0.0
 11
38.182958
 21
20.823705
 31
0.0
  0
LINE
  5
92D
100
AcDbEntity
  8
BORDER
  6
CONTINUOUS
 62
     2
100
AcDbLine
 39
96.0
 10
38.651758
 20
20.823705
 30
0.0
 11
38.651758
 21
20.823705
 31
0.0
  0
LINE
  5
92E
100
AcDbEntity
  8
BORDER
  6
CONTINUOUS
 62
     2
100
AcDbLine
 39
96.0
 10
37.479858
 20
20.355005
 30
0.0
 11
37.479858
 21
20.355005
 31
0.0
  0
LINE
  5
92F
100
AcDbEntity
  8
BORDER
  6
CONTINUOUS
 62
     2
100
AcDbLine
 39
96.0
 10
37.948558
 20
20.355005
 30
0.0
 11
37.948558
 21
20.355005
 31
0.0
  0
LINE
  5
930
100
AcDbEntity
  8
BORDER
  6
CONTINUOUS
 62
     2
100
AcDbLine
 39
96.0
 10
38.417358
 20
20.355005
 30
0.0
 11
38.417358
 21
20.355005
 31
0.0
  0
LINE
  5
931
100
AcDbEntity
  8
BORDER
  6
CONTINUOUS
 62
     2
100
AcDbLine
 39
96.0
 10
38.886058
 20
20.355005
 30
0.0
 11
38.886058
 21
20.355005
 31
0.0
  0
LINE
  5
932
100
AcDbEntity
  8
BORDER
  6
CONTINUOUS
 62
     2
100
AcDbLine
 39
96.0
 10
37.245458
 20
19.886205
 30
0.0
 11
37.245458
 21
19.886205
 31
0.0
  0
LINE
  5
933
100
AcDbEntity
  8
BORDER
  6
CONTINUOUS
 62
     2
100
AcDbLine
 39
96.0
 10
37.714258
 20
19.886205
 30
0.0
 11
37.714258
 21
19.886205
 31
0.0
  0
LINE
  5
934
100
AcDbEntity
  8
BORDER
  6
CONTINUOUS
 62
     2
100
AcDbLine
 39
96.0
 10
38.182958
 20
19.886205
 30
0.0
 11
38.182958
 21
19.886205
 31
0.0
  0
LINE
  5
935
100
AcDbEntity
  8
BORDER
  6
CONTINUOUS
 62
     2
100
AcDbLine
 39
96.0
 10
38.651758
 20
19.886205
 30
0.0
 11
38.651758
 21
19.886205
 31
0.0
  0
LINE
  5
936
100
AcDbEntity
  8
BORDER
  6
CONTINUOUS
 62
     2
100
AcDbLine
 39
96.0
 10
37.479858
 20
19.417505
 30
0.0
 11
37.479858
 21
19.417505
 31
0.0
  0
LINE
  5
937
100
AcDbEntity
  8
BORDER
  6
CONTINUOUS
 62
     2
100
AcDbLine
 39
96.0
 10
37.948558
 20
19.417505
 30
0.0
 11
37.948558
 21
19.417505
 31
0.0
  0
LINE
  5
938
100
AcDbEntity
  8
BORDER
  6
CONTINUOUS
 62
     2
100
AcDbLine
 39
96.0
 10
38.417358
 20
19.417505
 30
0.0
 11
38.417358
 21
19.417505
 31
0.0
  0
LINE
  5
939
100
AcDbEntity
  8
BORDER
  6
CONTINUOUS
 62
     2
100
AcDbLine
 39
96.0
 10
38.886058
 20
19.417505
 30
0.0
 11
38.886058
 21
19.417505
 31
0.0
  0
LINE
  5
93A
100
AcDbEntity
  8
BORDER
  6
CONTINUOUS
 62
     2
100
AcDbLine
 39
96.0
 10
37.245458
 20
18.948705
 30
0.0
 11
37.245458
 21
18.948705
 31
0.0
  0
LINE
  5
93B
100
AcDbEntity
  8
BORDER
  6
CONTINUOUS
 62
     2
100
AcDbLine
 39
96.0
 10
37.714258
 20
18.948705
 30
0.0
 11
37.714258
 21
18.948705
 31
0.0
  0
LINE
  5
93C
100
AcDbEntity
  8
BORDER
  6
CONTINUOUS
 62
     2
100
AcDbLine
 39
96.0
 10
38.182958
 20
18.948705
 30
0.0
 11
38.182958
 21
18.948705
 31
0.0
  0
LINE
  5
93D
100
AcDbEntity
  8
BORDER
  6
CONTINUOUS
 62
     2
100
AcDbLine
 39
96.0
 10
38.651758
 20
18.948705
 30
0.0
 11
38.651758
 21
18.948705
 31
0.0
  0
LINE
  5
93E
100
AcDbEntity
  8
BORDER
  6
CONTINUOUS
 62
     2
100
AcDbLine
 39
96.0
 10
37.479858
 20
18.480005
 30
0.0
 11
37.479858
 21
18.480005
 31
0.0
  0
LINE
  5
93F
100
AcDbEntity
  8
BORDER
  6
CONTINUOUS
 62
     2
100
AcDbLine
 39
96.0
 10
37.948558
 20
18.480005
 30
0.0
 11
37.948558
 21
18.480005
 31
0.0
  0
LINE
  5
940
100
AcDbEntity
  8
BORDER
  6
CONTINUOUS
 62
     2
100
AcDbLine
 39
96.0
 10
38.417358
 20
18.480005
 30
0.0
 11
38.417358
 21
18.480005
 31
0.0
  0
LINE
  5
941
100
AcDbEntity
  8
BORDER
  6
CONTINUOUS
 62
     2
100
AcDbLine
 39
96.0
 10
38.886058
 20
18.480005
 30
0.0
 11
38.886058
 21
18.480005
 31
0.0
  0
LINE
  5
942
100
AcDbEntity
  8
BORDER
  6
CONTINUOUS
 62
     2
100
AcDbLine
 39
96.0
 10
37.245458
 20
18.011205
 30
0.0
 11
37.245458
 21
18.011205
 31
0.0
  0
LINE
  5
943
100
AcDbEntity
  8
BORDER
  6
CONTINUOUS
 62
     2
100
AcDbLine
 39
96.0
 10
37.714258
 20
18.011205
 30
0.0
 11
37.714258
 21
18.011205
 31
0.0
  0
LINE
  5
944
100
AcDbEntity
  8
BORDER
  6
CONTINUOUS
 62
     2
100
AcDbLine
 39
96.0
 10
38.182958
 20
18.011205
 30
0.0
 11
38.182958
 21
18.011205
 31
0.0
  0
LINE
  5
945
100
AcDbEntity
  8
BORDER
  6
CONTINUOUS
 62
     2
100
AcDbLine
 39
96.0
 10
38.651758
 20
18.011205
 30
0.0
 11
38.651758
 21
18.011205
 31
0.0
  0
LINE
  5
946
100
AcDbEntity
  8
BORDER
  6
CONTINUOUS
 62
     2
100
AcDbLine
 39
96.0
 10
37.479858
 20
17.542505
 30
0.0
 11
37.479858
 21
17.542505
 31
0.0
  0
LINE
  5
947
100
AcDbEntity
  8
BORDER
  6
CONTINUOUS
 62
     2
100
AcDbLine
 39
96.0
 10
37.948558
 20
17.542505
 30
0.0
 11
37.948558
 21
17.542505
 31
0.0
  0
LINE
  5
948
100
AcDbEntity
  8
BORDER
  6
CONTINUOUS
 62
     2
100
AcDbLine
 39
96.0
 10
38.417358
 20
17.542505
 30
0.0
 11
38.417358
 21
17.542505
 31
0.0
  0
LINE
  5
949
100
AcDbEntity
  8
BORDER
  6
CONTINUOUS
 62
     2
100
AcDbLine
 39
96.0
 10
38.886058
 20
17.542505
 30
0.0
 11
38.886058
 21
17.542505
 31
0.0
  0
LINE
  5
94A
100
AcDbEntity
  8
BORDER
  6
CONTINUOUS
 62
     2
100
AcDbLine
 39
96.0
 10
37.245458
 20
17.073705
 30
0.0
 11
37.245458
 21
17.073705
 31
0.0
  0
LINE
  5
94B
100
AcDbEntity
  8
BORDER
  6
CONTINUOUS
 62
     2
100
AcDbLine
 39
96.0
 10
37.714258
 20
17.073705
 30
0.0
 11
37.714258
 21
17.073705
 31
0.0
  0
LINE
  5
94C
100
AcDbEntity
  8
BORDER
  6
CONTINUOUS
 62
     2
100
AcDbLine
 39
96.0
 10
38.182958
 20
17.073705
 30
0.0
 11
38.182958
 21
17.073705
 31
0.0
  0
LINE
  5
94D
100
AcDbEntity
  8
BORDER
  6
CONTINUOUS
 62
     2
100
AcDbLine
 39
96.0
 10
38.651758
 20
17.073705
 30
0.0
 11
38.651758
 21
17.073705
 31
0.0
  0
LINE
  5
94E
100
AcDbEntity
  8
BORDER
  6
CONTINUOUS
 62
     2
100
AcDbLine
 39
96.0
 10
37.479858
 20
16.605005
 30
0.0
 11
37.479858
 21
16.605005
 31
0.0
  0
LINE
  5
94F
100
AcDbEntity
  8
BORDER
  6
CONTINUOUS
 62
     2
100
AcDbLine
 39
96.0
 10
37.948558
 20
16.605005
 30
0.0
 11
37.948558
 21
16.605005
 31
0.0
  0
LINE
  5
950
100
AcDbEntity
  8
BORDER
  6
CONTINUOUS
 62
     2
100
AcDbLine
 39
96.0
 10
38.417358
 20
16.605005
 30
0.0
 11
38.417358
 21
16.605005
 31
0.0
  0
LINE
  5
951
100
AcDbEntity
  8
BORDER
  6
CONTINUOUS
 62
     2
100
AcDbLine
 39
96.0
 10
38.886058
 20
16.605005
 30
0.0
 11
38.886058
 21
16.605005
 31
0.0
  0
LINE
  5
952
100
AcDbEntity
  8
BORDER
  6
CONTINUOUS
 62
     2
100
AcDbLine
 39
96.0
 10
37.245458
 20
16.136205
 30
0.0
 11
37.245458
 21
16.136205
 31
0.0
  0
LINE
  5
953
100
AcDbEntity
  8
BORDER
  6
CONTINUOUS
 62
     2
100
AcDbLine
 39
96.0
 10
37.714258
 20
16.136205
 30
0.0
 11
37.714258
 21
16.136205
 31
0.0
  0
LINE
  5
954
100
AcDbEntity
  8
BORDER
  6
CONTINUOUS
 62
     2
100
AcDbLine
 39
96.0
 10
38.182958
 20
16.136205
 30
0.0
 11
38.182958
 21
16.136205
 31
0.0
  0
LINE
  5
955
100
AcDbEntity
  8
BORDER
  6
CONTINUOUS
 62
     2
100
AcDbLine
 39
96.0
 10
38.651758
 20
16.136205
 30
0.0
 11
38.651758
 21
16.136205
 31
0.0
  0
LINE
  5
956
100
AcDbEntity
  8
BORDER
  6
CONTINUOUS
 62
     2
100
AcDbLine
 39
96.0
 10
45.214258
 20
23.636205
 30
0.0
 11
45.214258
 21
23.636205
 31
0.0
  0
LINE
  5
957
100
AcDbEntity
  8
BORDER
  6
CONTINUOUS
 62
     2
100
AcDbLine
 39
96.0
 10
45.682958
 20
23.636205
 30
0.0
 11
45.682958
 21
23.636205
 31
0.0
  0
LINE
  5
958
100
AcDbEntity
  8
BORDER
  6
CONTINUOUS
 62
     2
100
AcDbLine
 39
96.0
 10
46.151758
 20
23.636205
 30
0.0
 11
46.151758
 21
23.636205
 31
0.0
  0
LINE
  5
959
100
AcDbEntity
  8
BORDER
  6
CONTINUOUS
 62
     2
100
AcDbLine
 39
96.0
 10
46.620458
 20
23.636205
 30
0.0
 11
46.620458
 21
23.636205
 31
0.0
  0
LINE
  5
95A
100
AcDbEntity
  8
BORDER
  6
CONTINUOUS
 62
     2
100
AcDbLine
 39
96.0
 10
45.448558
 20
23.167505
 30
0.0
 11
45.448558
 21
23.167505
 31
0.0
  0
LINE
  5
95B
100
AcDbEntity
  8
BORDER
  6
CONTINUOUS
 62
     2
100
AcDbLine
 39
96.0
 10
45.917358
 20
23.167505
 30
0.0
 11
45.917358
 21
23.167505
 31
0.0
  0
LINE
  5
95C
100
AcDbEntity
  8
BORDER
  6
CONTINUOUS
 62
     2
100
AcDbLine
 39
96.0
 10
46.386058
 20
23.167505
 30
0.0
 11
46.386058
 21
23.167505
 31
0.0
  0
LINE
  5
95D
100
AcDbEntity
  8
BORDER
  6
CONTINUOUS
 62
     2
100
AcDbLine
 39
96.0
 10
46.854858
 20
23.167505
 30
0.0
 11
46.854858
 21
23.167505
 31
0.0
  0
LINE
  5
95E
100
AcDbEntity
  8
BORDER
  6
CONTINUOUS
 62
     2
100
AcDbLine
 39
96.0
 10
45.214258
 20
22.698705
 30
0.0
 11
45.214258
 21
22.698705
 31
0.0
  0
LINE
  5
95F
100
AcDbEntity
  8
BORDER
  6
CONTINUOUS
 62
     2
100
AcDbLine
 39
96.0
 10
45.682958
 20
22.698705
 30
0.0
 11
45.682958
 21
22.698705
 31
0.0
  0
LINE
  5
960
100
AcDbEntity
  8
BORDER
  6
CONTINUOUS
 62
     2
100
AcDbLine
 39
96.0
 10
46.151758
 20
22.698705
 30
0.0
 11
46.151758
 21
22.698705
 31
0.0
  0
LINE
  5
961
100
AcDbEntity
  8
BORDER
  6
CONTINUOUS
 62
     2
100
AcDbLine
 39
96.0
 10
46.620458
 20
22.698705
 30
0.0
 11
46.620458
 21
22.698705
 31
0.0
  0
LINE
  5
962
100
AcDbEntity
  8
BORDER
  6
CONTINUOUS
 62
     2
100
AcDbLine
 39
96.0
 10
45.448558
 20
22.230005
 30
0.0
 11
45.448558
 21
22.230005
 31
0.0
  0
LINE
  5
963
100
AcDbEntity
  8
BORDER
  6
CONTINUOUS
 62
     2
100
AcDbLine
 39
96.0
 10
45.917358
 20
22.230005
 30
0.0
 11
45.917358
 21
22.230005
 31
0.0
  0
LINE
  5
964
100
AcDbEntity
  8
BORDER
  6
CONTINUOUS
 62
     2
100
AcDbLine
 39
96.0
 10
46.386058
 20
22.230005
 30
0.0
 11
46.386058
 21
22.230005
 31
0.0
  0
LINE
  5
965
100
AcDbEntity
  8
BORDER
  6
CONTINUOUS
 62
     2
100
AcDbLine
 39
96.0
 10
46.854858
 20
22.230005
 30
0.0
 11
46.854858
 21
22.230005
 31
0.0
  0
LINE
  5
966
100
AcDbEntity
  8
BORDER
  6
CONTINUOUS
 62
     2
100
AcDbLine
 39
96.0
 10
45.214258
 20
21.761205
 30
0.0
 11
45.214258
 21
21.761205
 31
0.0
  0
LINE
  5
967
100
AcDbEntity
  8
BORDER
  6
CONTINUOUS
 62
     2
100
AcDbLine
 39
96.0
 10
45.682958
 20
21.761205
 30
0.0
 11
45.682958
 21
21.761205
 31
0.0
  0
LINE
  5
968
100
AcDbEntity
  8
BORDER
  6
CONTINUOUS
 62
     2
100
AcDbLine
 39
96.0
 10
46.151758
 20
21.761205
 30
0.0
 11
46.151758
 21
21.761205
 31
0.0
  0
LINE
  5
969
100
AcDbEntity
  8
BORDER
  6
CONTINUOUS
 62
     2
100
AcDbLine
 39
96.0
 10
46.620458
 20
21.761205
 30
0.0
 11
46.620458
 21
21.761205
 31
0.0
  0
LINE
  5
96A
100
AcDbEntity
  8
BORDER
  6
CONTINUOUS
 62
     2
100
AcDbLine
 39
96.0
 10
45.448558
 20
21.292505
 30
0.0
 11
45.448558
 21
21.292505
 31
0.0
  0
LINE
  5
96B
100
AcDbEntity
  8
BORDER
  6
CONTINUOUS
 62
     2
100
AcDbLine
 39
96.0
 10
45.917358
 20
21.292505
 30
0.0
 11
45.917358
 21
21.292505
 31
0.0
  0
LINE
  5
96C
100
AcDbEntity
  8
BORDER
  6
CONTINUOUS
 62
     2
100
AcDbLine
 39
96.0
 10
46.386058
 20
21.292505
 30
0.0
 11
46.386058
 21
21.292505
 31
0.0
  0
LINE
  5
96D
100
AcDbEntity
  8
BORDER
  6
CONTINUOUS
 62
     2
100
AcDbLine
 39
96.0
 10
46.854858
 20
21.292505
 30
0.0
 11
46.854858
 21
21.292505
 31
0.0
  0
LINE
  5
96E
100
AcDbEntity
  8
BORDER
  6
CONTINUOUS
 62
     2
100
AcDbLine
 39
96.0
 10
45.214258
 20
20.823705
 30
0.0
 11
45.214258
 21
20.823705
 31
0.0
  0
LINE
  5
96F
100
AcDbEntity
  8
BORDER
  6
CONTINUOUS
 62
     2
100
AcDbLine
 39
96.0
 10
45.682958
 20
20.823705
 30
0.0
 11
45.682958
 21
20.823705
 31
0.0
  0
LINE
  5
970
100
AcDbEntity
  8
BORDER
  6
CONTINUOUS
 62
     2
100
AcDbLine
 39
96.0
 10
46.151758
 20
20.823705
 30
0.0
 11
46.151758
 21
20.823705
 31
0.0
  0
LINE
  5
971
100
AcDbEntity
  8
BORDER
  6
CONTINUOUS
 62
     2
100
AcDbLine
 39
96.0
 10
46.620458
 20
20.823705
 30
0.0
 11
46.620458
 21
20.823705
 31
0.0
  0
LINE
  5
972
100
AcDbEntity
  8
BORDER
  6
CONTINUOUS
 62
     2
100
AcDbLine
 39
96.0
 10
45.448558
 20
20.355005
 30
0.0
 11
45.448558
 21
20.355005
 31
0.0
  0
LINE
  5
973
100
AcDbEntity
  8
BORDER
  6
CONTINUOUS
 62
     2
100
AcDbLine
 39
96.0
 10
45.917358
 20
20.355005
 30
0.0
 11
45.917358
 21
20.355005
 31
0.0
  0
LINE
  5
974
100
AcDbEntity
  8
BORDER
  6
CONTINUOUS
 62
     2
100
AcDbLine
 39
96.0
 10
46.386058
 20
20.355005
 30
0.0
 11
46.386058
 21
20.355005
 31
0.0
  0
LINE
  5
975
100
AcDbEntity
  8
BORDER
  6
CONTINUOUS
 62
     2
100
AcDbLine
 39
96.0
 10
46.854858
 20
20.355005
 30
0.0
 11
46.854858
 21
20.355005
 31
0.0
  0
LINE
  5
976
100
AcDbEntity
  8
BORDER
  6
CONTINUOUS
 62
     2
100
AcDbLine
 39
96.0
 10
45.214258
 20
19.886205
 30
0.0
 11
45.214258
 21
19.886205
 31
0.0
  0
LINE
  5
977
100
AcDbEntity
  8
BORDER
  6
CONTINUOUS
 62
     2
100
AcDbLine
 39
96.0
 10
45.682958
 20
19.886205
 30
0.0
 11
45.682958
 21
19.886205
 31
0.0
  0
LINE
  5
978
100
AcDbEntity
  8
BORDER
  6
CONTINUOUS
 62
     2
100
AcDbLine
 39
96.0
 10
46.151758
 20
19.886205
 30
0.0
 11
46.151758
 21
19.886205
 31
0.0
  0
LINE
  5
979
100
AcDbEntity
  8
BORDER
  6
CONTINUOUS
 62
     2
100
AcDbLine
 39
96.0
 10
46.620458
 20
19.886205
 30
0.0
 11
46.620458
 21
19.886205
 31
0.0
  0
LINE
  5
97A
100
AcDbEntity
  8
BORDER
  6
CONTINUOUS
 62
     2
100
AcDbLine
 39
96.0
 10
45.448558
 20
19.417505
 30
0.0
 11
45.448558
 21
19.417505
 31
0.0
  0
LINE
  5
97B
100
AcDbEntity
  8
BORDER
  6
CONTINUOUS
 62
     2
100
AcDbLine
 39
96.0
 10
45.917358
 20
19.417505
 30
0.0
 11
45.917358
 21
19.417505
 31
0.0
  0
LINE
  5
97C
100
AcDbEntity
  8
BORDER
  6
CONTINUOUS
 62
     2
100
AcDbLine
 39
96.0
 10
46.386058
 20
19.417505
 30
0.0
 11
46.386058
 21
19.417505
 31
0.0
  0
LINE
  5
97D
100
AcDbEntity
  8
BORDER
  6
CONTINUOUS
 62
     2
100
AcDbLine
 39
96.0
 10
46.854858
 20
19.417505
 30
0.0
 11
46.854858
 21
19.417505
 31
0.0
  0
LINE
  5
97E
100
AcDbEntity
  8
BORDER
  6
CONTINUOUS
 62
     2
100
AcDbLine
 39
96.0
 10
45.214258
 20
18.948705
 30
0.0
 11
45.214258
 21
18.948705
 31
0.0
  0
LINE
  5
97F
100
AcDbEntity
  8
BORDER
  6
CONTINUOUS
 62
     2
100
AcDbLine
 39
96.0
 10
45.682958
 20
18.948705
 30
0.0
 11
45.682958
 21
18.948705
 31
0.0
  0
LINE
  5
980
100
AcDbEntity
  8
BORDER
  6
CONTINUOUS
 62
     2
100
AcDbLine
 39
96.0
 10
46.151758
 20
18.948705
 30
0.0
 11
46.151758
 21
18.948705
 31
0.0
  0
LINE
  5
981
100
AcDbEntity
  8
BORDER
  6
CONTINUOUS
 62
     2
100
AcDbLine
 39
96.0
 10
46.620458
 20
18.948705
 30
0.0
 11
46.620458
 21
18.948705
 31
0.0
  0
LINE
  5
982
100
AcDbEntity
  8
BORDER
  6
CONTINUOUS
 62
     2
100
AcDbLine
 39
96.0
 10
45.448558
 20
18.480005
 30
0.0
 11
45.448558
 21
18.480005
 31
0.0
  0
LINE
  5
983
100
AcDbEntity
  8
BORDER
  6
CONTINUOUS
 62
     2
100
AcDbLine
 39
96.0
 10
45.917358
 20
18.480005
 30
0.0
 11
45.917358
 21
18.480005
 31
0.0
  0
LINE
  5
984
100
AcDbEntity
  8
BORDER
  6
CONTINUOUS
 62
     2
100
AcDbLine
 39
96.0
 10
46.386058
 20
18.480005
 30
0.0
 11
46.386058
 21
18.480005
 31
0.0
  0
LINE
  5
985
100
AcDbEntity
  8
BORDER
  6
CONTINUOUS
 62
     2
100
AcDbLine
 39
96.0
 10
46.854858
 20
18.480005
 30
0.0
 11
46.854858
 21
18.480005
 31
0.0
  0
LINE
  5
986
100
AcDbEntity
  8
BORDER
  6
CONTINUOUS
 62
     2
100
AcDbLine
 39
96.0
 10
45.214258
 20
18.011205
 30
0.0
 11
45.214258
 21
18.011205
 31
0.0
  0
LINE
  5
987
100
AcDbEntity
  8
BORDER
  6
CONTINUOUS
 62
     2
100
AcDbLine
 39
96.0
 10
45.682958
 20
18.011205
 30
0.0
 11
45.682958
 21
18.011205
 31
0.0
  0
LINE
  5
988
100
AcDbEntity
  8
BORDER
  6
CONTINUOUS
 62
     2
100
AcDbLine
 39
96.0
 10
46.151758
 20
18.011205
 30
0.0
 11
46.151758
 21
18.011205
 31
0.0
  0
LINE
  5
989
100
AcDbEntity
  8
BORDER
  6
CONTINUOUS
 62
     2
100
AcDbLine
 39
96.0
 10
46.620458
 20
18.011205
 30
0.0
 11
46.620458
 21
18.011205
 31
0.0
  0
LINE
  5
98A
100
AcDbEntity
  8
BORDER
  6
CONTINUOUS
 62
     2
100
AcDbLine
 39
96.0
 10
45.448558
 20
17.542505
 30
0.0
 11
45.448558
 21
17.542505
 31
0.0
  0
LINE
  5
98B
100
AcDbEntity
  8
BORDER
  6
CONTINUOUS
 62
     2
100
AcDbLine
 39
96.0
 10
45.917358
 20
17.542505
 30
0.0
 11
45.917358
 21
17.542505
 31
0.0
  0
LINE
  5
98C
100
AcDbEntity
  8
BORDER
  6
CONTINUOUS
 62
     2
100
AcDbLine
 39
96.0
 10
46.386058
 20
17.542505
 30
0.0
 11
46.386058
 21
17.542505
 31
0.0
  0
LINE
  5
98D
100
AcDbEntity
  8
BORDER
  6
CONTINUOUS
 62
     2
100
AcDbLine
 39
96.0
 10
46.854858
 20
17.542505
 30
0.0
 11
46.854858
 21
17.542505
 31
0.0
  0
LINE
  5
98E
100
AcDbEntity
  8
BORDER
  6
CONTINUOUS
 62
     2
100
AcDbLine
 39
96.0
 10
45.214258
 20
17.073705
 30
0.0
 11
45.214258
 21
17.073705
 31
0.0
  0
LINE
  5
98F
100
AcDbEntity
  8
BORDER
  6
CONTINUOUS
 62
     2
100
AcDbLine
 39
96.0
 10
45.682958
 20
17.073705
 30
0.0
 11
45.682958
 21
17.073705
 31
0.0
  0
LINE
  5
990
100
AcDbEntity
  8
BORDER
  6
CONTINUOUS
 62
     2
100
AcDbLine
 39
96.0
 10
46.151758
 20
17.073705
 30
0.0
 11
46.151758
 21
17.073705
 31
0.0
  0
LINE
  5
991
100
AcDbEntity
  8
BORDER
  6
CONTINUOUS
 62
     2
100
AcDbLine
 39
96.0
 10
46.620458
 20
17.073705
 30
0.0
 11
46.620458
 21
17.073705
 31
0.0
  0
LINE
  5
992
100
AcDbEntity
  8
BORDER
  6
CONTINUOUS
 62
     2
100
AcDbLine
 39
96.0
 10
45.448558
 20
16.605005
 30
0.0
 11
45.448558
 21
16.605005
 31
0.0
  0
LINE
  5
993
100
AcDbEntity
  8
BORDER
  6
CONTINUOUS
 62
     2
100
AcDbLine
 39
96.0
 10
45.917358
 20
16.605005
 30
0.0
 11
45.917358
 21
16.605005
 31
0.0
  0
LINE
  5
994
100
AcDbEntity
  8
BORDER
  6
CONTINUOUS
 62
     2
100
AcDbLine
 39
96.0
 10
46.386058
 20
16.605005
 30
0.0
 11
46.386058
 21
16.605005
 31
0.0
  0
LINE
  5
995
100
AcDbEntity
  8
BORDER
  6
CONTINUOUS
 62
     2
100
AcDbLine
 39
96.0
 10
46.854858
 20
16.605005
 30
0.0
 11
46.854858
 21
16.605005
 31
0.0
  0
LINE
  5
996
100
AcDbEntity
  8
BORDER
  6
CONTINUOUS
 62
     2
100
AcDbLine
 39
96.0
 10
45.214258
 20
16.136205
 30
0.0
 11
45.214258
 21
16.136205
 31
0.0
  0
LINE
  5
997
100
AcDbEntity
  8
BORDER
  6
CONTINUOUS
 62
     2
100
AcDbLine
 39
96.0
 10
45.682958
 20
16.136205
 30
0.0
 11
45.682958
 21
16.136205
 31
0.0
  0
LINE
  5
998
100
AcDbEntity
  8
BORDER
  6
CONTINUOUS
 62
     2
100
AcDbLine
 39
96.0
 10
46.151758
 20
16.136205
 30
0.0
 11
46.151758
 21
16.136205
 31
0.0
  0
LINE
  5
999
100
AcDbEntity
  8
BORDER
  6
CONTINUOUS
 62
     2
100
AcDbLine
 39
96.0
 10
46.620458
 20
16.136205
 30
0.0
 11
46.620458
 21
16.136205
 31
0.0
  0
LINE
  5
99A
100
AcDbEntity
  8
BORDER
  6
CONTINUOUS
 62
     3
100
AcDbLine
 39
96.0
 10
37.033058
 20
23.772005
 30
0.0
 11
38.908058
 21
23.772005
 31
0.0
  0
LINE
  5
99B
100
AcDbEntity
  8
BORDER
  6
CONTINUOUS
 62
     3
100
AcDbLine
 39
96.0
 10
45.158058
 20
23.772005
 30
0.0
 11
47.033058
 21
23.772005
 31
0.0
  0
LINE
  5
99C
100
AcDbEntity
  8
BORDER
  6
CONTINUOUS
 62
    10
100
AcDbLine
 39
96.0
 10
42.552358
 20
21.651405
 30
0.0
 11
42.478858
 21
21.624605
 31
0.0
  0
LINE
  5
99D
100
AcDbEntity
  8
BORDER
  6
CONTINUOUS
 62
    10
100
AcDbLine
 39
96.0
 10
42.283558
 20
22.484105
 30
0.0
 11
42.238658
 21
22.420105
 31
0.0
  0
LINE
  5
99E
100
AcDbEntity
  8
BORDER
  6
CONTINUOUS
 62
    10
100
AcDbLine
 39
96.0
 10
41.138258
 20
21.511305
 30
0.0
 11
41.124658
 21
21.434405
 31
0.0
  0
LINE
  5
99F
100
AcDbEntity
  8
BORDER
  6
CONTINUOUS
 62
     3
100
AcDbLine
 39
96.0
 10
48.166158
 20
15.741305
 30
0.0
 11
43.736458
 21
15.741305
 31
0.0
  0
LINE
  5
9A0
100
AcDbEntity
  8
BORDER
  6
CONTINUOUS
 62
     3
100
AcDbLine
 39
96.0
 10
40.310658
 20
15.741305
 30
0.0
 11
35.880958
 21
15.741305
 31
0.0
  0
LINE
  5
9A1
100
AcDbEntity
  8
BORDER
  6
CONTINUOUS
 62
     3
100
AcDbLine
 39
96.0
 10
40.310658
 20
15.741305
 30
0.0
 11
41.137558
 21
17.395105
 31
0.0
  0
LINE
  5
9A2
100
AcDbEntity
  8
BORDER
  6
CONTINUOUS
 62
     3
100
AcDbLine
 39
96.0
 10
41.137558
 20
17.395105
 30
0.0
 11
43.086558
 21
14.087605
 31
0.0
  0
LINE
  5
9A3
100
AcDbEntity
  8
BORDER
  6
CONTINUOUS
 62
     3
100
AcDbLine
 39
96.0
 10
43.086558
 20
14.087605
 30
0.0
 11
43.736458
 21
15.741305
 31
0.0
  0
LINE
  5
9A4
100
AcDbEntity
  8
BORDER
  6
CONTINUOUS
 62
     1
100
AcDbLine
 39
96.0
 10
47.100658
 20
52.567205
 30
0.0
 11
47.039158
 21
52.578005
 31
0.0
  0
LINE
  5
9A5
100
AcDbEntity
  8
BORDER
  6
CONTINUOUS
 62
     1
100
AcDbLine
 39
96.0
 10
45.072858
 20
55.463005
 30
0.0
 11
45.011358
 21
55.473705
 31
0.0
  0
LINE
  5
9A6
100
AcDbEntity
  8
BORDER
  6
CONTINUOUS
 62
    10
100
AcDbLine
 39
96.0
 10
44.327258
 20
54.075305
 30
0.0
 11
44.353858
 21
54.001805
 31
0.0
  0
LINE
  5
9A7
100
AcDbEntity
  8
BORDER
  6
CONTINUOUS
 62
    10
100
AcDbLine
 39
96.0
 10
43.494458
 20
53.806505
 30
0.0
 11
43.558458
 21
53.761605
 31
0.0
  0
LINE
  5
9A8
100
AcDbEntity
  8
BORDER
  6
CONTINUOUS
 62
    10
100
AcDbLine
 39
96.0
 10
44.467358
 20
52.661205
 30
0.0
 11
44.544258
 21
52.647605
 31
0.0
  0
LINE
  5
9A9
100
AcDbEntity
  8
BORDER
  6
CONTINUOUS
 62
     2
100
AcDbLine
 39
96.0
 10
37.245458
 20
54.573705
 30
0.0
 11
37.245458
 21
54.573705
 31
0.0
  0
LINE
  5
9AA
100
AcDbEntity
  8
BORDER
  6
CONTINUOUS
 62
     2
100
AcDbLine
 39
96.0
 10
37.714258
 20
54.573705
 30
0.0
 11
37.714258
 21
54.573705
 31
0.0
  0
LINE
  5
9AB
100
AcDbEntity
  8
BORDER
  6
CONTINUOUS
 62
     2
100
AcDbLine
 39
96.0
 10
38.182958
 20
54.573705
 30
0.0
 11
38.182958
 21
54.573705
 31
0.0
  0
LINE
  5
9AC
100
AcDbEntity
  8
BORDER
  6
CONTINUOUS
 62
     2
100
AcDbLine
 39
96.0
 10
38.651758
 20
54.573705
 30
0.0
 11
38.651758
 21
54.573705
 31
0.0
  0
LINE
  5
9AD
100
AcDbEntity
  8
BORDER
  6
CONTINUOUS
 62
     2
100
AcDbLine
 39
96.0
 10
37.479858
 20
54.104905
 30
0.0
 11
37.479858
 21
54.104905
 31
0.0
  0
LINE
  5
9AE
100
AcDbEntity
  8
BORDER
  6
CONTINUOUS
 62
     2
100
AcDbLine
 39
96.0
 10
37.948558
 20
54.104905
 30
0.0
 11
37.948558
 21
54.104905
 31
0.0
  0
LINE
  5
9AF
100
AcDbEntity
  8
BORDER
  6
CONTINUOUS
 62
     2
100
AcDbLine
 39
96.0
 10
38.417358
 20
54.104905
 30
0.0
 11
38.417358
 21
54.104905
 31
0.0
  0
LINE
  5
9B0
100
AcDbEntity
  8
BORDER
  6
CONTINUOUS
 62
     2
100
AcDbLine
 39
96.0
 10
37.245458
 20
55.511205
 30
0.0
 11
37.245458
 21
55.511205
 31
0.0
  0
LINE
  5
9B1
100
AcDbEntity
  8
BORDER
  6
CONTINUOUS
 62
     2
100
AcDbLine
 39
96.0
 10
37.714258
 20
55.511205
 30
0.0
 11
37.714258
 21
55.511205
 31
0.0
  0
LINE
  5
9B2
100
AcDbEntity
  8
BORDER
  6
CONTINUOUS
 62
     2
100
AcDbLine
 39
96.0
 10
38.182958
 20
55.511205
 30
0.0
 11
38.182958
 21
55.511205
 31
0.0
  0
LINE
  5
9B3
100
AcDbEntity
  8
BORDER
  6
CONTINUOUS
 62
     2
100
AcDbLine
 39
96.0
 10
38.651758
 20
55.511205
 30
0.0
 11
38.651758
 21
55.511205
 31
0.0
  0
LINE
  5
9B4
100
AcDbEntity
  8
BORDER
  6
CONTINUOUS
 62
     2
100
AcDbLine
 39
96.0
 10
37.479858
 20
55.042405
 30
0.0
 11
37.479858
 21
55.042405
 31
0.0
  0
LINE
  5
9B5
100
AcDbEntity
  8
BORDER
  6
CONTINUOUS
 62
     2
100
AcDbLine
 39
96.0
 10
37.948558
 20
55.042405
 30
0.0
 11
37.948558
 21
55.042405
 31
0.0
  0
LINE
  5
9B6
100
AcDbEntity
  8
BORDER
  6
CONTINUOUS
 62
     2
100
AcDbLine
 39
96.0
 10
38.417358
 20
55.042405
 30
0.0
 11
38.417358
 21
55.042405
 31
0.0
  0
LINE
  5
9B7
100
AcDbEntity
  8
BORDER
  6
CONTINUOUS
 62
     2
100
AcDbLine
 39
96.0
 10
37.245458
 20
56.448705
 30
0.0
 11
37.245458
 21
56.448705
 31
0.0
  0
LINE
  5
9B8
100
AcDbEntity
  8
BORDER
  6
CONTINUOUS
 62
     2
100
AcDbLine
 39
96.0
 10
37.714258
 20
56.448705
 30
0.0
 11
37.714258
 21
56.448705
 31
0.0
  0
LINE
  5
9B9
100
AcDbEntity
  8
BORDER
  6
CONTINUOUS
 62
     2
100
AcDbLine
 39
96.0
 10
38.182958
 20
56.448705
 30
0.0
 11
38.182958
 21
56.448705
 31
0.0
  0
LINE
  5
9BA
100
AcDbEntity
  8
BORDER
  6
CONTINUOUS
 62
     2
100
AcDbLine
 39
96.0
 10
38.651758
 20
56.448705
 30
0.0
 11
38.651758
 21
56.448705
 31
0.0
  0
LINE
  5
9BB
100
AcDbEntity
  8
BORDER
  6
CONTINUOUS
 62
     2
100
AcDbLine
 39
96.0
 10
37.479858
 20
55.979905
 30
0.0
 11
37.479858
 21
55.979905
 31
0.0
  0
LINE
  5
9BC
100
AcDbEntity
  8
BORDER
  6
CONTINUOUS
 62
     2
100
AcDbLine
 39
96.0
 10
37.948558
 20
55.979905
 30
0.0
 11
37.948558
 21
55.979905
 31
0.0
  0
LINE
  5
9BD
100
AcDbEntity
  8
BORDER
  6
CONTINUOUS
 62
     2
100
AcDbLine
 39
96.0
 10
38.417358
 20
55.979905
 30
0.0
 11
38.417358
 21
55.979905
 31
0.0
  0
CIRCLE
  5
9BE
100
AcDbEntity
  8
BORDER
  6
CONTINUOUS
 62
     7
100
AcDbCircle
 39
96.0
 10
41.389921
 20
52.38452
 30
0.0
 40
0.375
  0
CIRCLE
  5
9BF
100
AcDbEntity
  8
BORDER
  6
CONTINUOUS
 62
     7
100
AcDbCircle
 39
96.0
 10
42.495758
 20
36.765805
 30
0.0
 40
0.375
  0
CIRCLE
  5
9C0
100
AcDbEntity
  8
BORDER
  6
CONTINUOUS
 62
     7
100
AcDbCircle
 39
96.0
 10
42.495758
 20
21.765805
 30
0.0
 40
0.375
  0
LINE
  5
9C1
100
AcDbEntity
  8
BORDER
  6
CONTINUOUS
 62
     2
100
AcDbLine
 39
96.0
 10
45.448558
 20
45.667405
 30
0.0
 11
45.448558
 21
45.667405
 31
0.0
  0
LINE
  5
9C2
100
AcDbEntity
  8
BORDER
  6
CONTINUOUS
 62
     2
100
AcDbLine
 39
96.0
 10
45.917358
 20
45.667405
 30
0.0
 11
45.917358
 21
45.667405
 31
0.0
  0
LINE
  5
9C3
100
AcDbEntity
  8
BORDER
  6
CONTINUOUS
 62
     2
100
AcDbLine
 39
96.0
 10
46.386058
 20
45.667405
 30
0.0
 11
46.386058
 21
45.667405
 31
0.0
  0
LINE
  5
9C4
100
AcDbEntity
  8
BORDER
  6
CONTINUOUS
 62
     2
100
AcDbLine
 39
96.0
 10
46.854858
 20
45.667405
 30
0.0
 11
46.854858
 21
45.667405
 31
0.0
  0
LINE
  5
9C5
100
AcDbEntity
  8
BORDER
  6
CONTINUOUS
 62
     1
100
AcDbLine
 39
96.0
 10
44.665358
 20
51.221105
 30
0.0
 11
44.614158
 21
51.256905
 31
0.0
  0
LINE
  5
9C6
100
AcDbEntity
  8
BORDER
  6
CONTINUOUS
 62
     2
100
AcDbLine
 39
96.0
 10
46.092358
 20
50.174705
 30
0.0
 11
46.092358
 21
50.174705
 31
0.0
  0
LINE
  5
9C7
100
AcDbEntity
  8
BORDER
  6
CONTINUOUS
 62
     2
100
AcDbLine
 39
96.0
 10
46.561158
 20
49.471505
 30
0.0
 11
46.561158
 21
49.471505
 31
0.0
  0
LINE
  5
9C8
100
AcDbEntity
  8
BORDER
  6
CONTINUOUS
 62
     2
100
AcDbLine
 39
96.0
 10
46.561158
 20
49.940305
 30
0.0
 11
46.561158
 21
49.940305
 31
0.0
  0
LINE
  5
9C9
100
AcDbEntity
  8
BORDER
  6
CONTINUOUS
 62
     2
100
AcDbLine
 39
96.0
 10
47.029858
 20
48.768405
 30
0.0
 11
47.029858
 21
48.768405
 31
0.0
  0
LINE
  5
9CA
100
AcDbEntity
  8
BORDER
  6
CONTINUOUS
 62
     2
100
AcDbLine
 39
96.0
 10
47.029858
 20
49.237205
 30
0.0
 11
47.029858
 21
49.237205
 31
0.0
  0
LINE
  5
9CB
100
AcDbEntity
  8
BORDER
  6
CONTINUOUS
 62
     2
100
AcDbLine
 39
96.0
 10
47.029858
 20
49.705905
 30
0.0
 11
47.029858
 21
49.705905
 31
0.0
  0
LINE
  5
9CC
100
AcDbEntity
  8
BORDER
  6
CONTINUOUS
 62
     2
100
AcDbLine
 39
96.0
 10
47.029858
 20
50.174705
 30
0.0
 11
47.029858
 21
50.174705
 31
0.0
  0
LINE
  5
9CD
100
AcDbEntity
  8
BORDER
  6
CONTINUOUS
 62
     2
100
AcDbLine
 39
96.0
 10
45.448558
 20
46.604905
 30
0.0
 11
45.448558
 21
46.604905
 31
0.0
  0
LINE
  5
9CE
100
AcDbEntity
  8
BORDER
  6
CONTINUOUS
 62
     2
100
AcDbLine
 39
96.0
 10
45.917358
 20
46.604905
 30
0.0
 11
45.917358
 21
46.604905
 31
0.0
  0
LINE
  5
9CF
100
AcDbEntity
  8
BORDER
  6
CONTINUOUS
 62
     2
100
AcDbLine
 39
96.0
 10
46.386058
 20
46.604905
 30
0.0
 11
46.386058
 21
46.604905
 31
0.0
  0
LINE
  5
9D0
100
AcDbEntity
  8
BORDER
  6
CONTINUOUS
 62
     2
100
AcDbLine
 39
96.0
 10
46.854858
 20
46.604905
 30
0.0
 11
46.854858
 21
46.604905
 31
0.0
  0
LINE
  5
9D1
100
AcDbEntity
  8
BORDER
  6
CONTINUOUS
 62
     2
100
AcDbLine
 39
96.0
 10
45.682958
 20
46.136205
 30
0.0
 11
45.682958
 21
46.136205
 31
0.0
  0
LINE
  5
9D2
100
AcDbEntity
  8
BORDER
  6
CONTINUOUS
 62
     2
100
AcDbLine
 39
96.0
 10
46.151758
 20
46.136205
 30
0.0
 11
46.151758
 21
46.136205
 31
0.0
  0
LINE
  5
9D3
100
AcDbEntity
  8
BORDER
  6
CONTINUOUS
 62
     2
100
AcDbLine
 39
96.0
 10
46.620458
 20
46.136205
 30
0.0
 11
46.620458
 21
46.136205
 31
0.0
  0
LINE
  5
9D4
100
AcDbEntity
  8
BORDER
  6
CONTINUOUS
 62
     2
100
AcDbLine
 39
96.0
 10
45.448558
 20
47.542405
 30
0.0
 11
45.448558
 21
47.542405
 31
0.0
  0
LINE
  5
9D5
100
AcDbEntity
  8
BORDER
  6
CONTINUOUS
 62
     2
100
AcDbLine
 39
96.0
 10
45.917358
 20
47.542405
 30
0.0
 11
45.917358
 21
47.542405
 31
0.0
  0
LINE
  5
9D6
100
AcDbEntity
  8
BORDER
  6
CONTINUOUS
 62
     2
100
AcDbLine
 39
96.0
 10
46.386058
 20
47.542405
 30
0.0
 11
46.386058
 21
47.542405
 31
0.0
  0
LINE
  5
9D7
100
AcDbEntity
  8
BORDER
  6
CONTINUOUS
 62
     2
100
AcDbLine
 39
96.0
 10
46.854858
 20
47.542405
 30
0.0
 11
46.854858
 21
47.542405
 31
0.0
  0
LINE
  5
9D8
100
AcDbEntity
  8
BORDER
  6
CONTINUOUS
 62
     2
100
AcDbLine
 39
96.0
 10
45.682958
 20
47.073705
 30
0.0
 11
45.682958
 21
47.073705
 31
0.0
  0
LINE
  5
9D9
100
AcDbEntity
  8
BORDER
  6
CONTINUOUS
 62
     2
100
AcDbLine
 39
96.0
 10
46.151758
 20
47.073705
 30
0.0
 11
46.151758
 21
47.073705
 31
0.0
  0
LINE
  5
9DA
100
AcDbEntity
  8
BORDER
  6
CONTINUOUS
 62
     2
100
AcDbLine
 39
96.0
 10
46.620458
 20
47.073705
 30
0.0
 11
46.620458
 21
47.073705
 31
0.0
  0
LINE
  5
9DB
100
AcDbEntity
  8
BORDER
  6
CONTINUOUS
 62
     2
100
AcDbLine
 39
96.0
 10
45.448558
 20
48.479905
 30
0.0
 11
45.448558
 21
48.479905
 31
0.0
  0
LINE
  5
9DC
100
AcDbEntity
  8
BORDER
  6
CONTINUOUS
 62
     2
100
AcDbLine
 39
96.0
 10
45.917358
 20
48.479905
 30
0.0
 11
45.917358
 21
48.479905
 31
0.0
  0
LINE
  5
9DD
100
AcDbEntity
  8
BORDER
  6
CONTINUOUS
 62
     2
100
AcDbLine
 39
96.0
 10
46.386058
 20
48.479905
 30
0.0
 11
46.386058
 21
48.479905
 31
0.0
  0
LINE
  5
9DE
100
AcDbEntity
  8
BORDER
  6
CONTINUOUS
 62
     2
100
AcDbLine
 39
96.0
 10
46.854858
 20
48.479905
 30
0.0
 11
46.854858
 21
48.479905
 31
0.0
  0
LINE
  5
9DF
100
AcDbEntity
  8
BORDER
  6
CONTINUOUS
 62
     2
100
AcDbLine
 39
96.0
 10
45.682958
 20
48.011205
 30
0.0
 11
45.682958
 21
48.011205
 31
0.0
  0
LINE
  5
9E0
100
AcDbEntity
  8
BORDER
  6
CONTINUOUS
 62
     2
100
AcDbLine
 39
96.0
 10
46.151758
 20
48.011205
 30
0.0
 11
46.151758
 21
48.011205
 31
0.0
  0
LINE
  5
9E1
100
AcDbEntity
  8
BORDER
  6
CONTINUOUS
 62
     2
100
AcDbLine
 39
96.0
 10
46.620458
 20
48.011205
 30
0.0
 11
46.620458
 21
48.011205
 31
0.0
  0
LINE
  5
9E2
100
AcDbEntity
  8
BORDER
  6
CONTINUOUS
 62
     2
100
AcDbLine
 39
96.0
 10
45.448558
 20
49.417405
 30
0.0
 11
45.448558
 21
49.417405
 31
0.0
  0
LINE
  5
9E3
100
AcDbEntity
  8
BORDER
  6
CONTINUOUS
 62
     2
100
AcDbLine
 39
96.0
 10
45.917358
 20
49.417405
 30
0.0
 11
45.917358
 21
49.417405
 31
0.0
  0
LINE
  5
9E4
100
AcDbEntity
  8
BORDER
  6
CONTINUOUS
 62
     2
100
AcDbLine
 39
96.0
 10
45.682958
 20
48.948705
 30
0.0
 11
45.682958
 21
48.948705
 31
0.0
  0
LINE
  5
9E5
100
AcDbEntity
  8
BORDER
  6
CONTINUOUS
 62
     2
100
AcDbLine
 39
96.0
 10
46.151758
 20
48.948705
 30
0.0
 11
46.151758
 21
48.948705
 31
0.0
  0
LINE
  5
9E6
100
AcDbEntity
  8
BORDER
  6
CONTINUOUS
 62
     2
100
AcDbLine
 39
96.0
 10
46.620458
 20
48.948705
 30
0.0
 11
46.620458
 21
48.948705
 31
0.0
  0
LINE
  5
9E7
100
AcDbEntity
  8
BORDER
  6
CONTINUOUS
 62
     1
100
AcDbLine
 39
96.0
 10
40.935858
 20
50.461505
 30
0.0
 11
40.994758
 21
50.482805
 31
0.0
  0
LINE
  5
9E8
100
AcDbEntity
  8
BORDER
  6
CONTINUOUS
 62
     1
100
AcDbLine
 39
96.0
 10
39.441558
 20
47.257105
 30
0.0
 11
39.500358
 21
47.278505
 31
0.0
  0
LINE
  5
9E9
100
AcDbEntity
  8
BORDER
  6
CONTINUOUS
 62
     1
100
AcDbLine
 39
96.0
 10
42.645858
 20
45.762905
 30
0.0
 11
42.704658
 21
45.784305
 31
0.0
  0
LINE
  5
9EA
100
AcDbEntity
  8
BORDER
  6
CONTINUOUS
 62
     1
100
AcDbLine
 39
96.0
 10
39.698158
 20
51.313305
 30
0.0
 11
39.733958
 21
51.364505
 31
0.0
  0
LINE
  5
9EB
100
AcDbEntity
  8
BORDER
  6
CONTINUOUS
 62
     1
100
AcDbLine
 39
96.0
 10
41.746258
 20
49.879305
 30
0.0
 11
41.782058
 21
49.930505
 31
0.0
  0
LINE
  5
9EC
100
AcDbEntity
  8
BORDER
  6
CONTINUOUS
 62
     1
100
AcDbLine
 39
96.0
 10
41.044258
 20
48.877905
 30
0.0
 11
41.055058
 21
48.939405
 31
0.0
  0
LINE
  5
9ED
100
AcDbEntity
  8
BORDER
  6
CONTINUOUS
 62
     1
100
AcDbLine
 39
96.0
 10
43.071858
 20
45.981705
 30
0.0
 11
43.082658
 21
46.043305
 31
0.0
  0
LINE
  5
9EE
100
AcDbEntity
  8
BORDER
  6
CONTINUOUS
 62
    10
100
AcDbLine
 39
96.0
 10
42.552358
 20
51.651405
 30
0.0
 11
42.478858
 21
51.624705
 31
0.0
  0
LINE
  5
9EF
100
AcDbEntity
  8
BORDER
  6
CONTINUOUS
 62
    10
100
AcDbLine
 39
96.0
 10
42.283558
 20
52.484105
 30
0.0
 11
42.238658
 21
52.420105
 31
0.0
  0
LINE
  5
9F0
100
AcDbEntity
  8
BORDER
  6
CONTINUOUS
 62
    10
100
AcDbLine
 39
96.0
 10
41.138258
 20
51.511305
 30
0.0
 11
41.124658
 21
51.434405
 31
0.0
  0
LINE
  5
9F1
100
AcDbEntity
  8
BORDER
  6
CONTINUOUS
 62
     1
100
AcDbLine
 39
96.0
 10
39.016458
 20
51.774005
 30
0.0
 11
39.027258
 21
51.835505
 31
0.0
  0
LINE
  5
9F2
100
AcDbEntity
  8
BORDER
  6
CONTINUOUS
 62
     2
100
AcDbLine
 39
96.0
 10
37.245458
 20
53.636205
 30
0.0
 11
37.245458
 21
53.636205
 31
0.0
  0
LINE
  5
9F3
100
AcDbEntity
  8
BORDER
  6
CONTINUOUS
 62
     2
100
AcDbLine
 39
96.0
 10
37.714258
 20
53.636205
 30
0.0
 11
37.714258
 21
53.636205
 31
0.0
  0
LINE
  5
9F4
100
AcDbEntity
  8
BORDER
  6
CONTINUOUS
 62
     2
100
AcDbLine
 39
96.0
 10
38.182958
 20
53.636205
 30
0.0
 11
38.182958
 21
53.636205
 31
0.0
  0
LINE
  5
9F5
100
AcDbEntity
  8
BORDER
  6
CONTINUOUS
 62
     2
100
AcDbLine
 39
96.0
 10
38.651758
 20
53.636205
 30
0.0
 11
38.651758
 21
53.636205
 31
0.0
  0
LINE
  5
9F6
100
AcDbEntity
  8
BORDER
  6
CONTINUOUS
 62
     2
100
AcDbLine
 39
96.0
 10
37.479858
 20
53.167405
 30
0.0
 11
37.479858
 21
53.167405
 31
0.0
  0
LINE
  5
9F7
100
AcDbEntity
  8
BORDER
  6
CONTINUOUS
 62
     2
100
AcDbLine
 39
96.0
 10
37.948558
 20
53.167405
 30
0.0
 11
37.948558
 21
53.167405
 31
0.0
  0
LINE
  5
9F8
100
AcDbEntity
  8
BORDER
  6
CONTINUOUS
 62
     2
100
AcDbLine
 39
96.0
 10
38.417358
 20
53.167405
 30
0.0
 11
38.417358
 21
53.167405
 31
0.0
  0
LINE
  5
9F9
100
AcDbEntity
  8
BORDER
  6
CONTINUOUS
 62
     2
100
AcDbLine
 39
96.0
 10
38.886058
 20
53.167405
 30
0.0
 11
38.886058
 21
53.167405
 31
0.0
  0
LINE
  5
9FA
100
AcDbEntity
  8
BORDER
  6
CONTINUOUS
 62
     2
100
AcDbLine
 39
96.0
 10
37.245458
 20
52.698705
 30
0.0
 11
37.245458
 21
52.698705
 31
0.0
  0
LINE
  5
9FB
100
AcDbEntity
  8
BORDER
  6
CONTINUOUS
 62
     2
100
AcDbLine
 39
96.0
 10
37.714258
 20
52.698705
 30
0.0
 11
37.714258
 21
52.698705
 31
0.0
  0
LINE
  5
9FC
100
AcDbEntity
  8
BORDER
  6
CONTINUOUS
 62
     2
100
AcDbLine
 39
96.0
 10
38.182958
 20
52.698705
 30
0.0
 11
38.182958
 21
52.698705
 31
0.0
  0
LINE
  5
9FD
100
AcDbEntity
  8
BORDER
  6
CONTINUOUS
 62
     2
100
AcDbLine
 39
96.0
 10
38.651758
 20
52.698705
 30
0.0
 11
38.651758
 21
52.698705
 31
0.0
  0
LINE
  5
9FE
100
AcDbEntity
  8
BORDER
  6
CONTINUOUS
 62
     2
100
AcDbLine
 39
96.0
 10
37.479858
 20
52.229905
 30
0.0
 11
37.479858
 21
52.229905
 31
0.0
  0
LINE
  5
9FF
100
AcDbEntity
  8
BORDER
  6
CONTINUOUS
 62
     2
100
AcDbLine
 39
96.0
 10
37.948558
 20
52.229905
 30
0.0
 11
37.948558
 21
52.229905
 31
0.0
  0
LINE
  5
A00
100
AcDbEntity
  8
BORDER
  6
CONTINUOUS
 62
     2
100
AcDbLine
 39
96.0
 10
38.417358
 20
52.229905
 30
0.0
 11
38.417358
 21
52.229905
 31
0.0
  0
LINE
  5
A01
100
AcDbEntity
  8
BORDER
  6
CONTINUOUS
 62
     2
100
AcDbLine
 39
96.0
 10
38.886058
 20
52.229905
 30
0.0
 11
38.886058
 21
52.229905
 31
0.0
  0
LINE
  5
A02
100
AcDbEntity
  8
BORDER
  6
CONTINUOUS
 62
     2
100
AcDbLine
 39
96.0
 10
37.245458
 20
51.761205
 30
0.0
 11
37.245458
 21
51.761205
 31
0.0
  0
LINE
  5
A03
100
AcDbEntity
  8
BORDER
  6
CONTINUOUS
 62
     2
100
AcDbLine
 39
96.0
 10
37.714258
 20
51.761205
 30
0.0
 11
37.714258
 21
51.761205
 31
0.0
  0
LINE
  5
A04
100
AcDbEntity
  8
BORDER
  6
CONTINUOUS
 62
     2
100
AcDbLine
 39
96.0
 10
38.182958
 20
51.761205
 30
0.0
 11
38.182958
 21
51.761205
 31
0.0
  0
LINE
  5
A05
100
AcDbEntity
  8
BORDER
  6
CONTINUOUS
 62
     2
100
AcDbLine
 39
96.0
 10
38.651758
 20
51.761205
 30
0.0
 11
38.651758
 21
51.761205
 31
0.0
  0
LINE
  5
A06
100
AcDbEntity
  8
BORDER
  6
CONTINUOUS
 62
     2
100
AcDbLine
 39
96.0
 10
38.886058
 20
51.292405
 30
0.0
 11
38.886058
 21
51.292405
 31
0.0
  0
LINE
  5
A07
100
AcDbEntity
  8
BORDER
  6
CONTINUOUS
 62
     2
100
AcDbLine
 39
96.0
 10
38.651758
 20
50.823705
 30
0.0
 11
38.651758
 21
50.823705
 31
0.0
  0
LINE
  5
A08
100
AcDbEntity
  8
BORDER
  6
CONTINUOUS
 62
     2
100
AcDbLine
 39
96.0
 10
38.886058
 20
50.354905
 30
0.0
 11
38.886058
 21
50.354905
 31
0.0
  0
LINE
  5
A09
100
AcDbEntity
  8
BORDER
  6
CONTINUOUS
 62
     2
100
AcDbLine
 39
96.0
 10
37.245458
 20
49.886205
 30
0.0
 11
37.245458
 21
49.886205
 31
0.0
  0
LINE
  5
A0A
100
AcDbEntity
  8
BORDER
  6
CONTINUOUS
 62
     2
100
AcDbLine
 39
96.0
 10
37.714258
 20
49.886205
 30
0.0
 11
37.714258
 21
49.886205
 31
0.0
  0
LINE
  5
A0B
100
AcDbEntity
  8
BORDER
  6
CONTINUOUS
 62
     2
100
AcDbLine
 39
96.0
 10
38.182958
 20
49.886205
 30
0.0
 11
38.182958
 21
49.886205
 31
0.0
  0
LINE
  5
A0C
100
AcDbEntity
  8
BORDER
  6
CONTINUOUS
 62
     2
100
AcDbLine
 39
96.0
 10
38.651758
 20
49.886205
 30
0.0
 11
38.651758
 21
49.886205
 31
0.0
  0
LINE
  5
A0D
100
AcDbEntity
  8
BORDER
  6
CONTINUOUS
 62
     2
100
AcDbLine
 39
96.0
 10
37.479858
 20
49.417405
 30
0.0
 11
37.479858
 21
49.417405
 31
0.0
  0
LINE
  5
A0E
100
AcDbEntity
  8
BORDER
  6
CONTINUOUS
 62
     2
100
AcDbLine
 39
96.0
 10
37.948558
 20
49.417405
 30
0.0
 11
37.948558
 21
49.417405
 31
0.0
  0
LINE
  5
A0F
100
AcDbEntity
  8
BORDER
  6
CONTINUOUS
 62
     2
100
AcDbLine
 39
96.0
 10
38.417358
 20
49.417405
 30
0.0
 11
38.417358
 21
49.417405
 31
0.0
  0
LINE
  5
A10
100
AcDbEntity
  8
BORDER
  6
CONTINUOUS
 62
     2
100
AcDbLine
 39
96.0
 10
38.886058
 20
49.417405
 30
0.0
 11
38.886058
 21
49.417405
 31
0.0
  0
LINE
  5
A11
100
AcDbEntity
  8
BORDER
  6
CONTINUOUS
 62
     2
100
AcDbLine
 39
96.0
 10
37.245458
 20
48.948705
 30
0.0
 11
37.245458
 21
48.948705
 31
0.0
  0
LINE
  5
A12
100
AcDbEntity
  8
BORDER
  6
CONTINUOUS
 62
     2
100
AcDbLine
 39
96.0
 10
37.714258
 20
48.948705
 30
0.0
 11
37.714258
 21
48.948705
 31
0.0
  0
LINE
  5
A13
100
AcDbEntity
  8
BORDER
  6
CONTINUOUS
 62
     2
100
AcDbLine
 39
96.0
 10
38.182958
 20
48.948705
 30
0.0
 11
38.182958
 21
48.948705
 31
0.0
  0
LINE
  5
A14
100
AcDbEntity
  8
BORDER
  6
CONTINUOUS
 62
     2
100
AcDbLine
 39
96.0
 10
38.651758
 20
48.948705
 30
0.0
 11
38.651758
 21
48.948705
 31
0.0
  0
LINE
  5
A15
100
AcDbEntity
  8
BORDER
  6
CONTINUOUS
 62
     2
100
AcDbLine
 39
96.0
 10
37.479858
 20
48.479905
 30
0.0
 11
37.479858
 21
48.479905
 31
0.0
  0
LINE
  5
A16
100
AcDbEntity
  8
BORDER
  6
CONTINUOUS
 62
     2
100
AcDbLine
 39
96.0
 10
37.948558
 20
48.479905
 30
0.0
 11
37.948558
 21
48.479905
 31
0.0
  0
LINE
  5
A17
100
AcDbEntity
  8
BORDER
  6
CONTINUOUS
 62
     2
100
AcDbLine
 39
96.0
 10
38.417358
 20
48.479905
 30
0.0
 11
38.417358
 21
48.479905
 31
0.0
  0
LINE
  5
A18
100
AcDbEntity
  8
BORDER
  6
CONTINUOUS
 62
     2
100
AcDbLine
 39
96.0
 10
38.886058
 20
48.479905
 30
0.0
 11
38.886058
 21
48.479905
 31
0.0
  0
LINE
  5
A19
100
AcDbEntity
  8
BORDER
  6
CONTINUOUS
 62
     2
100
AcDbLine
 39
96.0
 10
37.245458
 20
48.011205
 30
0.0
 11
37.245458
 21
48.011205
 31
0.0
  0
LINE
  5
A1A
100
AcDbEntity
  8
BORDER
  6
CONTINUOUS
 62
     2
100
AcDbLine
 39
96.0
 10
37.714258
 20
48.011205
 30
0.0
 11
37.714258
 21
48.011205
 31
0.0
  0
LINE
  5
A1B
100
AcDbEntity
  8
BORDER
  6
CONTINUOUS
 62
     2
100
AcDbLine
 39
96.0
 10
38.182958
 20
48.011205
 30
0.0
 11
38.182958
 21
48.011205
 31
0.0
  0
LINE
  5
A1C
100
AcDbEntity
  8
BORDER
  6
CONTINUOUS
 62
     2
100
AcDbLine
 39
96.0
 10
38.651758
 20
48.011205
 30
0.0
 11
38.651758
 21
48.011205
 31
0.0
  0
LINE
  5
A1D
100
AcDbEntity
  8
BORDER
  6
CONTINUOUS
 62
     2
100
AcDbLine
 39
96.0
 10
37.479858
 20
47.542405
 30
0.0
 11
37.479858
 21
47.542405
 31
0.0
  0
LINE
  5
A1E
100
AcDbEntity
  8
BORDER
  6
CONTINUOUS
 62
     2
100
AcDbLine
 39
96.0
 10
37.948558
 20
47.542405
 30
0.0
 11
37.948558
 21
47.542405
 31
0.0
  0
LINE
  5
A1F
100
AcDbEntity
  8
BORDER
  6
CONTINUOUS
 62
     2
100
AcDbLine
 39
96.0
 10
38.417358
 20
47.542405
 30
0.0
 11
38.417358
 21
47.542405
 31
0.0
  0
LINE
  5
A20
100
AcDbEntity
  8
BORDER
  6
CONTINUOUS
 62
     2
100
AcDbLine
 39
96.0
 10
38.886058
 20
47.542405
 30
0.0
 11
38.886058
 21
47.542405
 31
0.0
  0
LINE
  5
A21
100
AcDbEntity
  8
BORDER
  6
CONTINUOUS
 62
     2
100
AcDbLine
 39
96.0
 10
37.245458
 20
47.073705
 30
0.0
 11
37.245458
 21
47.073705
 31
0.0
  0
LINE
  5
A22
100
AcDbEntity
  8
BORDER
  6
CONTINUOUS
 62
     2
100
AcDbLine
 39
96.0
 10
37.714258
 20
47.073705
 30
0.0
 11
37.714258
 21
47.073705
 31
0.0
  0
LINE
  5
A23
100
AcDbEntity
  8
BORDER
  6
CONTINUOUS
 62
     2
100
AcDbLine
 39
96.0
 10
38.182958
 20
47.073705
 30
0.0
 11
38.182958
 21
47.073705
 31
0.0
  0
LINE
  5
A24
100
AcDbEntity
  8
BORDER
  6
CONTINUOUS
 62
     2
100
AcDbLine
 39
96.0
 10
38.651758
 20
47.073705
 30
0.0
 11
38.651758
 21
47.073705
 31
0.0
  0
LINE
  5
A25
100
AcDbEntity
  8
BORDER
  6
CONTINUOUS
 62
     2
100
AcDbLine
 39
96.0
 10
37.479858
 20
46.604905
 30
0.0
 11
37.479858
 21
46.604905
 31
0.0
  0
LINE
  5
A26
100
AcDbEntity
  8
BORDER
  6
CONTINUOUS
 62
     2
100
AcDbLine
 39
96.0
 10
37.948558
 20
46.604905
 30
0.0
 11
37.948558
 21
46.604905
 31
0.0
  0
LINE
  5
A27
100
AcDbEntity
  8
BORDER
  6
CONTINUOUS
 62
     2
100
AcDbLine
 39
96.0
 10
38.417358
 20
46.604905
 30
0.0
 11
38.417358
 21
46.604905
 31
0.0
  0
LINE
  5
A28
100
AcDbEntity
  8
BORDER
  6
CONTINUOUS
 62
     2
100
AcDbLine
 39
96.0
 10
38.886058
 20
46.604905
 30
0.0
 11
38.886058
 21
46.604905
 31
0.0
  0
LINE
  5
A29
100
AcDbEntity
  8
BORDER
  6
CONTINUOUS
 62
     2
100
AcDbLine
 39
96.0
 10
37.245458
 20
46.136205
 30
0.0
 11
37.245458
 21
46.136205
 31
0.0
  0
LINE
  5
A2A
100
AcDbEntity
  8
BORDER
  6
CONTINUOUS
 62
     2
100
AcDbLine
 39
96.0
 10
37.714258
 20
46.136205
 30
0.0
 11
37.714258
 21
46.136205
 31
0.0
  0
LINE
  5
A2B
100
AcDbEntity
  8
BORDER
  6
CONTINUOUS
 62
     2
100
AcDbLine
 39
96.0
 10
38.182958
 20
46.136205
 30
0.0
 11
38.182958
 21
46.136205
 31
0.0
  0
LINE
  5
A2C
100
AcDbEntity
  8
BORDER
  6
CONTINUOUS
 62
     2
100
AcDbLine
 39
96.0
 10
38.651758
 20
46.136205
 30
0.0
 11
38.651758
 21
46.136205
 31
0.0
  0
LINE
  5
A2D
100
AcDbEntity
  8
BORDER
  6
CONTINUOUS
 62
     2
100
AcDbLine
 39
96.0
 10
37.479858
 20
45.667405
 30
0.0
 11
37.479858
 21
45.667405
 31
0.0
  0
LINE
  5
A2E
100
AcDbEntity
  8
BORDER
  6
CONTINUOUS
 62
     2
100
AcDbLine
 39
96.0
 10
37.948558
 20
45.667405
 30
0.0
 11
37.948558
 21
45.667405
 31
0.0
  0
LINE
  5
A2F
100
AcDbEntity
  8
BORDER
  6
CONTINUOUS
 62
     2
100
AcDbLine
 39
96.0
 10
38.417358
 20
45.667405
 30
0.0
 11
38.417358
 21
45.667405
 31
0.0
  0
LINE
  5
A30
100
AcDbEntity
  8
BORDER
  6
CONTINUOUS
 62
     2
100
AcDbLine
 39
96.0
 10
38.886058
 20
45.667405
 30
0.0
 11
38.886058
 21
45.667405
 31
0.0
  0
ARC
  5
A31
100
AcDbEntity
  8
BORDER
  6
CONTINUOUS
 62
     3
100
AcDbCircle
 39
96.0
 10
42.033058
 20
53.655705
 30
0.0
 40
3.0
100
AcDbArc
 50
0.0
 51
69.239774
  0
ARC
  5
A32
100
AcDbEntity
  8
BORDER
  6
CONTINUOUS
 62
     3
100
AcDbCircle
 39
96.0
 10
42.033058
 20
53.655705
 30
0.0
 40
3.0
100
AcDbArc
 50
180.0
 51
0.0
  0
LINE
  5
A33
100
AcDbEntity
  8
BORDER
  6
CONTINUOUS
 62
     3
100
AcDbLine
 39
96.0
 10
37.033058
 20
58.089496
 30
0.0
 11
37.033058
 21
38.772005
 31
0.0
  0
LINE
  5
A34
100
AcDbEntity
  8
BORDER
  6
CONTINUOUS
 62
     3
100
AcDbLine
 39
96.0
 10
38.908058
 20
58.089496
 30
0.0
 11
38.908058
 21
38.772005
 31
0.0
  0
LINE
  5
A35
100
AcDbEntity
  8
BORDER
  6
CONTINUOUS
 62
     7
100
AcDbLine
 39
96.0
 10
42.817457
 20
15.914805
 30
0.0
 11
42.817457
 21
54.654096
 31
0.0
  0
LINE
  5
A36
100
AcDbEntity
  8
BORDER
  6
CONTINUOUS
 62
     3
100
AcDbLine
 39
96.0
 10
45.158058
 20
38.772005
 30
0.0
 11
45.158058
 21
58.089496
 31
0.0
  0
LINE
  5
A37
100
AcDbEntity
  8
BORDER
  6
CONTINUOUS
 62
     3
100
AcDbLine
 39
96.0
 10
47.033058
 20
38.633305
 30
0.0
 11
47.033646
 21
58.089496
 31
0.0
  0
LEADER
  5
A38
100
AcDbEntity
  8
0
  6
CONTINUOUS
 62
     6
100
AcDbLeader
  3
STANDARD
 76
     3
 10
40.640531
 20
38.613235
 30
0.0
 10
51.459384
 20
43.141919
 30
0.0
 10
54.338535
 20
43.141919
 30
0.0
 77
    13
1001
ACAD
1000
DSTYLE
1002
{
1070
    78
1070
     1
1070
   140
1040
6.0
1070
    73
1070
     0
1070
    77
1070
     1
1070
    40
1040
12.0
1070
    42
1040
6.0
1070
    44
1040
0.0
1070
    43
1040
24.0
1070
   176
1070
     6
1070
   141
1040
3.0
1070
    41
1040
0.125
1002
}
  0
TEXT
  5
A39
100
AcDbEntity
  8
DIM_TEXT
100
AcDbText
 10
-3.634867
 20
24.442354
 30
0.0
 40
1.125
  1
REQUIRED, PER DESIGN)
 51
15.0
  7
INFO
100
AcDbText
  0
TEXT
  5
A3A
100
AcDbEntity
  8
DIM_TEXT
100
AcDbText
 10
-3.679259
 20
26.625114
 30
0.0
 40
1.125
  1
VERT. REINF. (MIN #4 @ 30" O.C.
 51
15.0
  7
INFO
100
AcDbText
  0
LEADER
  5
A3B
100
AcDbEntity
  8
0
  6
CONTINUOUS
 62
     6
100
AcDbLeader
  3
STANDARD
 76
     3
 10
42.825282
 20
17.447772
 30
0.0
 10
32.223254
 20
27.164368
 30
0.0
 10
29.344103
 20
27.164368
 30
0.0
 77
    13
211
-1.0
221
0.0
231
0.0
1001
ACAD
1000
DSTYLE
1002
{
1070
    78
1070
     1
1070
   140
1040
6.0
1070
    73
1070
     0
1070
    77
1070
     1
1070
    40
1040
12.0
1070
    42
1040
6.0
1070
    44
1040
0.0
1070
    43
1040
24.0
1070
   176
1070
     6
1070
   141
1040
3.0
1070
    41
1040
0.125
1002
}
  0
TEXT
  5
A3C
100
AcDbEntity
  8
DIM_TEXT
100
AcDbText
 10
-4.51114
 20
43.418136
 30
0.0
 40
1.125
  1
REQUIRED, PER DESIGN)
 51
15.0
  7
INFO
100
AcDbText
  0
TEXT
  5
A3D
100
AcDbEntity
  8
DIM_TEXT
100
AcDbText
 10
2.867515
 20
51.194156
 30
0.0
 40
1.125
  1
SURFACE. CAN BE MADE AT ANY 
 51
15.0
  7
INFO
100
AcDbText
  0
TEXT
  5
A3E
100
AcDbEntity
  8
DIM_TEXT
100
AcDbText
 10
2.867515
 20
58.620576
 30
0.0
 40
1.125
  1
ROUTE OR SAWCUT CAVITIES
 51
15.0
  7
INFO
100
AcDbText
  0
TEXT
  5
A3F
100
AcDbEntity
  8
DIM_TEXT
100
AcDbText
 10
2.867515
 20
56.838236
 30
0.0
 40
1.125
  1
FOR ROMEX OF CONDUIT AND
 51
15.0
  7
INFO
100
AcDbText
  0
TEXT
  5
A40
100
AcDbEntity
  8
DIM_TEXT
100
AcDbText
 10
2.867515
 20
54.907366
 30
0.0
 40
1.125
  1
PLACE WITH ADHESIVE FOAM. 
 51
15.0
  7
INFO
100
AcDbText
  0
TEXT
  5
A41
100
AcDbEntity
  8
DIM_TEXT
100
AcDbText
 10
2.867515
 20
53.125025
 30
0.0
 40
1.125
  1
SET 1.25" MIN. FROM FINISHED
 51
15.0
  7
INFO
100
AcDbText
  0
TEXT
  5
A42
100
AcDbEntity
  8
DIM_TEXT
100
AcDbText
 10
1.344082
 20
33.813318
 30
0.0
 40
1.125
  1
MADE AT ANY LOCATION
 51
15.0
  7
INFO
100
AcDbText
  0
TEXT
  5
A43
100
AcDbEntity
  8
DIM_TEXT
100
AcDbText
 10
1.344082
 20
35.595659
 30
0.0
 40
1.125
  1
WITH ADHESIVE FOAM. CAN BE
 51
15.0
  7
INFO
100
AcDbText
  0
TEXT
  5
A44
100
AcDbEntity
  8
DIM_TEXT
100
AcDbText
 10
1.344082
 20
37.526528
 30
0.0
 40
1.125
  1
FOR ELECT. BOXES AND PLACE
 51
15.0
  7
INFO
100
AcDbText
  0
TEXT
  5
A45
100
AcDbEntity
  8
DIM_TEXT
100
AcDbText
 10
1.344082
 20
39.308869
 30
0.0
 40
1.125
  1
ROUTE OR SAW CUT CAVITIES
 51
15.0
  7
INFO
100
AcDbText
  0
TEXT
  5
A46
100
AcDbEntity
  8
DIM_TEXT
100
AcDbText
 10
-4.55492
 20
45.364117
 30
0.0
 40
1.125
  1
HORIZ. REINF. (MIN #4 @ 30" O.C.
 51
15.0
  7
INFO
100
AcDbText
  0
TEXT
  5
A47
100
AcDbEntity
  8
DIM_TEXT
100
AcDbText
 10
2.867515
 20
49.263287
 30
0.0
 40
1.125
  1
LOCATION
 51
15.0
  7
INFO
100
AcDbText
  0
LEADER
  5
A48
100
AcDbEntity
  8
0
  6
CONTINUOUS
 62
     6
100
AcDbLeader
  3
STANDARD
 76
     3
 10
37.033058
 20
50.823705
 30
0.0
 10
32.223254
 20
59.246505
 30
0.0
 10
29.344103
 20
59.246505
 30
0.0
 77
    13
211
-1.0
221
0.0
231
0.0
1001
ACAD
1000
DSTYLE
1002
{
1070
    78
1070
     1
1070
   140
1040
6.0
1070
    73
1070
     0
1070
    77
1070
     1
1070
    40
1040
12.0
1070
    42
1040
6.0
1070
    44
1040
0.0
1070
    43
1040
24.0
1070
   176
1070
     6
1070
   141
1040
3.0
1070
    41
1040
0.125
1002
}
  0
LEADER
  5
A49
100
AcDbEntity
  8
0
  6
CONTINUOUS
 62
     6
100
AcDbLeader
  3
STANDARD
 76
     3
 10
37.033058
 20
36.430946
 30
0.0
 10
32.322941
 20
39.678732
 30
0.0
 10
29.44379
 20
39.678732
 30
0.0
 77
    13
211
-1.0
221
0.0
231
0.0
1001
ACAD
1000
DSTYLE
1002
{
1070
    78
1070
     1
1070
   140
1040
6.0
1070
    73
1070
     0
1070
    77
1070
     1
1070
    40
1040
12.0
1070
    42
1040
6.0
1070
    44
1040
0.0
1070
    43
1040
24.0
1070
   176
1070
     6
1070
   141
1040
3.0
1070
    41
1040
0.125
1002
}
  0
LEADER
  5
A4A
100
AcDbEntity
  8
0
  6
CONTINUOUS
 62
     6
100
AcDbLeader
  3
STANDARD
 76
     3
 10
41.389921
 20
52.38452
 30
0.0
 10
31.753441
 20
45.73398
 30
0.0
 10
28.87429
 20
45.73398
 30
0.0
 77
    13
211
-1.0
221
0.0
231
0.0
1001
ACAD
1000
DSTYLE
1002
{
1070
    78
1070
     1
1070
   140
1040
6.0
1070
    73
1070
     0
1070
    77
1070
     1
1070
    40
1040
12.0
1070
    42
1040
6.0
1070
    44
1040
0.0
1070
    43
1040
24.0
1070
   176
1070
     6
1070
   141
1040
3.0
1070
    41
1040
0.125
1002
}
  0
LWPOLYLINE
  5
A4B
100
AcDbEntity
  8
0
  6
CONTINUOUS
100
AcDbPolyline
 90
        4
 70
     0
 43
0.0
 10
37.033058
 20
34.555946
 10
38.658058
 20
34.555946
 10
38.658058
 20
38.305946
 10
37.033058
 20
38.305946
  0
LWPOLYLINE
  5
A4C
100
AcDbEntity
  8
0
  6
CONTINUOUS
100
AcDbPolyline
 90
        4
 70
     1
 43
0.0
 10
37.033058
 20
34.680946
 10
38.533058
 20
34.680946
 10
38.533058
 20
38.180946
 10
37.033058
 20
38.180946
  0
LWPOLYLINE
  5
A4D
100
AcDbEntity
  8
0
  6
CONTINUOUS
100
AcDbPolyline
 90
        4
 70
     1
 43
0.0
 10
37.033058
 20
50.323705
 10
38.533058
 20
50.323705
 10
38.533058
 20
51.323705
 10
37.033058
 20
51.323705
  0
TEXT
  5
A4E
100
AcDbEntity
  8
DIM_TEXT
100
AcDbText
 10
55.24661
 20
42.772055
 30
0.0
 40
1.125
  1
ENT/ EMT CONDUIT
 51
15.0
  7
INFO
100
AcDbText
  0
TEXT
  5
A4F
100
AcDbEntity
  8
DIM_TEXT
100
AcDbText
 10
55.146634
 20
49.864323
 30
0.0
 40
1.125
  1
RASTRA WALL
 51
15.0
  7
INFO
100
AcDbText
  0
LEADER
  5
A50
100
AcDbEntity
  8
0
  6
CONTINUOUS
 62
     6
100
AcDbLeader
  3
STANDARD
 76
     3
 10
46.782331
 20
44.3086
 30
0.0
 10
51.359408
 20
50.234186
 30
0.0
 10
54.238559
 20
50.234186
 30
0.0
 77
    13
1001
ACAD
1000
DSTYLE
1002
{
1070
    78
1070
     1
1070
   140
1040
6.0
1070
    73
1070
     0
1070
    77
1070
     1
1070
    40
1040
12.0
1070
    42
1040
6.0
1070
    44
1040
0.0
1070
    43
1040
24.0
1070
   176
1070
     6
1070
   141
1040
3.0
1070
    41
1040
0.125
1002
}
  0
ENDSEC
  0
SECTION
  2
OBJECTS
  0
DICTIONARY
  5
C
100
AcDbDictionary
  3
ACAD_GROUP
350
D
  3
ACAD_MLINESTYLE
350
1A
  3
ACDBVARIABLEDICTIONARY
350
2E
  0
DICTIONARY
  5
D
102
{ACAD_REACTORS
330
C
102
}
100
AcDbDictionary
  0
DICTIONARY
  5
1A
102
{ACAD_REACTORS
330
C
102
}
100
AcDbDictionary
  3
STANDARD
350
1B
  0
DICTIONARY
  5
2E
102
{ACAD_REACTORS
330
C
102
}
100
AcDbDictionary
  3
DIMADEC
350
2F
  0
MLINESTYLE
  5
1B
102
{ACAD_REACTORS
330
1A
102
}
100
AcDbMlineStyle
  2
STANDARD
 70
     0
  3

 62
   256
 51
90.0
 52
90.0
 71
     2
 49
0.5
 62
   256
  6
BYLAYER
 49
-0.5
 62
   256
  6
BYLAYER
  0
DICTIONARYVAR
  5
2F
102
{ACAD_REACTORS
330
2E
102
}
100
DictionaryVariables
280
     0
  1
0
  0
ENDSEC
  0
EOF
