  0
SECTION
  2
HEADER
  9
$ACADVER
  1
AC1014
  9
$ACADMAINTVER
 70
     8
  9
$DWGCODEPAGE
  3
ANSI_1252
  9
$INSBASE
 10
0.0
 20
0.0
 30
0.0
  9
$EXTMIN
 10
10.551406
 20
11.337342
 30
0.0
  9
$EXTMAX
 10
164.865557
 20
177.882854
 30
0.0
  9
$LIMMIN
 10
0.0
 20
0.0
  9
$LIMMAX
 10
170.0
 20
220.0
  9
$ORTHOMODE
 70
     1
  9
$REGENMODE
 70
     1
  9
$FILLMODE
 70
     1
  9
$QTEXTMODE
 70
     0
  9
$MIRRTEXT
 70
     1
  9
$DRAGMODE
 70
     2
  9
$LTSCALE
 40
6.0
  9
$OSMODE
 70
    37
  9
$ATTMODE
 70
     1
  9
$TEXTSIZE
 40
0.2
  9
$TRACEWID
 40
0.05
  9
$TEXTSTYLE
  7
STANDARD
  9
$CLAYER
  8
DIM_TEXT
  9
$CELTYPE
  6
BYLAYER
  9
$CECOLOR
 62
   256
  9
$CELTSCALE
 40
1.0
  9
$DELOBJ
 70
     1
  9
$DISPSILH
 70
     0
  9
$DIMSCALE
 40
1.0
  9
$DIMASZ
 40
2.0
  9
$DIMEXO
 40
1.5
  9
$DIMDLI
 40
1.0
  9
$DIMRND
 40
0.0
  9
$DIMDLE
 40
0.0
  9
$DIMEXE
 40
1.0
  9
$DIMTP
 40
0.0
  9
$DIMTM
 40
0.0
  9
$DIMTXT
 40
2.25
  9
$DIMCEN
 40
0.0625
  9
$DIMTSZ
 40
0.0
  9
$DIMTOL
 70
     0
  9
$DIMLIM
 70
     0
  9
$DIMTIH
 70
     1
  9
$DIMTOH
 70
     1
  9
$DIMSE1
 70
     0
  9
$DIMSE2
 70
     0
  9
$DIMTAD
 70
     0
  9
$DIMZIN
 70
     0
  9
$DIMBLK
  1

  9
$DIMASO
 70
     1
  9
$DIMSHO
 70
     1
  9
$DIMPOST
  1

  9
$DIMAPOST
  1

  9
$DIMALT
 70
     0
  9
$DIMALTD
 70
     2
  9
$DIMALTF
 40
25.4
  9
$DIMLFAC
 40
1.0
  9
$DIMTOFL
 70
     0
  9
$DIMTVP
 40
0.0
  9
$DIMTIX
 70
     0
  9
$DIMSOXD
 70
     0
  9
$DIMSAH
 70
     0
  9
$DIMBLK1
  1

  9
$DIMBLK2
  1

  9
$DIMSTYLE
  2
STANDARD
  9
$DIMCLRD
 70
     0
  9
$DIMCLRE
 70
     0
  9
$DIMCLRT
 70
     0
  9
$DIMTFAC
 40
0.444444
  9
$DIMGAP
 40
1.0
  9
$DIMJUST
 70
     0
  9
$DIMSD1
 70
     0
  9
$DIMSD2
 70
     0
  9
$DIMTOLJ
 70
     1
  9
$DIMTZIN
 70
     0
  9
$DIMALTZ
 70
     0
  9
$DIMALTTZ
 70
     0
  9
$DIMFIT
 70
     5
  9
$DIMUPT
 70
     0
  9
$DIMUNIT
 70
     4
  9
$DIMDEC
 70
     4
  9
$DIMTDEC
 70
     4
  9
$DIMALTU
 70
     4
  9
$DIMALTTD
 70
     2
  9
$DIMTXSTY
  7
STANDARD
  9
$DIMAUNIT
 70
     2
  9
$LUNITS
 70
     4
  9
$LUPREC
 70
     4
  9
$SKETCHINC
 40
0.1
  9
$FILLETRAD
 40
0.0
  9
$AUNITS
 70
     2
  9
$AUPREC
 70
     0
  9
$MENU
  1
acad
  9
$ELEVATION
 40
0.0
  9
$PELEVATION
 40
0.0
  9
$THICKNESS
 40
0.0
  9
$LIMCHECK
 70
     0
  9
$BLIPMODE
 70
     1
  9
$CHAMFERA
 40
1.5
  9
$CHAMFERB
 40
1.5
  9
$CHAMFERC
 40
0.0
  9
$CHAMFERD
 40
0.0
  9
$SKPOLY
 70
     0
  9
$TDCREATE
 40
2451170.865548148
  9
$TDUPDATE
 40
2452235.538907986
  9
$TDINDWG
 40
0.0731583333
  9
$TDUSRTIMER
 40
0.0731583333
  9
$USRTIMER
 70
     1
  9
$ANGBASE
 50
0.0
  9
$ANGDIR
 70
     0
  9
$PDMODE
 70
     0
  9
$PDSIZE
 40
0.0
  9
$PLINEWID
 40
0.0
  9
$COORDS
 70
     1
  9
$SPLFRAME
 70
     0
  9
$SPLINETYPE
 70
     6
  9
$SPLINESEGS
 70
     8
  9
$ATTDIA
 70
     0
  9
$ATTREQ
 70
     1
  9
$HANDLING
 70
     1
  9
$HANDSEED
  5
284
  9
$SURFTAB1
 70
     6
  9
$SURFTAB2
 70
     6
  9
$SURFTYPE
 70
     6
  9
$SURFU
 70
     6
  9
$SURFV
 70
     6
  9
$UCSNAME
  2

  9
$UCSORG
 10
0.0
 20
0.0
 30
0.0
  9
$UCSXDIR
 10
1.0
 20
0.0
 30
0.0
  9
$UCSYDIR
 10
0.0
 20
1.0
 30
0.0
  9
$PUCSNAME
  2

  9
$PUCSORG
 10
0.0
 20
0.0
 30
0.0
  9
$PUCSXDIR
 10
1.0
 20
0.0
 30
0.0
  9
$PUCSYDIR
 10
0.0
 20
1.0
 30
0.0
  9
$USERI1
 70
     0
  9
$USERI2
 70
     0
  9
$USERI3
 70
     0
  9
$USERI4
 70
     0
  9
$USERI5
 70
     0
  9
$USERR1
 40
0.0
  9
$USERR2
 40
0.0
  9
$USERR3
 40
0.0
  9
$USERR4
 40
0.0
  9
$USERR5
 40
0.0
  9
$WORLDVIEW
 70
     1
  9
$SHADEDGE
 70
     3
  9
$SHADEDIF
 70
    70
  9
$TILEMODE
 70
     1
  9
$MAXACTVP
 70
    16
  9
$PINSBASE
 10
0.0
 20
0.0
 30
0.0
  9
$PLIMCHECK
 70
     0
  9
$PEXTMIN
 10
1.000000E+20
 20
1.000000E+20
 30
1.000000E+20
  9
$PEXTMAX
 10
-1.000000E+20
 20
-1.000000E+20
 30
-1.000000E+20
  9
$PLIMMIN
 10
0.0
 20
0.0
  9
$PLIMMAX
 10
12.0
 20
9.0
  9
$UNITMODE
 70
     0
  9
$VISRETAIN
 70
     0
  9
$PLINEGEN
 70
     0
  9
$PSLTSCALE
 70
     1
  9
$TREEDEPTH
 70
  3020
  9
$PICKSTYLE
 70
     1
  9
$CMLSTYLE
  2
STANDARD
  9
$CMLJUST
 70
     0
  9
$CMLSCALE
 40
1.0
  9
$PROXYGRAPHICS
 70
     1
  9
$MEASUREMENT
 70
     0
  0
ENDSEC
  0
SECTION
  2
CLASSES
  0
CLASS
  1
DICTIONARYVAR
  2
AcDbDictionaryVar
  3
"AutoCAD"
 90
        0
280
     0
281
     0
  0
CLASS
  1
LWPOLYLINE
  2
AcDbPolyline
  3
"AutoCAD"
 90
        0
280
     0
281
     1
  0
ENDSEC
  0
SECTION
  2
TABLES
  0
TABLE
  2
VPORT
  5
8
100
AcDbSymbolTable
 70
     1
  0
VPORT
  5
27E
100
AcDbSymbolTableRecord
100
AcDbViewportTableRecord
  2
*ACTIVE
 70
     0
 10
0.0
 20
0.0
 11
1.0
 21
1.0
 12
87.084488
 22
95.577778
 13
0.0
 23
0.0
 14
1.0
 24
1.0
 15
2.0
 25
2.0
 16
0.0
 26
0.0
 36
1.0
 17
0.0
 27
0.0
 37
0.0
 40
178.933334
 41
1.474388
 42
50.0
 43
0.0
 44
0.0
 50
0.0
 51
0.0
 71
     0
 72
   100
 73
     1
 74
     1
 75
     0
 76
     0
 77
     0
 78
     0
  0
ENDTAB
  0
TABLE
  2
LTYPE
  5
5
100
AcDbSymbolTable
 70
     3
  0
LTYPE
  5
11
100
AcDbSymbolTableRecord
100
AcDbLinetypeTableRecord
  2
BYBLOCK
 70
     0
  3

 72
    65
 73
     0
 40
0.0
  0
LTYPE
  5
12
100
AcDbSymbolTableRecord
100
AcDbLinetypeTableRecord
  2
BYLAYER
 70
     0
  3

 72
    65
 73
     0
 40
0.0
  0
LTYPE
  5
13
100
AcDbSymbolTableRecord
100
AcDbLinetypeTableRecord
  2
CONTINUOUS
 70
     0
  3
Solid line
 72
    65
 73
     0
 40
0.0
  0
LTYPE
  5
1E
100
AcDbSymbolTableRecord
100
AcDbLinetypeTableRecord
  2
HIDDEN
 70
     0
  3
__ __ __ __ __ __ __ __ __ __ __ __ __ __ __ __
 72
    65
 73
     2
 40
0.375
 49
0.25
 74
     0
 49
-0.125
 74
     0
  0
LTYPE
  5
1F
100
AcDbSymbolTableRecord
100
AcDbLinetypeTableRecord
  2
HIDDENX2
 70
     0
  3
____ ____ ____ ____ ____ ____ ____ ____ ____ __
 72
    65
 73
     2
 40
0.75
 49
0.5
 74
     0
 49
-0.25
 74
     0
  0
ENDTAB
  0
TABLE
  2
LAYER
  5
2
100
AcDbSymbolTable
 70
     5
  0
LAYER
  5
E
100
AcDbSymbolTableRecord
100
AcDbLayerTableRecord
  2
0
 70
     0
 62
     7
  6
CONTINUOUS
  0
LAYER
  5
24
100
AcDbSymbolTableRecord
100
AcDbLayerTableRecord
  2
DRAWING
 70
     0
 62
     7
  6
CONTINUOUS
  0
LAYER
  5
25
100
AcDbSymbolTableRecord
100
AcDbLayerTableRecord
  2
DIM_TEXT
 70
     0
 62
     6
  6
CONTINUOUS
  0
LAYER
  5
26
100
AcDbSymbolTableRecord
100
AcDbLayerTableRecord
  2
HIDDEN
 70
     0
 62
     4
  6
HIDDEN
  0
LAYER
  5
27
100
AcDbSymbolTableRecord
100
AcDbLayerTableRecord
  2
REINFORCEMENT
 70
     0
 62
     7
  6
HIDDENX2
  0
ENDTAB
  0
TABLE
  2
STYLE
  5
3
100
AcDbSymbolTable
 70
     3
  0
STYLE
  5
F
100
AcDbSymbolTableRecord
100
AcDbTextStyleTableRecord
  2
STANDARD
 70
     0
 40
0.0
 41
1.0
 50
0.0
 71
     0
 42
0.2
  3
txt
  4

  0
STYLE
  5
1C
100
AcDbSymbolTableRecord
100
AcDbTextStyleTableRecord
  2
INFO
 70
     0
 40
0.0
 41
1.0
 50
15.0
 71
     0
 42
1.08
  3
C:\ACADWIN\FONTS\ROMANS.SHX
  4

  0
STYLE
  5
1D
100
AcDbSymbolTableRecord
100
AcDbTextStyleTableRecord
  2
TITLE
 70
     0
 40
0.0
 41
1.0
 50
0.0
 71
     0
 42
2.8
  3
C:\ACADWIN\FONTS\ROMANC.SHX
  4

  0
ENDTAB
  0
TABLE
  2
VIEW
  5
6
100
AcDbSymbolTable
 70
     0
  0
ENDTAB
  0
TABLE
  2
UCS
  5
7
100
AcDbSymbolTable
 70
     0
  0
ENDTAB
  0
TABLE
  2
APPID
  5
9
100
AcDbSymbolTable
 70
     2
  0
APPID
  5
10
100
AcDbSymbolTableRecord
100
AcDbRegAppTableRecord
  2
ACAD
 70
     0
  0
APPID
  5
23
100
AcDbSymbolTableRecord
100
AcDbRegAppTableRecord
  2
ZIMM
 70
     0
  0
ENDTAB
  0
TABLE
  2
DIMSTYLE
  5
A
100
AcDbSymbolTable
 70
     1
  0
DIMSTYLE
105
27B
100
AcDbSymbolTableRecord
100
AcDbDimStyleTableRecord
  2
STANDARD
 70
     0
  3

  4

  5

  6

  7

 40
1.0
 41
0.18
 42
0.0625
 43
0.38
 44
0.18
 45
0.0
 46
0.0
 47
0.0
 48
0.0
140
0.18
141
0.09
142
0.0
143
25.4
144
1.0
145
0.0
146
1.0
147
0.09
 71
     0
 72
     0
 73
     1
 74
     1
 75
     0
 76
     0
 77
     0
 78
     0
170
     0
171
     2
172
     0
173
     0
174
     0
175
     0
176
     0
177
     0
178
     0
270
     2
271
     4
272
     4
273
     2
274
     2
340
F
275
     0
280
     0
281
     0
282
     0
283
     1
284
     0
285
     0
286
     0
287
     3
288
     0
  0
ENDTAB
  0
TABLE
  2
BLOCK_RECORD
  5
1
100
AcDbSymbolTable
 70
     0
  0
BLOCK_RECORD
  5
17
100
AcDbSymbolTableRecord
100
AcDbBlockTableRecord
  2
*MODEL_SPACE
  0
BLOCK_RECORD
  5
14
100
AcDbSymbolTableRecord
100
AcDbBlockTableRecord
  2
*PAPER_SPACE
  0
ENDTAB
  0
ENDSEC
  0
SECTION
  2
BLOCKS
  0
BLOCK
  5
2A
100
AcDbEntity
  8
0
100
AcDbBlockBegin
  2
*MODEL_SPACE
 70
     0
 10
0.0
 20
0.0
 30
0.0
  3
*MODEL_SPACE
  1

  0
ENDBLK
  5
2B
100
AcDbEntity
  8
0
100
AcDbBlockEnd
  0
BLOCK
  5
28
100
AcDbEntity
 67
     1
  8
0
100
AcDbBlockBegin
  2
*PAPER_SPACE
 70
     0
 10
0.0
 20
0.0
 30
0.0
  3
*PAPER_SPACE
  1

  0
ENDBLK
  5
29
100
AcDbEntity
 67
     1
  8
0
100
AcDbBlockEnd
  0
ENDSEC
  0
SECTION
  2
ENTITIES
  0
TEXT
  5
2E
100
AcDbEntity
  8
DRAWING
100
AcDbText
 10
36.422998
 20
11.337342
 30
0.0
 40
5.0
  1
WALL ELEVATION DETAIL
  7
TITLE
 72
     1
 11
84.994426
 21
11.337342
 31
0.0
100
AcDbText
  0
TEXT
  5
30
100
AcDbEntity
  8
DIM_TEXT
100
AcDbText
 10
134.385199
 20
151.587767
 30
0.0
 40
2.25
  1
RASTRA MAT'L
 51
15.0
  7
INFO
100
AcDbText
  0
LINE
  5
32
100
AcDbEntity
  8
0
100
AcDbLine
 10
10.551406
 20
53.226695
 30
0.0
 11
125.551406
 21
53.226695
 31
0.0
  0
LINE
  5
33
100
AcDbEntity
  8
REINFORCEMENT
100
AcDbLine
 10
10.551406
 20
68.226695
 30
0.0
 11
125.551406
 21
68.226695
 31
0.0
  0
LINE
  5
34
100
AcDbEntity
  8
REINFORCEMENT
100
AcDbLine
 10
10.551406
 20
83.226695
 30
0.0
 11
45.551406
 21
83.226695
 31
0.0
  0
LINE
  5
35
100
AcDbEntity
  8
REINFORCEMENT
100
AcDbLine
 10
10.551406
 20
98.226695
 30
0.0
 11
46.551406
 21
98.226695
 31
0.0
  0
LINE
  5
36
100
AcDbEntity
  8
REINFORCEMENT
100
AcDbLine
 10
10.551406
 20
113.226695
 30
0.0
 11
46.551406
 21
113.226695
 31
0.0
  0
LINE
  5
37
100
AcDbEntity
  8
REINFORCEMENT
100
AcDbLine
 10
10.551406
 20
128.226695
 30
0.0
 11
46.551406
 21
128.226695
 31
0.0
  0
LWPOLYLINE
  5
38
100
AcDbEntity
  8
HIDDEN
100
AcDbPolyline
 90
        8
 70
     1
 43
0.0
 10
108.551406
 20
63.726695
 10
108.551406
 20
57.726695
 10
110.051406
 20
56.226695
 10
116.051406
 20
56.226695
 10
117.551406
 20
57.726695
 10
117.551406
 20
63.726695
 10
116.051406
 20
65.226695
 10
110.051406
 20
65.226695
  0
LWPOLYLINE
  5
42
100
AcDbEntity
  8
HIDDEN
100
AcDbPolyline
 90
        8
 70
     1
 43
0.0
 10
108.551406
 20
78.726695
 10
108.551406
 20
72.726695
 10
110.051406
 20
71.226695
 10
116.051406
 20
71.226695
 10
117.551406
 20
72.726695
 10
117.551406
 20
78.726695
 10
116.051406
 20
80.226695
 10
110.051406
 20
80.226695
  0
LWPOLYLINE
  5
4C
100
AcDbEntity
  8
HIDDEN
100
AcDbPolyline
 90
        8
 70
     1
 43
0.0
 10
108.551406
 20
93.726695
 10
108.551406
 20
87.726695
 10
110.051406
 20
86.226695
 10
116.051406
 20
86.226695
 10
117.551406
 20
87.726695
 10
117.551406
 20
93.726695
 10
116.051406
 20
95.226695
 10
110.051406
 20
95.226695
  0
LWPOLYLINE
  5
56
100
AcDbEntity
  8
HIDDEN
100
AcDbPolyline
 90
        8
 70
     1
 43
0.0
 10
108.551406
 20
108.726695
 10
108.551406
 20
102.726695
 10
110.051406
 20
101.226695
 10
116.051406
 20
101.226695
 10
117.551406
 20
102.726695
 10
117.551406
 20
108.726695
 10
116.051406
 20
110.226695
 10
110.051406
 20
110.226695
  0
LWPOLYLINE
  5
60
100
AcDbEntity
  8
HIDDEN
100
AcDbPolyline
 90
        8
 70
     1
 43
0.0
 10
108.551406
 20
123.726695
 10
108.551406
 20
117.726695
 10
110.051406
 20
116.226695
 10
116.051406
 20
116.226695
 10
117.551406
 20
117.726695
 10
117.551406
 20
123.726695
 10
116.051406
 20
125.226695
 10
110.051406
 20
125.226695
  0
LWPOLYLINE
  5
6A
100
AcDbEntity
  8
HIDDEN
100
AcDbPolyline
 90
        8
 70
     1
 43
0.0
 10
93.551406
 20
63.726695
 10
93.551406
 20
57.726695
 10
95.051406
 20
56.226695
 10
101.051406
 20
56.226695
 10
102.551406
 20
57.726695
 10
102.551406
 20
63.726695
 10
101.051406
 20
65.226695
 10
95.051406
 20
65.226695
  0
LWPOLYLINE
  5
74
100
AcDbEntity
  8
HIDDEN
100
AcDbPolyline
 90
        8
 70
     1
 43
0.0
 10
93.551406
 20
78.726695
 10
93.551406
 20
72.726695
 10
95.051406
 20
71.226695
 10
101.051406
 20
71.226695
 10
102.551406
 20
72.726695
 10
102.551406
 20
78.726695
 10
101.051406
 20
80.226695
 10
95.051406
 20
80.226695
  0
LWPOLYLINE
  5
7E
100
AcDbEntity
  8
HIDDEN
100
AcDbPolyline
 90
        8
 70
     1
 43
0.0
 10
93.551406
 20
93.726695
 10
93.551406
 20
87.726695
 10
95.051406
 20
86.226695
 10
101.051406
 20
86.226695
 10
102.551406
 20
87.726695
 10
102.551406
 20
93.726695
 10
101.051406
 20
95.226695
 10
95.051406
 20
95.226695
  0
LWPOLYLINE
  5
88
100
AcDbEntity
  8
HIDDEN
100
AcDbPolyline
 90
        8
 70
     1
 43
0.0
 10
93.551406
 20
108.726695
 10
93.551406
 20
102.726695
 10
95.051406
 20
101.226695
 10
101.051406
 20
101.226695
 10
102.551406
 20
102.726695
 10
102.551406
 20
108.726695
 10
101.051406
 20
110.226695
 10
95.051406
 20
110.226695
  0
LWPOLYLINE
  5
92
100
AcDbEntity
  8
HIDDEN
100
AcDbPolyline
 90
        8
 70
     1
 43
0.0
 10
93.551406
 20
123.726695
 10
93.551406
 20
117.726695
 10
95.051406
 20
116.226695
 10
101.051406
 20
116.226695
 10
102.551406
 20
117.726695
 10
102.551406
 20
123.726695
 10
101.051406
 20
125.226695
 10
95.051406
 20
125.226695
  0
LWPOLYLINE
  5
9C
100
AcDbEntity
  8
HIDDEN
100
AcDbPolyline
 90
        8
 70
     1
 43
0.0
 10
78.551406
 20
63.726695
 10
78.551406
 20
57.726695
 10
80.051406
 20
56.226695
 10
86.051406
 20
56.226695
 10
87.551406
 20
57.726695
 10
87.551406
 20
63.726695
 10
86.051406
 20
65.226695
 10
80.051406
 20
65.226695
  0
LWPOLYLINE
  5
A6
100
AcDbEntity
  8
HIDDEN
100
AcDbPolyline
 90
        8
 70
     1
 43
0.0
 10
78.551406
 20
78.726695
 10
78.551406
 20
72.726695
 10
80.051406
 20
71.226695
 10
86.051406
 20
71.226695
 10
87.551406
 20
72.726695
 10
87.551406
 20
78.726695
 10
86.051406
 20
80.226695
 10
80.051406
 20
80.226695
  0
LWPOLYLINE
  5
B0
100
AcDbEntity
  8
HIDDEN
100
AcDbPolyline
 90
        8
 70
     1
 43
0.0
 10
63.551406
 20
63.726695
 10
63.551406
 20
57.726695
 10
65.051406
 20
56.226695
 10
71.051406
 20
56.226695
 10
72.551406
 20
57.726695
 10
72.551406
 20
63.726695
 10
71.051406
 20
65.226695
 10
65.051406
 20
65.226695
  0
LWPOLYLINE
  5
BA
100
AcDbEntity
  8
HIDDEN
100
AcDbPolyline
 90
        8
 70
     1
 43
0.0
 10
63.551406
 20
78.726695
 10
63.551406
 20
72.726695
 10
65.051406
 20
71.226695
 10
71.051406
 20
71.226695
 10
72.551406
 20
72.726695
 10
72.551406
 20
78.726695
 10
71.051406
 20
80.226695
 10
65.051406
 20
80.226695
  0
LWPOLYLINE
  5
C4
100
AcDbEntity
  8
HIDDEN
100
AcDbPolyline
 90
        8
 70
     1
 43
0.0
 10
48.551406
 20
63.726695
 10
48.551406
 20
57.726695
 10
50.051406
 20
56.226695
 10
56.051406
 20
56.226695
 10
57.551406
 20
57.726695
 10
57.551406
 20
63.726695
 10
56.051406
 20
65.226695
 10
50.051406
 20
65.226695
  0
LWPOLYLINE
  5
CE
100
AcDbEntity
  8
HIDDEN
100
AcDbPolyline
 90
        8
 70
     1
 43
0.0
 10
48.551406
 20
78.726695
 10
48.551406
 20
72.726695
 10
50.051406
 20
71.226695
 10
56.051406
 20
71.226695
 10
57.551406
 20
72.726695
 10
57.551406
 20
78.726695
 10
56.051406
 20
80.226695
 10
50.051406
 20
80.226695
  0
LWPOLYLINE
  5
D8
100
AcDbEntity
  8
HIDDEN
100
AcDbPolyline
 90
        8
 70
     1
 43
0.0
 10
33.551406
 20
63.726695
 10
33.551406
 20
57.726695
 10
35.051406
 20
56.226695
 10
41.051406
 20
56.226695
 10
42.551406
 20
57.726695
 10
42.551406
 20
63.726695
 10
41.051406
 20
65.226695
 10
35.051406
 20
65.226695
  0
LWPOLYLINE
  5
E2
100
AcDbEntity
  8
HIDDEN
100
AcDbPolyline
 90
        8
 70
     1
 43
0.0
 10
33.551406
 20
78.726695
 10
33.551406
 20
72.726695
 10
35.051406
 20
71.226695
 10
41.051406
 20
71.226695
 10
42.551406
 20
72.726695
 10
42.551406
 20
78.726695
 10
41.051406
 20
80.226695
 10
35.051406
 20
80.226695
  0
LWPOLYLINE
  5
EC
100
AcDbEntity
  8
HIDDEN
100
AcDbPolyline
 90
        8
 70
     1
 43
0.0
 10
33.551406
 20
93.726695
 10
33.551406
 20
87.726695
 10
35.051406
 20
86.226695
 10
41.051406
 20
86.226695
 10
42.551406
 20
87.726695
 10
42.551406
 20
93.726695
 10
41.051406
 20
95.226695
 10
35.051406
 20
95.226695
  0
LWPOLYLINE
  5
F6
100
AcDbEntity
  8
HIDDEN
100
AcDbPolyline
 90
        8
 70
     1
 43
0.0
 10
33.551406
 20
108.726695
 10
33.551406
 20
102.726695
 10
35.051406
 20
101.226695
 10
41.051406
 20
101.226695
 10
42.551406
 20
102.726695
 10
42.551406
 20
108.726695
 10
41.051406
 20
110.226695
 10
35.051406
 20
110.226695
  0
LWPOLYLINE
  5
100
100
AcDbEntity
  8
HIDDEN
100
AcDbPolyline
 90
        8
 70
     1
 43
0.0
 10
33.551406
 20
123.726695
 10
33.551406
 20
117.726695
 10
35.051406
 20
116.226695
 10
41.051406
 20
116.226695
 10
42.551406
 20
117.726695
 10
42.551406
 20
123.726695
 10
41.051406
 20
125.226695
 10
35.051406
 20
125.226695
  0
LWPOLYLINE
  5
10A
100
AcDbEntity
  8
HIDDEN
100
AcDbPolyline
 90
        8
 70
     1
 43
0.0
 10
18.551406
 20
63.726695
 10
18.551406
 20
57.726695
 10
20.051406
 20
56.226695
 10
26.051406
 20
56.226695
 10
27.551406
 20
57.726695
 10
27.551406
 20
63.726695
 10
26.051406
 20
65.226695
 10
20.051406
 20
65.226695
  0
LWPOLYLINE
  5
114
100
AcDbEntity
  8
HIDDEN
100
AcDbPolyline
 90
        8
 70
     1
 43
0.0
 10
18.551406
 20
78.726695
 10
18.551406
 20
72.726695
 10
20.051406
 20
71.226695
 10
26.051406
 20
71.226695
 10
27.551406
 20
72.726695
 10
27.551406
 20
78.726695
 10
26.051406
 20
80.226695
 10
20.051406
 20
80.226695
  0
LWPOLYLINE
  5
11E
100
AcDbEntity
  8
HIDDEN
100
AcDbPolyline
 90
        8
 70
     1
 43
0.0
 10
18.551406
 20
93.726695
 10
18.551406
 20
87.726695
 10
20.051406
 20
86.226695
 10
26.051406
 20
86.226695
 10
27.551406
 20
87.726695
 10
27.551406
 20
93.726695
 10
26.051406
 20
95.226695
 10
20.051406
 20
95.226695
  0
LWPOLYLINE
  5
128
100
AcDbEntity
  8
HIDDEN
100
AcDbPolyline
 90
        8
 70
     1
 43
0.0
 10
18.551406
 20
108.726695
 10
18.551406
 20
102.726695
 10
20.051406
 20
101.226695
 10
26.051406
 20
101.226695
 10
27.551406
 20
102.726695
 10
27.551406
 20
108.726695
 10
26.051406
 20
110.226695
 10
20.051406
 20
110.226695
  0
LWPOLYLINE
  5
132
100
AcDbEntity
  8
HIDDEN
100
AcDbPolyline
 90
        8
 70
     1
 43
0.0
 10
18.551406
 20
123.726695
 10
18.551406
 20
117.726695
 10
20.051406
 20
116.226695
 10
26.051406
 20
116.226695
 10
27.551406
 20
117.726695
 10
27.551406
 20
123.726695
 10
26.051406
 20
125.226695
 10
20.051406
 20
125.226695
  0
LWPOLYLINE
  5
13C
100
AcDbEntity
  8
0
100
AcDbPolyline
 90
        4
 70
     1
 43
0.0
 10
53.051406
 20
135.726695
 10
53.051406
 20
90.726695
 10
83.051406
 20
90.726695
 10
83.051406
 20
135.726695
  0
LWPOLYLINE
  5
142
100
AcDbEntity
  8
HIDDEN
100
AcDbPolyline
 90
        4
 70
     1
 43
0.0
 10
48.551406
 20
140.226695
 10
48.551406
 20
86.226695
 10
87.551406
 20
86.226695
 10
87.551406
 20
140.226695
  0
LWPOLYLINE
  5
148
100
AcDbEntity
  8
0
100
AcDbPolyline
 90
        4
 70
     1
 43
0.0
 10
45.551406
 20
143.226695
 10
45.551406
 20
83.226695
 10
90.551406
 20
83.226695
 10
90.551406
 20
143.226695
  0
LINE
  5
14E
100
AcDbEntity
  8
REINFORCEMENT
100
AcDbLine
 10
10.551406
 20
143.226695
 30
0.0
 11
45.551406
 21
143.226695
 31
0.0
  0
LWPOLYLINE
  5
14F
100
AcDbEntity
  8
HIDDEN
100
AcDbPolyline
 90
        8
 70
     1
 43
0.0
 10
108.551406
 20
138.726695
 10
108.551406
 20
132.726695
 10
110.051406
 20
131.226695
 10
116.051406
 20
131.226695
 10
117.551406
 20
132.726695
 10
117.551406
 20
138.726695
 10
116.051406
 20
140.226695
 10
110.051406
 20
140.226695
  0
LWPOLYLINE
  5
159
100
AcDbEntity
  8
HIDDEN
100
AcDbPolyline
 90
        8
 70
     1
 43
0.0
 10
93.551406
 20
138.726695
 10
93.551406
 20
132.726695
 10
95.051406
 20
131.226695
 10
101.051406
 20
131.226695
 10
102.551406
 20
132.726695
 10
102.551406
 20
138.726695
 10
101.051406
 20
140.226695
 10
95.051406
 20
140.226695
  0
LWPOLYLINE
  5
163
100
AcDbEntity
  8
HIDDEN
100
AcDbPolyline
 90
        8
 70
     1
 43
0.0
 10
33.551406
 20
138.726695
 10
33.551406
 20
132.726695
 10
35.051406
 20
131.226695
 10
41.051406
 20
131.226695
 10
42.551406
 20
132.726695
 10
42.551406
 20
138.726695
 10
41.051406
 20
140.226695
 10
35.051406
 20
140.226695
  0
LWPOLYLINE
  5
16D
100
AcDbEntity
  8
HIDDEN
100
AcDbPolyline
 90
        8
 70
     1
 43
0.0
 10
18.551406
 20
138.726695
 10
18.551406
 20
132.726695
 10
20.051406
 20
131.226695
 10
26.051406
 20
131.226695
 10
27.551406
 20
132.726695
 10
27.551406
 20
138.726695
 10
26.051406
 20
140.226695
 10
20.051406
 20
140.226695
  0
LWPOLYLINE
  5
177
100
AcDbEntity
  8
HIDDEN
100
AcDbPolyline
 90
        8
 70
     1
 43
0.0
 10
18.551406
 20
153.726695
 10
18.551406
 20
147.726695
 10
20.051406
 20
146.226695
 10
26.051406
 20
146.226695
 10
27.551406
 20
147.726695
 10
27.551406
 20
153.726695
 10
26.051406
 20
155.226695
 10
20.051406
 20
155.226695
  0
LWPOLYLINE
  5
181
100
AcDbEntity
  8
HIDDEN
100
AcDbPolyline
 90
        8
 70
     1
 43
0.0
 10
33.551406
 20
153.726695
 10
33.551406
 20
147.726695
 10
35.051406
 20
146.226695
 10
41.051406
 20
146.226695
 10
42.551406
 20
147.726695
 10
42.551406
 20
153.726695
 10
41.051406
 20
155.226695
 10
35.051406
 20
155.226695
  0
LWPOLYLINE
  5
18B
100
AcDbEntity
  8
HIDDEN
100
AcDbPolyline
 90
        8
 70
     1
 43
0.0
 10
48.551406
 20
153.726695
 10
48.551406
 20
147.726695
 10
50.051406
 20
146.226695
 10
56.051406
 20
146.226695
 10
57.551406
 20
147.726695
 10
57.551406
 20
153.726695
 10
56.051406
 20
155.226695
 10
50.051406
 20
155.226695
  0
LWPOLYLINE
  5
195
100
AcDbEntity
  8
HIDDEN
100
AcDbPolyline
 90
        8
 70
     1
 43
0.0
 10
63.551406
 20
153.726695
 10
63.551406
 20
147.726695
 10
65.051406
 20
146.226695
 10
71.051406
 20
146.226695
 10
72.551406
 20
147.726695
 10
72.551406
 20
153.726695
 10
71.051406
 20
155.226695
 10
65.051406
 20
155.226695
  0
LWPOLYLINE
  5
19F
100
AcDbEntity
  8
HIDDEN
100
AcDbPolyline
 90
        8
 70
     1
 43
0.0
 10
78.551406
 20
153.726695
 10
78.551406
 20
147.726695
 10
80.051406
 20
146.226695
 10
86.051406
 20
146.226695
 10
87.551406
 20
147.726695
 10
87.551406
 20
153.726695
 10
86.051406
 20
155.226695
 10
80.051406
 20
155.226695
  0
LWPOLYLINE
  5
1A9
100
AcDbEntity
  8
HIDDEN
100
AcDbPolyline
 90
        8
 70
     1
 43
0.0
 10
93.551406
 20
153.726695
 10
93.551406
 20
147.726695
 10
95.051406
 20
146.226695
 10
101.051406
 20
146.226695
 10
102.551406
 20
147.726695
 10
102.551406
 20
153.726695
 10
101.051406
 20
155.226695
 10
95.051406
 20
155.226695
  0
LWPOLYLINE
  5
1B3
100
AcDbEntity
  8
HIDDEN
100
AcDbPolyline
 90
        8
 70
     1
 43
0.0
 10
108.551406
 20
153.726695
 10
108.551406
 20
147.726695
 10
110.051406
 20
146.226695
 10
116.051406
 20
146.226695
 10
117.551406
 20
147.726695
 10
117.551406
 20
153.726695
 10
116.051406
 20
155.226695
 10
110.051406
 20
155.226695
  0
LINE
  5
1BD
100
AcDbEntity
  8
REINFORCEMENT
100
AcDbLine
 10
10.551406
 20
158.226695
 30
0.0
 11
125.551406
 21
158.226695
 31
0.0
  0
LINE
  5
1BE
100
AcDbEntity
  8
0
100
AcDbLine
 10
10.551406
 20
43.226695
 30
0.0
 11
125.551406
 21
43.226695
 31
0.0
  0
LWPOLYLINE
  5
1BF
100
AcDbEntity
  8
REINFORCEMENT
100
AcDbPolyline
 90
        3
 70
     0
 43
0.0
 10
116.551406
 20
46.226695
 10
121.551406
 20
46.226695
 10
121.551406
 20
75.726695
  0
LINE
  5
1C4
100
AcDbEntity
  8
REINFORCEMENT
100
AcDbLine
 10
10.551406
 20
48.226695
 30
0.0
 11
125.551406
 21
48.226695
 31
0.0
  0
LINE
  5
1C5
100
AcDbEntity
  8
REINFORCEMENT
100
AcDbLine
 10
119.551406
 20
53.226695
 30
0.0
 11
119.551406
 21
167.226695
 31
0.0
  0
LINE
  5
1C6
100
AcDbEntity
  8
REINFORCEMENT
100
AcDbLine
 10
104.551406
 20
53.226695
 30
0.0
 11
104.551406
 21
167.226695
 31
0.0
  0
LINE
  5
1C7
100
AcDbEntity
  8
REINFORCEMENT
100
AcDbLine
 10
89.551406
 20
53.226695
 30
0.0
 11
89.551406
 21
167.226695
 31
0.0
  0
LINE
  5
1C8
100
AcDbEntity
  8
REINFORCEMENT
100
AcDbLine
 10
74.551406
 20
53.226695
 30
0.0
 11
74.551406
 21
84.226695
 31
0.0
  0
LINE
  5
1C9
100
AcDbEntity
  8
REINFORCEMENT
100
AcDbLine
 10
59.551406
 20
53.226695
 30
0.0
 11
59.551406
 21
84.226695
 31
0.0
  0
LINE
  5
1CA
100
AcDbEntity
  8
REINFORCEMENT
100
AcDbLine
 10
44.551406
 20
53.226695
 30
0.0
 11
44.551406
 21
167.226695
 31
0.0
  0
LINE
  5
1CB
100
AcDbEntity
  8
REINFORCEMENT
100
AcDbLine
 10
29.551406
 20
53.226695
 30
0.0
 11
29.551406
 21
167.226695
 31
0.0
  0
LINE
  5
1CC
100
AcDbEntity
  8
REINFORCEMENT
100
AcDbLine
 10
14.551406
 20
53.226695
 30
0.0
 11
14.551406
 21
167.226695
 31
0.0
  0
LINE
  5
1CD
100
AcDbEntity
  8
REINFORCEMENT
100
AcDbLine
 10
89.551406
 20
128.226695
 30
0.0
 11
125.551406
 21
128.226695
 31
0.0
  0
LINE
  5
1CE
100
AcDbEntity
  8
REINFORCEMENT
100
AcDbLine
 10
89.551406
 20
113.226695
 30
0.0
 11
125.551406
 21
113.226695
 31
0.0
  0
LINE
  5
1CF
100
AcDbEntity
  8
REINFORCEMENT
100
AcDbLine
 10
89.551406
 20
98.226695
 30
0.0
 11
125.551406
 21
98.226695
 31
0.0
  0
LINE
  5
1D0
100
AcDbEntity
  8
REINFORCEMENT
100
AcDbLine
 10
59.551406
 20
140.226695
 30
0.0
 11
59.551406
 21
167.226695
 31
0.0
  0
LINE
  5
1D1
100
AcDbEntity
  8
REINFORCEMENT
100
AcDbLine
 10
74.551406
 20
140.226695
 30
0.0
 11
74.551406
 21
167.226695
 31
0.0
  0
LINE
  5
1D2
100
AcDbEntity
  8
REINFORCEMENT
100
AcDbLine
 10
21.551406
 20
141.226695
 30
0.0
 11
114.551406
 21
141.226695
 31
0.0
  0
LINE
  5
1D3
100
AcDbEntity
  8
0
100
AcDbLine
 10
10.551406
 20
154.226695
 30
0.0
 11
125.551406
 21
154.226695
 31
0.0
  0
LINE
  5
1D4
100
AcDbEntity
  8
0
100
AcDbLine
 10
10.551406
 20
162.226695
 30
0.0
 11
125.551406
 21
162.226695
 31
0.0
  0
LWPOLYLINE
  5
1D5
100
AcDbEntity
  8
HIDDEN
100
AcDbPolyline
 90
        6
 70
     0
 43
0.0
 10
108.551406
 20
164.226695
 10
108.551406
 20
162.726695
 10
110.051406
 20
161.226695
 10
116.051406
 20
161.226695
 10
117.551406
 20
162.726695
 10
117.551406
 20
164.226695
  0
LWPOLYLINE
  5
1DD
100
AcDbEntity
  8
HIDDEN
100
AcDbPolyline
 90
        6
 70
     0
 43
0.0
 10
93.551406
 20
164.226695
 10
93.551406
 20
162.726695
 10
95.051406
 20
161.226695
 10
101.051406
 20
161.226695
 10
102.551406
 20
162.726695
 10
102.551406
 20
164.226695
  0
LWPOLYLINE
  5
1E5
100
AcDbEntity
  8
HIDDEN
100
AcDbPolyline
 90
        6
 70
     0
 43
0.0
 10
78.551406
 20
164.226695
 10
78.551406
 20
162.726695
 10
80.051406
 20
161.226695
 10
86.051406
 20
161.226695
 10
87.551406
 20
162.726695
 10
87.551406
 20
164.226695
  0
LWPOLYLINE
  5
1ED
100
AcDbEntity
  8
HIDDEN
100
AcDbPolyline
 90
        6
 70
     0
 43
0.0
 10
63.551406
 20
164.226695
 10
63.551406
 20
162.726695
 10
65.051406
 20
161.226695
 10
71.051406
 20
161.226695
 10
72.551406
 20
162.726695
 10
72.551406
 20
164.226695
  0
LWPOLYLINE
  5
1F5
100
AcDbEntity
  8
HIDDEN
100
AcDbPolyline
 90
        6
 70
     0
 43
0.0
 10
48.551406
 20
164.226695
 10
48.551406
 20
162.726695
 10
50.051406
 20
161.226695
 10
56.051406
 20
161.226695
 10
57.551406
 20
162.726695
 10
57.551406
 20
164.226695
  0
LWPOLYLINE
  5
1FD
100
AcDbEntity
  8
HIDDEN
100
AcDbPolyline
 90
        6
 70
     0
 43
0.0
 10
33.551406
 20
164.226695
 10
33.551406
 20
162.726695
 10
35.051406
 20
161.226695
 10
41.051406
 20
161.226695
 10
42.551406
 20
162.726695
 10
42.551406
 20
164.226695
  0
LWPOLYLINE
  5
205
100
AcDbEntity
  8
HIDDEN
100
AcDbPolyline
 90
        6
 70
     0
 43
0.0
 10
18.551406
 20
164.226695
 10
18.551406
 20
162.726695
 10
20.051406
 20
161.226695
 10
26.051406
 20
161.226695
 10
27.551406
 20
162.726695
 10
27.551406
 20
164.226695
  0
LINE
  5
20D
100
AcDbEntity
  8
REINFORCEMENT
100
AcDbLine
 10
90.551406
 20
83.226695
 30
0.0
 11
125.551406
 21
83.226695
 31
0.0
  0
LINE
  5
20E
100
AcDbEntity
  8
REINFORCEMENT
100
AcDbLine
 10
90.551406
 20
143.226695
 30
0.0
 11
125.551406
 21
143.226695
 31
0.0
  0
LINE
  5
20F
100
AcDbEntity
  8
REINFORCEMENT
100
AcDbLine
 10
121.551406
 20
142.226695
 30
0.0
 11
121.551406
 21
167.226695
 31
0.0
  0
LINE
  5
210
100
AcDbEntity
  8
REINFORCEMENT
100
AcDbLine
 10
106.551406
 20
142.226695
 30
0.0
 11
106.551406
 21
167.226695
 31
0.0
  0
LINE
  5
211
100
AcDbEntity
  8
REINFORCEMENT
100
AcDbLine
 10
91.551406
 20
142.226695
 30
0.0
 11
91.551406
 21
167.226695
 31
0.0
  0
LINE
  5
212
100
AcDbEntity
  8
REINFORCEMENT
100
AcDbLine
 10
76.551406
 20
142.226695
 30
0.0
 11
76.551406
 21
167.226695
 31
0.0
  0
LINE
  5
213
100
AcDbEntity
  8
REINFORCEMENT
100
AcDbLine
 10
61.551406
 20
142.226695
 30
0.0
 11
61.551406
 21
167.226695
 31
0.0
  0
LINE
  5
214
100
AcDbEntity
  8
REINFORCEMENT
100
AcDbLine
 10
46.551406
 20
142.226695
 30
0.0
 11
46.551406
 21
167.226695
 31
0.0
  0
LINE
  5
215
100
AcDbEntity
  8
REINFORCEMENT
100
AcDbLine
 10
31.551406
 20
142.226695
 30
0.0
 11
31.551406
 21
167.226695
 31
0.0
  0
LINE
  5
216
100
AcDbEntity
  8
REINFORCEMENT
100
AcDbLine
 10
16.551406
 20
142.226695
 30
0.0
 11
16.551406
 21
167.226695
 31
0.0
  0
LWPOLYLINE
  5
217
100
AcDbEntity
  8
REINFORCEMENT
100
AcDbPolyline
 90
        3
 70
     0
 43
0.0
 10
101.551406
 20
46.226695
 10
106.551406
 20
46.226695
 10
106.551406
 20
75.726695
  0
LWPOLYLINE
  5
21C
100
AcDbEntity
  8
REINFORCEMENT
100
AcDbPolyline
 90
        3
 70
     0
 43
0.0
 10
86.551406
 20
46.226695
 10
91.551406
 20
46.226695
 10
91.551406
 20
75.726695
  0
LWPOLYLINE
  5
221
100
AcDbEntity
  8
REINFORCEMENT
100
AcDbPolyline
 90
        3
 70
     0
 43
0.0
 10
71.551406
 20
46.226695
 10
76.551406
 20
46.226695
 10
76.551406
 20
75.726695
  0
LWPOLYLINE
  5
226
100
AcDbEntity
  8
REINFORCEMENT
100
AcDbPolyline
 90
        3
 70
     0
 43
0.0
 10
56.551406
 20
46.226695
 10
61.551406
 20
46.226695
 10
61.551406
 20
75.726695
  0
LWPOLYLINE
  5
22B
100
AcDbEntity
  8
REINFORCEMENT
100
AcDbPolyline
 90
        3
 70
     0
 43
0.0
 10
41.551406
 20
46.226695
 10
46.551406
 20
46.226695
 10
46.551406
 20
75.726695
  0
LWPOLYLINE
  5
230
100
AcDbEntity
  8
REINFORCEMENT
100
AcDbPolyline
 90
        3
 70
     0
 43
0.0
 10
26.551406
 20
46.226695
 10
31.551406
 20
46.226695
 10
31.551406
 20
75.726695
  0
LWPOLYLINE
  5
235
100
AcDbEntity
  8
REINFORCEMENT
100
AcDbPolyline
 90
        3
 70
     0
 43
0.0
 10
11.551406
 20
46.226695
 10
16.551406
 20
46.226695
 10
16.551406
 20
75.726695
  0
CIRCLE
  5
23A
100
AcDbEntity
  8
DRAWING
100
AcDbCircle
 10
23.051406
 20
159.226695
 30
0.0
 40
0.5
  0
CIRCLE
  5
23B
100
AcDbEntity
  8
DRAWING
100
AcDbCircle
 10
53.051406
 20
157.226695
 30
0.0
 40
0.5
  0
CIRCLE
  5
23C
100
AcDbEntity
  8
DRAWING
100
AcDbCircle
 10
83.051406
 20
159.226695
 30
0.0
 40
0.5
  0
CIRCLE
  5
23D
100
AcDbEntity
  8
DRAWING
100
AcDbCircle
 10
113.051406
 20
157.226695
 30
0.0
 40
0.5
  0
TEXT
  5
23E
100
AcDbEntity
  8
DIM_TEXT
100
AcDbText
 10
134.385199
 20
134.845817
 30
0.0
 40
2.25
  1
EXTEND LINTEL
 51
15.0
  7
INFO
100
AcDbText
  0
TEXT
  5
23F
100
AcDbEntity
  8
DIM_TEXT
100
AcDbText
 10
134.385199
 20
131.345817
 30
0.0
 40
2.25
  1
REINFORCING
 51
15.0
  7
INFO
100
AcDbText
  0
TEXT
  5
240
100
AcDbEntity
  8
DIM_TEXT
100
AcDbText
 10
134.385199
 20
127.845817
 30
0.0
 40
2.25
  1
24" MIN. BEYOND
 51
15.0
  7
INFO
100
AcDbText
  0
TEXT
  5
241
100
AcDbEntity
  8
DIM_TEXT
100
AcDbText
 10
134.385199
 20
124.345817
 30
0.0
 40
2.25
  1
OPENING (TYP)
 51
15.0
  7
INFO
100
AcDbText
  0
TEXT
  5
242
100
AcDbEntity
  8
DIM_TEXT
100
AcDbText
 10
134.385199
 20
79.425413
 30
0.0
 40
2.25
  1
WHILE POURING
 51
15.0
  7
INFO
100
AcDbText
  0
TEXT
  5
243
100
AcDbEntity
  8
DIM_TEXT
100
AcDbText
 10
134.385199
 20
82.925413
 30
0.0
 40
2.25
  1
WOOD FRAMING
 51
15.0
  7
INFO
100
AcDbText
  0
TEXT
  5
244
100
AcDbEntity
  8
DIM_TEXT
100
AcDbText
 10
134.385199
 20
86.425413
 30
0.0
 40
2.25
  1
OPENINGS W/
 51
15.0
  7
INFO
100
AcDbText
  0
TEXT
  5
245
100
AcDbEntity
  8
DIM_TEXT
100
AcDbText
 10
134.385199
 20
89.925413
 30
0.0
 40
2.25
  1
NOTE: BRACE
 51
15.0
  7
INFO
100
AcDbText
  0
TEXT
  5
246
100
AcDbEntity
  8
DIM_TEXT
100
AcDbText
 10
134.385199
 20
75.925413
 30
0.0
 40
2.25
  1
CONCRETE
 51
15.0
  7
INFO
100
AcDbText
  0
TEXT
  5
247
100
AcDbEntity
  8
DIM_TEXT
100
AcDbText
 10
134.385199
 20
49.407257
 30
0.0
 40
2.25
  1
FOOTING
 51
15.0
  7
INFO
100
AcDbText
  0
TEXT
  5
248
100
AcDbEntity
  8
DIM_TEXT
100
AcDbText
 10
56.504434
 20
106.114461
 30
0.0
 40
2.25
  1
NEEDED
 51
15.0
  7
INFO
100
AcDbText
  0
TEXT
  5
249
100
AcDbEntity
  8
DIM_TEXT
100
AcDbText
 10
56.504434
 20
109.614461
 30
0.0
 40
2.25
  1
& DOORS AS
 51
15.0
  7
INFO
100
AcDbText
  0
TEXT
  5
24A
100
AcDbEntity
  8
DIM_TEXT
100
AcDbText
 10
56.504434
 20
113.114461
 30
0.0
 40
2.25
  1
FOR WINDOWS
 51
15.0
  7
INFO
100
AcDbText
  0
TEXT
  5
24B
100
AcDbEntity
  8
DIM_TEXT
100
AcDbText
 10
56.504434
 20
116.614461
 30
0.0
 40
2.25
  1
END ELEMENT
 51
15.0
  7
INFO
100
AcDbText
  0
TEXT
  5
24C
100
AcDbEntity
  8
DIM_TEXT
100
AcDbText
 10
82.974078
 20
25.686794
 30
0.0
 40
2.25
  1
DESIGN
 51
15.0
  7
INFO
100
AcDbText
  0
TEXT
  5
24D
100
AcDbEntity
  8
DIM_TEXT
100
AcDbText
 10
82.974078
 20
29.186794
 30
0.0
 40
2.25
  1
SPACING PER
 51
15.0
  7
INFO
100
AcDbText
  0
TEXT
  5
24E
100
AcDbEntity
  8
DIM_TEXT
100
AcDbText
 10
82.974078
 20
32.686794
 30
0.0
 40
2.25
  1
REINF., SIZE &
 51
15.0
  7
INFO
100
AcDbText
  0
TEXT
  5
24F
100
AcDbEntity
  8
DIM_TEXT
100
AcDbText
 10
82.974078
 20
36.186794
 30
0.0
 40
2.25
  1
HORIZ. & VERT.
 51
15.0
  7
INFO
100
AcDbText
  0
TEXT
  5
250
100
AcDbEntity
  8
DIM_TEXT
100
AcDbText
 10
43.336775
 20
172.132854
 30
0.0
 40
2.25
  1
BOLT SIZE & SPACING
 51
15.0
  7
INFO
100
AcDbText
  0
TEXT
  5
251
100
AcDbEntity
  8
DIM_TEXT
100
AcDbText
 10
43.336775
 20
175.632854
 30
0.0
 40
2.25
  1
LEDGER - SEE DETAIL FOR ANCHOR
 51
15.0
  7
INFO
100
AcDbText
  0
SOLID
  5
252
100
AcDbEntity
  8
DIM_TEXT
100
AcDbTrace
 10
119.555658
 20
149.021142
 30
0.0
 11
119.347838
 21
149.65459
 31
0.0
 12
117.551406
 22
148.714407
 32
0.0
 13
117.551406
 23
148.714407
 33
0.0
  0
LINE
  5
253
100
AcDbEntity
  8
DIM_TEXT
100
AcDbLine
 10
119.451748
 20
149.337866
 30
0.0
 11
130.017786
 21
152.804344
 31
0.0
  0
LINE
  5
254
100
AcDbEntity
  8
DIM_TEXT
100
AcDbLine
 10
130.017786
 20
152.804344
 30
0.0
 11
133.899205
 21
152.804344
 31
0.0
  0
SOLID
  5
255
100
AcDbEntity
  8
DIM_TEXT
100
AcDbTrace
 10
116.340155
 20
140.271976
 30
0.0
 11
116.553105
 21
140.903718
 31
0.0
 12
114.551406
 22
141.226695
 32
0.0
 13
114.551406
 23
141.226695
 33
0.0
  0
LINE
  5
256
100
AcDbEntity
  8
DIM_TEXT
100
AcDbLine
 10
116.44663
 20
140.587847
 30
0.0
 11
130.017786
 21
136.013242
 31
0.0
  0
LINE
  5
257
100
AcDbEntity
  8
DIM_TEXT
100
AcDbLine
 10
130.017786
 20
136.013242
 30
0.0
 11
133.899205
 21
136.013242
 31
0.0
  0
SOLID
  5
258
100
AcDbEntity
  8
DIM_TEXT
100
AcDbTrace
 10
80.714678
 20
104.727526
 30
0.0
 11
80.896667
 21
105.368872
 31
0.0
 12
78.881635
 22
105.594168
 32
0.0
 13
78.881635
 23
105.594168
 33
0.0
  0
LINE
  5
259
100
AcDbEntity
  8
DIM_TEXT
100
AcDbLine
 10
80.805672
 20
105.048199
 30
0.0
 11
130.008089
 21
91.086419
 31
0.0
  0
LINE
  5
25A
100
AcDbEntity
  8
DIM_TEXT
100
AcDbLine
 10
130.008089
 20
91.086419
 30
0.0
 11
133.990261
 21
91.086419
 31
0.0
  0
SOLID
  5
25B
100
AcDbEntity
  8
DIM_TEXT
100
AcDbTrace
 10
58.546931
 20
133.891176
 30
0.0
 11
59.188796
 21
133.711025
 31
0.0
 12
59.408314
 22
135.726695
 32
0.0
 13
59.408314
 23
135.726695
 33
0.0
  0
LINE
  5
25C
100
AcDbEntity
  8
DIM_TEXT
100
AcDbLine
 10
58.867864
 20
133.8011
 30
0.0
 11
54.34435
 21
117.68408
 31
0.0
  0
LINE
  5
25D
100
AcDbEntity
  8
DIM_TEXT
100
AcDbLine
 10
54.34435
 20
117.68408
 30
0.0
 11
55.987235
 21
117.68408
 31
0.0
  0
LWPOLYLINE
  5
25E
100
AcDbEntity
  8
DIM_TEXT
100
AcDbPolyline
 90
       16
 70
     1
 43
0.0
 10
57.845874
 20
66.462498
 42
0.171769
 10
58.280865
 20
66.065643
 42
0.104717
 10
59.212137
 20
65.885869
 42
0.066128
 10
60.22509
 20
66.039004
 42
0.05227
 10
61.423583
 20
66.526823
 42
0.05227
 10
62.494863
 20
67.252571
 42
0.066128
 10
63.184777
 20
68.009898
 42
0.104717
 10
63.552479
 20
68.884186
 42
0.171769
 10
63.464035
 20
69.466329
 42
0.171769
 10
63.029044
 20
69.863184
 42
0.104717
 10
62.097772
 20
70.042958
 42
0.066128
 10
61.084819
 20
69.889823
 42
0.05227
 10
59.886326
 20
69.402004
 42
0.05227
 10
58.815046
 20
68.676256
 42
0.066128
 10
58.125132
 20
67.918929
 42
0.104717
 10
57.75743
 20
67.044641
 42
0.171769
  0
LWPOLYLINE
  5
270
100
AcDbEntity
  8
DIM_TEXT
100
AcDbPolyline
 90
        3
 70
     0
 43
0.0
 10
61.551406
 20
66.597109
 10
78.709877
 20
37.246609
 10
82.133419
 20
37.246609
  0
SOLID
  5
275
100
AcDbEntity
  8
DIM_TEXT
100
AcDbTrace
 10
97.67964
 20
163.839966
 30
0.0
 11
97.222806
 21
163.354428
 31
0.0
 12
98.907837
 22
162.226695
 32
0.0
 13
98.907837
 23
162.226695
 33
0.0
  0
LINE
  5
276
100
AcDbEntity
  8
DIM_TEXT
100
AcDbLine
 10
97.451223
 20
163.597197
 30
0.0
 11
87.311263
 21
173.137713
 31
0.0
  0
LINE
  5
277
100
AcDbEntity
  8
DIM_TEXT
100
AcDbLine
 10
87.311263
 20
173.137713
 30
0.0
 11
83.420307
 21
173.137713
 31
0.0
  0
SOLID
  5
278
100
AcDbEntity
  8
DIM_TEXT
100
AcDbTrace
 10
114.579624
 20
43.705421
 30
0.0
 11
114.317861
 21
44.318547
 31
0.0
 12
112.609362
 22
43.226695
 32
0.0
 13
112.609362
 23
43.226695
 33
0.0
  0
LINE
  5
279
100
AcDbEntity
  8
DIM_TEXT
100
AcDbLine
 10
114.448742
 20
44.011984
 30
0.0
 11
129.98801
 21
50.646186
 31
0.0
  0
LINE
  5
27A
100
AcDbEntity
  8
DIM_TEXT
100
AcDbLine
 10
129.98801
 20
50.646186
 30
0.0
 11
133.18724
 21
50.646186
 31
0.0
  0
ENDSEC
  0
SECTION
  2
OBJECTS
  0
DICTIONARY
  5
C
100
AcDbDictionary
  3
ACAD_GROUP
350
D
  3
ACAD_MLINESTYLE
350
1A
  3
ACDBVARIABLEDICTIONARY
350
2C
  0
DICTIONARY
  5
D
102
{ACAD_REACTORS
330
C
102
}
100
AcDbDictionary
  0
DICTIONARY
  5
1A
102
{ACAD_REACTORS
330
C
102
}
100
AcDbDictionary
  3
STANDARD
350
1B
  0
DICTIONARY
  5
2C
102
{ACAD_REACTORS
330
C
102
}
100
AcDbDictionary
  3
DIMADEC
350
2D
  0
MLINESTYLE
  5
1B
102
{ACAD_REACTORS
330
1A
102
}
100
AcDbMlineStyle
  2
STANDARD
 70
     0
  3

 62
   256
 51
90.0
 52
90.0
 71
     2
 49
0.5
 62
   256
  6
BYLAYER
 49
-0.5
 62
   256
  6
BYLAYER
  0
DICTIONARYVAR
  5
2D
102
{ACAD_REACTORS
330
2C
102
}
100
DictionaryVariables
280
     0
  1
0
  0
ENDSEC
  0
EOF
