  0
SECTION
  2
HEADER
  9
$ACADVER
  1
AC1014
  9
$ACADMAINTVER
 70
     8
  9
$DWGCODEPAGE
  3
ANSI_1252
  9
$INSBASE
 10
0.0
 20
0.0
 30
0.0
  9
$EXTMIN
 10
6.273462
 20
5.0518
 30
0.0
  9
$EXTMAX
 10
76.154415
 20
74.94114
 30
96.0
  9
$LIMMIN
 10
0.0
 20
0.0
  9
$LIMMAX
 10
85.0
 20
110.0
  9
$ORTHOMODE
 70
     1
  9
$REGENMODE
 70
     1
  9
$FILLMODE
 70
     1
  9
$QTEXTMODE
 70
     0
  9
$MIRRTEXT
 70
     1
  9
$DRAGMODE
 70
     2
  9
$LTSCALE
 40
1.0
  9
$OSMODE
 70
    37
  9
$ATTMODE
 70
     1
  9
$TEXTSIZE
 40
0.2
  9
$TRACEWID
 40
0.05
  9
$TEXTSTYLE
  7
STANDARD
  9
$CLAYER
  8
0
  9
$CELTYPE
  6
BYLAYER
  9
$CECOLOR
 62
   256
  9
$CELTSCALE
 40
1.0
  9
$DELOBJ
 70
     1
  9
$DISPSILH
 70
     0
  9
$DIMSCALE
 40
1.0
  9
$DIMASZ
 40
0.18
  9
$DIMEXO
 40
0.0625
  9
$DIMDLI
 40
0.38
  9
$DIMRND
 40
0.0
  9
$DIMDLE
 40
0.0
  9
$DIMEXE
 40
0.18
  9
$DIMTP
 40
0.0
  9
$DIMTM
 40
0.0
  9
$DIMTXT
 40
0.18
  9
$DIMCEN
 40
0.09
  9
$DIMTSZ
 40
0.0
  9
$DIMTOL
 70
     0
  9
$DIMLIM
 70
     0
  9
$DIMTIH
 70
     1
  9
$DIMTOH
 70
     1
  9
$DIMSE1
 70
     0
  9
$DIMSE2
 70
     0
  9
$DIMTAD
 70
     0
  9
$DIMZIN
 70
     0
  9
$DIMBLK
  1

  9
$DIMASO
 70
     1
  9
$DIMSHO
 70
     1
  9
$DIMPOST
  1

  9
$DIMAPOST
  1

  9
$DIMALT
 70
     0
  9
$DIMALTD
 70
     2
  9
$DIMALTF
 40
25.4
  9
$DIMLFAC
 40
1.0
  9
$DIMTOFL
 70
     0
  9
$DIMTVP
 40
0.0
  9
$DIMTIX
 70
     0
  9
$DIMSOXD
 70
     0
  9
$DIMSAH
 70
     0
  9
$DIMBLK1
  1

  9
$DIMBLK2
  1

  9
$DIMSTYLE
  2
STANDARD
  9
$DIMCLRD
 70
     0
  9
$DIMCLRE
 70
     0
  9
$DIMCLRT
 70
     0
  9
$DIMTFAC
 40
1.0
  9
$DIMGAP
 40
0.09
  9
$DIMJUST
 70
     0
  9
$DIMSD1
 70
     0
  9
$DIMSD2
 70
     0
  9
$DIMTOLJ
 70
     1
  9
$DIMTZIN
 70
     0
  9
$DIMALTZ
 70
     0
  9
$DIMALTTZ
 70
     0
  9
$DIMFIT
 70
     5
  9
$DIMUPT
 70
     0
  9
$DIMUNIT
 70
     4
  9
$DIMDEC
 70
     4
  9
$DIMTDEC
 70
     4
  9
$DIMALTU
 70
     4
  9
$DIMALTTD
 70
     2
  9
$DIMTXSTY
  7
STANDARD
  9
$DIMAUNIT
 70
     2
  9
$LUNITS
 70
     4
  9
$LUPREC
 70
     4
  9
$SKETCHINC
 40
0.1
  9
$FILLETRAD
 40
0.0
  9
$AUNITS
 70
     2
  9
$AUPREC
 70
     0
  9
$MENU
  1
acad
  9
$ELEVATION
 40
0.0
  9
$PELEVATION
 40
0.0
  9
$THICKNESS
 40
0.0
  9
$LIMCHECK
 70
     0
  9
$BLIPMODE
 70
     1
  9
$CHAMFERA
 40
0.0
  9
$CHAMFERB
 40
0.0
  9
$CHAMFERC
 40
0.0
  9
$CHAMFERD
 40
0.0
  9
$SKPOLY
 70
     0
  9
$TDCREATE
 40
2451165.717465509
  9
$TDUPDATE
 40
2452237.649741203
  9
$TDINDWG
 40
0.1145099537
  9
$TDUSRTIMER
 40
0.1145099537
  9
$USRTIMER
 70
     1
  9
$ANGBASE
 50
0.0
  9
$ANGDIR
 70
     0
  9
$PDMODE
 70
     0
  9
$PDSIZE
 40
0.0
  9
$PLINEWID
 40
0.0
  9
$COORDS
 70
     1
  9
$SPLFRAME
 70
     0
  9
$SPLINETYPE
 70
     6
  9
$SPLINESEGS
 70
     8
  9
$ATTDIA
 70
     0
  9
$ATTREQ
 70
     1
  9
$HANDLING
 70
     1
  9
$HANDSEED
  5
AB6
  9
$SURFTAB1
 70
     6
  9
$SURFTAB2
 70
     6
  9
$SURFTYPE
 70
     6
  9
$SURFU
 70
     6
  9
$SURFV
 70
     6
  9
$UCSNAME
  2

  9
$UCSORG
 10
0.0
 20
0.0
 30
0.0
  9
$UCSXDIR
 10
1.0
 20
0.0
 30
0.0
  9
$UCSYDIR
 10
0.0
 20
1.0
 30
0.0
  9
$PUCSNAME
  2

  9
$PUCSORG
 10
0.0
 20
0.0
 30
0.0
  9
$PUCSXDIR
 10
1.0
 20
0.0
 30
0.0
  9
$PUCSYDIR
 10
0.0
 20
1.0
 30
0.0
  9
$USERI1
 70
     0
  9
$USERI2
 70
     0
  9
$USERI3
 70
     0
  9
$USERI4
 70
     0
  9
$USERI5
 70
     0
  9
$USERR1
 40
0.0
  9
$USERR2
 40
0.0
  9
$USERR3
 40
0.0
  9
$USERR4
 40
0.0
  9
$USERR5
 40
0.0
  9
$WORLDVIEW
 70
     1
  9
$SHADEDGE
 70
     3
  9
$SHADEDIF
 70
    70
  9
$TILEMODE
 70
     1
  9
$MAXACTVP
 70
    16
  9
$PINSBASE
 10
0.0
 20
0.0
 30
0.0
  9
$PLIMCHECK
 70
     0
  9
$PEXTMIN
 10
1.000000E+20
 20
1.000000E+20
 30
1.000000E+20
  9
$PEXTMAX
 10
-1.000000E+20
 20
-1.000000E+20
 30
-1.000000E+20
  9
$PLIMMIN
 10
0.0
 20
0.0
  9
$PLIMMAX
 10
12.0
 20
9.0
  9
$UNITMODE
 70
     0
  9
$VISRETAIN
 70
     0
  9
$PLINEGEN
 70
     0
  9
$PSLTSCALE
 70
     1
  9
$TREEDEPTH
 70
  3020
  9
$PICKSTYLE
 70
     1
  9
$CMLSTYLE
  2
STANDARD
  9
$CMLJUST
 70
     0
  9
$CMLSCALE
 40
1.0
  9
$PROXYGRAPHICS
 70
     1
  9
$MEASUREMENT
 70
     0
  0
ENDSEC
  0
SECTION
  2
CLASSES
  0
CLASS
  1
DICTIONARYVAR
  2
AcDbDictionaryVar
  3
"AutoCAD"
 90
        0
280
     0
281
     0
  0
ENDSEC
  0
SECTION
  2
TABLES
  0
TABLE
  2
VPORT
  5
8
100
AcDbSymbolTable
 70
     1
  0
VPORT
  5
AAF
100
AcDbSymbolTableRecord
100
AcDbViewportTableRecord
  2
*ACTIVE
 70
     0
 10
0.0
 20
0.0
 11
1.0
 21
1.0
 12
40.120886
 22
40.610535
 13
0.0
 23
0.0
 14
1.0
 24
1.0
 15
1.0
 25
1.0
 16
0.0
 26
0.0
 36
1.0
 17
0.0
 27
0.0
 37
0.0
 40
74.894699
 41
1.474388
 42
50.0
 43
0.0
 44
0.0
 50
0.0
 51
0.0
 71
     0
 72
   100
 73
     1
 74
     1
 75
     0
 76
     0
 77
     0
 78
     0
  0
ENDTAB
  0
TABLE
  2
LTYPE
  5
5
100
AcDbSymbolTable
 70
     1
  0
LTYPE
  5
11
100
AcDbSymbolTableRecord
100
AcDbLinetypeTableRecord
  2
BYBLOCK
 70
     0
  3

 72
    65
 73
     0
 40
0.0
  0
LTYPE
  5
12
100
AcDbSymbolTableRecord
100
AcDbLinetypeTableRecord
  2
BYLAYER
 70
     0
  3

 72
    65
 73
     0
 40
0.0
  0
LTYPE
  5
13
100
AcDbSymbolTableRecord
100
AcDbLinetypeTableRecord
  2
CONTINUOUS
 70
     0
  3
Solid line
 72
    65
 73
     0
 40
0.0
  0
ENDTAB
  0
TABLE
  2
LAYER
  5
2
100
AcDbSymbolTable
 70
     5
  0
LAYER
  5
E
100
AcDbSymbolTableRecord
100
AcDbLayerTableRecord
  2
0
 70
     0
 62
     7
  6
CONTINUOUS
  0
LAYER
  5
22
100
AcDbSymbolTableRecord
100
AcDbLayerTableRecord
  2
DRAWING
 70
     0
 62
     7
  6
CONTINUOUS
  0
LAYER
  5
23
100
AcDbSymbolTableRecord
100
AcDbLayerTableRecord
  2
HATCH
 70
     0
 62
     3
  6
CONTINUOUS
  0
LAYER
  5
24
100
AcDbSymbolTableRecord
100
AcDbLayerTableRecord
  2
DIM_TEXT
 70
     0
 62
     6
  6
CONTINUOUS
  0
LAYER
  5
3C4
100
AcDbSymbolTableRecord
100
AcDbLayerTableRecord
  2
BORDER
 70
     0
 62
    14
  6
CONTINUOUS
  0
ENDTAB
  0
TABLE
  2
STYLE
  5
3
100
AcDbSymbolTable
 70
     4
  0
STYLE
  5
F
100
AcDbSymbolTableRecord
100
AcDbTextStyleTableRecord
  2
STANDARD
 70
     0
 40
0.0
 41
1.0
 50
0.0
 71
     0
 42
0.2
  3
txt
  4

  0
STYLE
  5
1C
100
AcDbSymbolTableRecord
100
AcDbTextStyleTableRecord
  2
INFO
 70
     0
 40
0.0
 41
1.0
 50
15.0
 71
     0
 42
1.08
  3
C:\ACADWIN\FONTS\ROMANS.SHX
  4

  0
STYLE
  5
1D
100
AcDbSymbolTableRecord
100
AcDbTextStyleTableRecord
  2
TITLE
 70
     0
 40
0.0
 41
1.0
 50
0.0
 71
     0
 42
2.8
  3
C:\ACADWIN\FONTS\ROMANC.SHX
  4

  0
STYLE
  5
3C5
100
AcDbSymbolTableRecord
100
AcDbTextStyleTableRecord
  2
ROMAN
 70
     0
 40
0.0
 41
1.0
 50
0.0
 71
     0
 42
2.25
  3
romans.shx
  4

  0
ENDTAB
  0
TABLE
  2
VIEW
  5
6
100
AcDbSymbolTable
 70
     0
  0
ENDTAB
  0
TABLE
  2
UCS
  5
7
100
AcDbSymbolTable
 70
     0
  0
ENDTAB
  0
TABLE
  2
APPID
  5
9
100
AcDbSymbolTable
 70
     2
  0
APPID
  5
10
100
AcDbSymbolTableRecord
100
AcDbRegAppTableRecord
  2
ACAD
 70
     0
  0
APPID
  5
21
100
AcDbSymbolTableRecord
100
AcDbRegAppTableRecord
  2
ZIMM
 70
     0
  0
ENDTAB
  0
TABLE
  2
DIMSTYLE
  5
A
100
AcDbSymbolTable
 70
     1
  0
DIMSTYLE
105
3BA
100
AcDbSymbolTableRecord
100
AcDbDimStyleTableRecord
  2
STANDARD
 70
     0
  3

  4

  5

  6

  7

 40
1.0
 41
0.18
 42
0.0625
 43
0.38
 44
0.18
 45
0.0
 46
0.0
 47
0.0
 48
0.0
140
0.18
141
0.09
142
0.0
143
25.4
144
1.0
145
0.0
146
1.0
147
0.09
 71
     0
 72
     0
 73
     1
 74
     1
 75
     0
 76
     0
 77
     0
 78
     0
170
     0
171
     2
172
     0
173
     0
174
     0
175
     0
176
     0
177
     0
178
     0
270
     2
271
     4
272
     4
273
     2
274
     2
340
F
275
     0
280
     0
281
     0
282
     0
283
     1
284
     0
285
     0
286
     0
287
     3
288
     0
  0
ENDTAB
  0
TABLE
  2
BLOCK_RECORD
  5
1
100
AcDbSymbolTable
 70
     2
  0
BLOCK_RECORD
  5
17
100
AcDbSymbolTableRecord
100
AcDbBlockTableRecord
  2
*MODEL_SPACE
  0
BLOCK_RECORD
  5
14
100
AcDbSymbolTableRecord
100
AcDbBlockTableRecord
  2
*PAPER_SPACE
  0
BLOCK_RECORD
  5
3BE
100
AcDbSymbolTableRecord
100
AcDbBlockTableRecord
  2
_CLOSEDBLANK
  0
BLOCK_RECORD
  5
3C6
100
AcDbSymbolTableRecord
100
AcDbBlockTableRecord
  2
A$C47F733A3
  0
ENDTAB
  0
ENDSEC
  0
SECTION
  2
BLOCKS
  0
BLOCK
  5
27
100
AcDbEntity
  8
0
100
AcDbBlockBegin
  2
*MODEL_SPACE
 70
     0
 10
0.0
 20
0.0
 30
0.0
  3
*MODEL_SPACE
  1

  0
ENDBLK
  5
28
100
AcDbEntity
  8
0
100
AcDbBlockEnd
  0
BLOCK
  5
25
100
AcDbEntity
 67
     1
  8
0
100
AcDbBlockBegin
  2
*PAPER_SPACE
 70
     0
 10
0.0
 20
0.0
 30
0.0
  3
*PAPER_SPACE
  1

  0
ENDBLK
  5
26
100
AcDbEntity
 67
     1
  8
0
100
AcDbBlockEnd
  0
BLOCK
  5
3C2
100
AcDbEntity
  8
0
100
AcDbBlockBegin
  2
_CLOSEDBLANK
 70
     0
 10
0.0
 20
0.0
 30
0.0
  3
_CLOSEDBLANK
  1

  0
LINE
  5
3BF
100
AcDbEntity
  8
0
  6
BYBLOCK
 62
     0
100
AcDbLine
 10
-1.0
 20
0.166667
 30
0.0
 11
0.0
 21
0.0
 31
0.0
  0
LINE
  5
3C0
100
AcDbEntity
  8
0
  6
BYBLOCK
 62
     0
100
AcDbLine
 10
0.0
 20
0.0
 30
0.0
 11
-1.0
 21
-0.166667
 31
0.0
  0
LINE
  5
3C1
100
AcDbEntity
  8
0
  6
BYBLOCK
 62
     0
100
AcDbLine
 10
-1.0
 20
0.166667
 30
0.0
 11
-1.0
 21
-0.166667
 31
0.0
  0
ENDBLK
  5
3C3
100
AcDbEntity
  8
0
100
AcDbBlockEnd
  0
BLOCK
  5
737
100
AcDbEntity
  8
0
100
AcDbBlockBegin
  2
A$C47F733A3
 70
     0
 10
0.0
 20
0.0
 30
0.0
  3
A$C47F733A3
  1

  0
LEADER
  5
3C7
100
AcDbEntity
  8
0
  6
CONTINUOUS
100
AcDbLeader
  3
STANDARD
 76
     3
 10
26.312594
 20
23.037734
 30
0.0
 10
35.237967
 20
17.471432
 30
0.0
 10
37.027236
 20
17.471432
 30
0.0
 77
   256
211
-1.0
221
0.0
231
0.0
1001
ACAD
1000
DSTYLE
1002
{
1070
    78
1070
     1
1070
   140
1040
6.0
1070
    73
1070
     0
1070
    77
1070
     1
1070
   173
1070
     1
1070
    42
1040
6.0
1070
    44
1040
0.0
1070
    43
1040
24.0
1070
   141
1040
3.0
1070
     7
1000
_CLOSEDBLANK
1070
     6
1000
_CLOSEDBLANK
1070
    41
1040
1.5
1002
}
  0
LEADER
  5
3C8
100
AcDbEntity
  8
0
  6
CONTINUOUS
100
AcDbLeader
  3
STANDARD
 76
     3
 10
26.409637
 20
13.358898
 30
0.0
 10
35.402125
 20
7.945093
 30
0.0
 10
37.191393
 20
7.945093
 30
0.0
 77
   256
211
-1.0
221
0.0
231
0.0
1001
ACAD
1000
DSTYLE
1002
{
1070
    78
1070
     1
1070
   140
1040
6.0
1070
    73
1070
     0
1070
    77
1070
     1
1070
   173
1070
     1
1070
    42
1040
6.0
1070
    44
1040
0.0
1070
    43
1040
24.0
1070
   141
1040
3.0
1070
     7
1000
_CLOSEDBLANK
1070
     6
1000
_CLOSEDBLANK
1070
    41
1040
1.5
1002
}
  0
LEADER
  5
3C9
100
AcDbEntity
  8
0
  6
CONTINUOUS
100
AcDbLeader
  3
STANDARD
 76
     3
 10
28.671193
 20
43.14138
 30
0.0
 10
36.119623
 20
33.994248
 30
0.0
 10
37.760803
 20
33.994248
 30
0.0
 77
   256
1001
ACAD
1000
DSTYLE
1002
{
1070
    78
1070
     1
1070
   140
1040
6.0
1070
    73
1070
     0
1070
    77
1070
     1
1070
   173
1070
     1
1070
    42
1040
6.0
1070
    44
1040
0.0
1070
    43
1040
24.0
1070
   141
1040
3.0
1070
     7
1000
_CLOSEDBLANK
1070
     6
1000
_CLOSEDBLANK
1070
    41
1040
1.5
1002
}
  0
LEADER
  5
3CA
100
AcDbEntity
  8
0
  6
CONTINUOUS
100
AcDbLeader
  3
STANDARD
 76
     3
 10
27.976848
 20
38.473189
 30
0.0
 10
35.425278
 20
29.326057
 30
0.0
 10
37.066458
 20
29.326057
 30
0.0
 77
   256
1001
ACAD
1000
DSTYLE
1002
{
1070
    78
1070
     1
1070
   140
1040
6.0
1070
    73
1070
     0
1070
    77
1070
     1
1070
   173
1070
     1
1070
    42
1040
6.0
1070
    44
1040
0.0
1070
    43
1040
24.0
1070
   141
1040
3.0
1070
     7
1000
_CLOSEDBLANK
1070
     6
1000
_CLOSEDBLANK
1070
    41
1040
1.5
1002
}
  0
LINE
  5
3CB
100
AcDbEntity
  8
BORDER
  6
CONTINUOUS
 62
    14
100
AcDbLine
 39
90.0
 10
23.601489
 20
39.985707
 30
0.0
 11
59.899099
 21
40.091507
 31
0.0
  0
LINE
  5
3CC
100
AcDbEntity
  8
BORDER
  6
CONTINUOUS
 62
    14
100
AcDbLine
 10
31.882009
 20
54.818307
 30
0.0
 11
35.436699
 21
51.938507
 31
0.0
  0
TEXT
  5
3CD
100
AcDbEntity
  8
BORDER
  6
CONTINUOUS
 62
    14
100
AcDbText
 10
20.090999
 20
57.637407
 30
0.0
 40
1.125
  1
PREFAB. TRUSSES
  7
ROMAN
100
AcDbText
  0
LINE
  5
3CE
100
AcDbEntity
  8
BORDER
  6
CONTINUOUS
 62
    14
100
AcDbLine
 39
90.0
 10
59.796559
 20
58.760207
 30
0.0
 11
5.207209
 21
40.563707
 31
0.0
  0
LINE
  5
3CF
100
AcDbEntity
  8
BORDER
  6
CONTINUOUS
 62
    14
100
AcDbLine
 39
90.0
 10
59.899589
 20
59.165107
 30
0.0
 11
5.207209
 21
40.934307
 31
0.0
  0
LINE
  5
3D0
100
AcDbEntity
  8
BORDER
  6
CONTINUOUS
 62
    14
100
AcDbLine
 39
90.0
 10
59.899589
 20
58.424107
 30
0.0
 11
5.207209
 21
40.193107
 31
0.0
  0
LINE
  5
3D1
100
AcDbEntity
  8
BORDER
  6
CONTINUOUS
 62
    14
100
AcDbLine
 39
90.0
 10
59.899589
 20
52.412207
 30
0.0
 11
6.613699
 21
34.650107
 31
0.0
  0
LINE
  5
3D2
100
AcDbEntity
  8
BORDER
  6
CONTINUOUS
 62
    15
100
AcDbLine
 39
96.0
 10
26.470149
 20
37.9831
 30
0.0
 11
26.470149
 21
1.949
 31
0.0
  0
LINE
  5
3D3
100
AcDbEntity
  8
BORDER
  6
CONTINUOUS
 62
     3
100
AcDbLine
 39
96.0
 10
29.582939
 20
23.4718
 30
0.0
 11
29.582939
 21
38.4719
 31
0.0
  0
LINE
  5
3D4
100
AcDbEntity
  8
BORDER
  6
CONTINUOUS
 62
     3
100
AcDbLine
 39
96.0
 10
23.332939
 20
38.4719
 30
0.0
 11
23.332939
 21
23.4718
 31
0.0
  0
LINE
  5
3D5
100
AcDbEntity
  8
BORDER
  6
CONTINUOUS
 62
     3
100
AcDbLine
 39
96.0
 10
21.457939
 20
38.4719
 30
0.0
 11
21.457939
 21
23.4718
 31
0.0
  0
LINE
  5
3D6
100
AcDbEntity
  8
BORDER
  6
CONTINUOUS
 62
     3
100
AcDbLine
 39
96.0
 10
31.457939
 20
23.4718
 30
0.0
 11
31.457939
 21
38.4719
 31
0.0
  0
LINE
  5
3D7
100
AcDbEntity
  8
BORDER
  6
CONTINUOUS
 62
    15
100
AcDbLine
 39
89.99775
 10
26.773859
 20
40.502407
 30
0.0
 11
26.773859
 21
30.732007
 31
0.0
  0
ARC
  5
3D8
100
AcDbEntity
  8
BORDER
  6
CONTINUOUS
 62
    15
100
AcDbCircle
 39
89.99775
 10
27.828549
 20
31.083607
 30
0.0
 40
0.351554
100
AcDbArc
 50
180.0
 51
270.0
  0
CIRCLE
  5
3D9
100
AcDbEntity
  8
BORDER
  6
CONTINUOUS
 62
    15
100
AcDbCircle
 39
96.0
 10
26.006519
 20
23.046259
 30
0.0
 40
0.375
  0
CIRCLE
  5
3DA
100
AcDbEntity
  8
BORDER
  6
CONTINUOUS
 62
    15
100
AcDbCircle
 39
96.0
 10
26.006519
 20
8.162559
 30
0.0
 40
0.375
  0
LINE
  5
3DB
100
AcDbEntity
  8
BORDER
  6
CONTINUOUS
 62
    15
100
AcDbLine
 39
96.0
 10
27.267509
 20
0.0
 30
0.0
 11
28.242119
 21
1.949
 31
0.0
  0
LINE
  5
3DC
100
AcDbEntity
  8
BORDER
  6
CONTINUOUS
 62
    15
100
AcDbLine
 39
96.0
 10
25.672779
 20
3.8981
 30
0.0
 11
27.267509
 21
0.0
 31
0.0
  0
LINE
  5
3DD
100
AcDbEntity
  8
BORDER
  6
CONTINUOUS
 62
    15
100
AcDbLine
 39
96.0
 10
24.609799
 20
1.949
 30
0.0
 11
25.672779
 21
3.8981
 31
0.0
  0
LINE
  5
3DE
100
AcDbEntity
  8
BORDER
  6
CONTINUOUS
 62
    15
100
AcDbLine
 39
96.0
 10
28.242119
 20
1.949
 30
0.0
 11
32.317309
 21
1.949
 31
0.0
  0
LINE
  5
3DF
100
AcDbEntity
  8
BORDER
  6
CONTINUOUS
 62
    15
100
AcDbLine
 39
96.0
 10
20.357349
 20
1.949
 30
0.0
 11
24.609799
 21
1.949
 31
0.0
  0
LINE
  5
3E0
100
AcDbEntity
  8
BORDER
  6
CONTINUOUS
 62
     2
100
AcDbLine
 39
96.0
 10
31.279719
 20
2.2424
 30
0.0
 11
31.279719
 21
2.2424
 31
0.0
  0
LINE
  5
3E1
100
AcDbEntity
  8
BORDER
  6
CONTINUOUS
 62
     2
100
AcDbLine
 39
96.0
 10
30.810969
 20
2.2424
 30
0.0
 11
30.810969
 21
2.2424
 31
0.0
  0
LINE
  5
3E2
100
AcDbEntity
  8
BORDER
  6
CONTINUOUS
 62
     2
100
AcDbLine
 39
96.0
 10
30.342219
 20
2.2424
 30
0.0
 11
30.342219
 21
2.2424
 31
0.0
  0
LINE
  5
3E3
100
AcDbEntity
  8
BORDER
  6
CONTINUOUS
 62
     2
100
AcDbLine
 39
96.0
 10
29.873469
 20
2.2424
 30
0.0
 11
29.873469
 21
2.2424
 31
0.0
  0
LINE
  5
3E4
100
AcDbEntity
  8
BORDER
  6
CONTINUOUS
 62
     2
100
AcDbLine
 39
96.0
 10
31.045339
 20
2.7111
 30
0.0
 11
31.045339
 21
2.7111
 31
0.0
  0
LINE
  5
3E5
100
AcDbEntity
  8
BORDER
  6
CONTINUOUS
 62
     2
100
AcDbLine
 39
96.0
 10
30.576589
 20
2.7111
 30
0.0
 11
30.576589
 21
2.7111
 31
0.0
  0
LINE
  5
3E6
100
AcDbEntity
  8
BORDER
  6
CONTINUOUS
 62
     2
100
AcDbLine
 39
96.0
 10
30.107839
 20
2.7111
 30
0.0
 11
30.107839
 21
2.7111
 31
0.0
  0
LINE
  5
3E7
100
AcDbEntity
  8
BORDER
  6
CONTINUOUS
 62
     2
100
AcDbLine
 39
96.0
 10
29.639089
 20
2.7111
 30
0.0
 11
29.639089
 21
2.7111
 31
0.0
  0
LINE
  5
3E8
100
AcDbEntity
  8
BORDER
  6
CONTINUOUS
 62
     2
100
AcDbLine
 39
96.0
 10
31.279719
 20
3.1799
 30
0.0
 11
31.279719
 21
3.1799
 31
0.0
  0
LINE
  5
3E9
100
AcDbEntity
  8
BORDER
  6
CONTINUOUS
 62
     2
100
AcDbLine
 39
96.0
 10
30.810969
 20
3.1799
 30
0.0
 11
30.810969
 21
3.1799
 31
0.0
  0
LINE
  5
3EA
100
AcDbEntity
  8
BORDER
  6
CONTINUOUS
 62
     2
100
AcDbLine
 39
96.0
 10
30.342219
 20
3.1799
 30
0.0
 11
30.342219
 21
3.1799
 31
0.0
  0
LINE
  5
3EB
100
AcDbEntity
  8
BORDER
  6
CONTINUOUS
 62
     2
100
AcDbLine
 39
96.0
 10
29.873469
 20
3.1799
 30
0.0
 11
29.873469
 21
3.1799
 31
0.0
  0
LINE
  5
3EC
100
AcDbEntity
  8
BORDER
  6
CONTINUOUS
 62
     2
100
AcDbLine
 39
96.0
 10
31.045339
 20
3.6486
 30
0.0
 11
31.045339
 21
3.6486
 31
0.0
  0
LINE
  5
3ED
100
AcDbEntity
  8
BORDER
  6
CONTINUOUS
 62
     2
100
AcDbLine
 39
96.0
 10
30.576589
 20
3.6486
 30
0.0
 11
30.576589
 21
3.6486
 31
0.0
  0
LINE
  5
3EE
100
AcDbEntity
  8
BORDER
  6
CONTINUOUS
 62
     2
100
AcDbLine
 39
96.0
 10
30.107839
 20
3.6486
 30
0.0
 11
30.107839
 21
3.6486
 31
0.0
  0
LINE
  5
3EF
100
AcDbEntity
  8
BORDER
  6
CONTINUOUS
 62
     2
100
AcDbLine
 39
96.0
 10
29.639089
 20
3.6486
 30
0.0
 11
29.639089
 21
3.6486
 31
0.0
  0
LINE
  5
3F0
100
AcDbEntity
  8
BORDER
  6
CONTINUOUS
 62
     2
100
AcDbLine
 39
96.0
 10
31.279719
 20
4.1174
 30
0.0
 11
31.279719
 21
4.1174
 31
0.0
  0
LINE
  5
3F1
100
AcDbEntity
  8
BORDER
  6
CONTINUOUS
 62
     2
100
AcDbLine
 39
96.0
 10
30.810969
 20
4.1174
 30
0.0
 11
30.810969
 21
4.1174
 31
0.0
  0
LINE
  5
3F2
100
AcDbEntity
  8
BORDER
  6
CONTINUOUS
 62
     2
100
AcDbLine
 39
96.0
 10
30.342219
 20
4.1174
 30
0.0
 11
30.342219
 21
4.1174
 31
0.0
  0
LINE
  5
3F3
100
AcDbEntity
  8
BORDER
  6
CONTINUOUS
 62
     2
100
AcDbLine
 39
96.0
 10
29.873469
 20
4.1174
 30
0.0
 11
29.873469
 21
4.1174
 31
0.0
  0
LINE
  5
3F4
100
AcDbEntity
  8
BORDER
  6
CONTINUOUS
 62
     2
100
AcDbLine
 39
96.0
 10
31.045339
 20
4.5861
 30
0.0
 11
31.045339
 21
4.5861
 31
0.0
  0
LINE
  5
3F5
100
AcDbEntity
  8
BORDER
  6
CONTINUOUS
 62
     2
100
AcDbLine
 39
96.0
 10
30.576589
 20
4.5861
 30
0.0
 11
30.576589
 21
4.5861
 31
0.0
  0
LINE
  5
3F6
100
AcDbEntity
  8
BORDER
  6
CONTINUOUS
 62
     2
100
AcDbLine
 39
96.0
 10
30.107839
 20
4.5861
 30
0.0
 11
30.107839
 21
4.5861
 31
0.0
  0
LINE
  5
3F7
100
AcDbEntity
  8
BORDER
  6
CONTINUOUS
 62
     2
100
AcDbLine
 39
96.0
 10
29.639089
 20
4.5861
 30
0.0
 11
29.639089
 21
4.5861
 31
0.0
  0
LINE
  5
3F8
100
AcDbEntity
  8
BORDER
  6
CONTINUOUS
 62
     2
100
AcDbLine
 39
96.0
 10
31.279719
 20
5.0549
 30
0.0
 11
31.279719
 21
5.0549
 31
0.0
  0
LINE
  5
3F9
100
AcDbEntity
  8
BORDER
  6
CONTINUOUS
 62
     2
100
AcDbLine
 39
96.0
 10
30.810969
 20
5.0549
 30
0.0
 11
30.810969
 21
5.0549
 31
0.0
  0
LINE
  5
3FA
100
AcDbEntity
  8
BORDER
  6
CONTINUOUS
 62
     2
100
AcDbLine
 39
96.0
 10
30.342219
 20
5.0549
 30
0.0
 11
30.342219
 21
5.0549
 31
0.0
  0
LINE
  5
3FB
100
AcDbEntity
  8
BORDER
  6
CONTINUOUS
 62
     2
100
AcDbLine
 39
96.0
 10
29.873469
 20
5.0549
 30
0.0
 11
29.873469
 21
5.0549
 31
0.0
  0
LINE
  5
3FC
100
AcDbEntity
  8
BORDER
  6
CONTINUOUS
 62
     2
100
AcDbLine
 39
96.0
 10
31.045339
 20
5.5236
 30
0.0
 11
31.045339
 21
5.5236
 31
0.0
  0
LINE
  5
3FD
100
AcDbEntity
  8
BORDER
  6
CONTINUOUS
 62
     2
100
AcDbLine
 39
96.0
 10
30.576589
 20
5.5236
 30
0.0
 11
30.576589
 21
5.5236
 31
0.0
  0
LINE
  5
3FE
100
AcDbEntity
  8
BORDER
  6
CONTINUOUS
 62
     2
100
AcDbLine
 39
96.0
 10
30.107839
 20
5.5236
 30
0.0
 11
30.107839
 21
5.5236
 31
0.0
  0
LINE
  5
3FF
100
AcDbEntity
  8
BORDER
  6
CONTINUOUS
 62
     2
100
AcDbLine
 39
96.0
 10
29.639089
 20
5.5236
 30
0.0
 11
29.639089
 21
5.5236
 31
0.0
  0
LINE
  5
400
100
AcDbEntity
  8
BORDER
  6
CONTINUOUS
 62
     2
100
AcDbLine
 39
96.0
 10
31.279719
 20
5.9924
 30
0.0
 11
31.279719
 21
5.9924
 31
0.0
  0
LINE
  5
401
100
AcDbEntity
  8
BORDER
  6
CONTINUOUS
 62
     2
100
AcDbLine
 39
96.0
 10
30.810969
 20
5.9924
 30
0.0
 11
30.810969
 21
5.9924
 31
0.0
  0
LINE
  5
402
100
AcDbEntity
  8
BORDER
  6
CONTINUOUS
 62
     2
100
AcDbLine
 39
96.0
 10
30.342219
 20
5.9924
 30
0.0
 11
30.342219
 21
5.9924
 31
0.0
  0
LINE
  5
403
100
AcDbEntity
  8
BORDER
  6
CONTINUOUS
 62
     2
100
AcDbLine
 39
96.0
 10
29.873469
 20
5.9924
 30
0.0
 11
29.873469
 21
5.9924
 31
0.0
  0
LINE
  5
404
100
AcDbEntity
  8
BORDER
  6
CONTINUOUS
 62
     2
100
AcDbLine
 39
96.0
 10
31.045339
 20
6.4611
 30
0.0
 11
31.045339
 21
6.4611
 31
0.0
  0
LINE
  5
405
100
AcDbEntity
  8
BORDER
  6
CONTINUOUS
 62
     2
100
AcDbLine
 39
96.0
 10
30.576589
 20
6.4611
 30
0.0
 11
30.576589
 21
6.4611
 31
0.0
  0
LINE
  5
406
100
AcDbEntity
  8
BORDER
  6
CONTINUOUS
 62
     2
100
AcDbLine
 39
96.0
 10
30.107839
 20
6.4611
 30
0.0
 11
30.107839
 21
6.4611
 31
0.0
  0
LINE
  5
407
100
AcDbEntity
  8
BORDER
  6
CONTINUOUS
 62
     2
100
AcDbLine
 39
96.0
 10
29.639089
 20
6.4611
 30
0.0
 11
29.639089
 21
6.4611
 31
0.0
  0
LINE
  5
408
100
AcDbEntity
  8
BORDER
  6
CONTINUOUS
 62
     2
100
AcDbLine
 39
96.0
 10
31.279719
 20
6.9299
 30
0.0
 11
31.279719
 21
6.9299
 31
0.0
  0
LINE
  5
409
100
AcDbEntity
  8
BORDER
  6
CONTINUOUS
 62
     2
100
AcDbLine
 39
96.0
 10
30.810969
 20
6.9299
 30
0.0
 11
30.810969
 21
6.9299
 31
0.0
  0
LINE
  5
40A
100
AcDbEntity
  8
BORDER
  6
CONTINUOUS
 62
     2
100
AcDbLine
 39
96.0
 10
30.342219
 20
6.9299
 30
0.0
 11
30.342219
 21
6.9299
 31
0.0
  0
LINE
  5
40B
100
AcDbEntity
  8
BORDER
  6
CONTINUOUS
 62
     2
100
AcDbLine
 39
96.0
 10
29.873469
 20
6.9299
 30
0.0
 11
29.873469
 21
6.9299
 31
0.0
  0
LINE
  5
40C
100
AcDbEntity
  8
BORDER
  6
CONTINUOUS
 62
     2
100
AcDbLine
 39
96.0
 10
31.045339
 20
7.3986
 30
0.0
 11
31.045339
 21
7.3986
 31
0.0
  0
LINE
  5
40D
100
AcDbEntity
  8
BORDER
  6
CONTINUOUS
 62
     2
100
AcDbLine
 39
96.0
 10
30.576589
 20
7.3986
 30
0.0
 11
30.576589
 21
7.3986
 31
0.0
  0
LINE
  5
40E
100
AcDbEntity
  8
BORDER
  6
CONTINUOUS
 62
     2
100
AcDbLine
 39
96.0
 10
30.107839
 20
7.3986
 30
0.0
 11
30.107839
 21
7.3986
 31
0.0
  0
LINE
  5
40F
100
AcDbEntity
  8
BORDER
  6
CONTINUOUS
 62
     2
100
AcDbLine
 39
96.0
 10
29.639089
 20
7.3986
 30
0.0
 11
29.639089
 21
7.3986
 31
0.0
  0
LINE
  5
410
100
AcDbEntity
  8
BORDER
  6
CONTINUOUS
 62
     2
100
AcDbLine
 39
96.0
 10
31.279719
 20
7.8674
 30
0.0
 11
31.279719
 21
7.8674
 31
0.0
  0
LINE
  5
411
100
AcDbEntity
  8
BORDER
  6
CONTINUOUS
 62
     2
100
AcDbLine
 39
96.0
 10
30.810969
 20
7.8674
 30
0.0
 11
30.810969
 21
7.8674
 31
0.0
  0
LINE
  5
412
100
AcDbEntity
  8
BORDER
  6
CONTINUOUS
 62
     2
100
AcDbLine
 39
96.0
 10
30.342219
 20
7.8674
 30
0.0
 11
30.342219
 21
7.8674
 31
0.0
  0
LINE
  5
413
100
AcDbEntity
  8
BORDER
  6
CONTINUOUS
 62
     2
100
AcDbLine
 39
96.0
 10
29.873469
 20
7.8674
 30
0.0
 11
29.873469
 21
7.8674
 31
0.0
  0
LINE
  5
414
100
AcDbEntity
  8
BORDER
  6
CONTINUOUS
 62
     2
100
AcDbLine
 39
96.0
 10
31.045339
 20
8.3361
 30
0.0
 11
31.045339
 21
8.3361
 31
0.0
  0
LINE
  5
415
100
AcDbEntity
  8
BORDER
  6
CONTINUOUS
 62
     2
100
AcDbLine
 39
96.0
 10
30.576589
 20
8.3361
 30
0.0
 11
30.576589
 21
8.3361
 31
0.0
  0
LINE
  5
416
100
AcDbEntity
  8
BORDER
  6
CONTINUOUS
 62
     2
100
AcDbLine
 39
96.0
 10
30.107839
 20
8.3361
 30
0.0
 11
30.107839
 21
8.3361
 31
0.0
  0
LINE
  5
417
100
AcDbEntity
  8
BORDER
  6
CONTINUOUS
 62
     2
100
AcDbLine
 39
96.0
 10
29.639089
 20
8.3361
 30
0.0
 11
29.639089
 21
8.3361
 31
0.0
  0
LINE
  5
418
100
AcDbEntity
  8
BORDER
  6
CONTINUOUS
 62
     2
100
AcDbLine
 39
96.0
 10
23.310969
 20
2.2424
 30
0.0
 11
23.310969
 21
2.2424
 31
0.0
  0
LINE
  5
419
100
AcDbEntity
  8
BORDER
  6
CONTINUOUS
 62
     2
100
AcDbLine
 39
96.0
 10
22.842219
 20
2.2424
 30
0.0
 11
22.842219
 21
2.2424
 31
0.0
  0
LINE
  5
41A
100
AcDbEntity
  8
BORDER
  6
CONTINUOUS
 62
     2
100
AcDbLine
 39
96.0
 10
22.373469
 20
2.2424
 30
0.0
 11
22.373469
 21
2.2424
 31
0.0
  0
LINE
  5
41B
100
AcDbEntity
  8
BORDER
  6
CONTINUOUS
 62
     2
100
AcDbLine
 39
96.0
 10
21.904719
 20
2.2424
 30
0.0
 11
21.904719
 21
2.2424
 31
0.0
  0
LINE
  5
41C
100
AcDbEntity
  8
BORDER
  6
CONTINUOUS
 62
     2
100
AcDbLine
 39
96.0
 10
23.076589
 20
2.7111
 30
0.0
 11
23.076589
 21
2.7111
 31
0.0
  0
LINE
  5
41D
100
AcDbEntity
  8
BORDER
  6
CONTINUOUS
 62
     2
100
AcDbLine
 39
96.0
 10
22.607839
 20
2.7111
 30
0.0
 11
22.607839
 21
2.7111
 31
0.0
  0
LINE
  5
41E
100
AcDbEntity
  8
BORDER
  6
CONTINUOUS
 62
     2
100
AcDbLine
 39
96.0
 10
22.139089
 20
2.7111
 30
0.0
 11
22.139089
 21
2.7111
 31
0.0
  0
LINE
  5
41F
100
AcDbEntity
  8
BORDER
  6
CONTINUOUS
 62
     2
100
AcDbLine
 39
96.0
 10
21.670339
 20
2.7111
 30
0.0
 11
21.670339
 21
2.7111
 31
0.0
  0
LINE
  5
420
100
AcDbEntity
  8
BORDER
  6
CONTINUOUS
 62
     2
100
AcDbLine
 39
96.0
 10
23.310969
 20
3.1799
 30
0.0
 11
23.310969
 21
3.1799
 31
0.0
  0
LINE
  5
421
100
AcDbEntity
  8
BORDER
  6
CONTINUOUS
 62
     2
100
AcDbLine
 39
96.0
 10
22.842219
 20
3.1799
 30
0.0
 11
22.842219
 21
3.1799
 31
0.0
  0
LINE
  5
422
100
AcDbEntity
  8
BORDER
  6
CONTINUOUS
 62
     2
100
AcDbLine
 39
96.0
 10
22.373469
 20
3.1799
 30
0.0
 11
22.373469
 21
3.1799
 31
0.0
  0
LINE
  5
423
100
AcDbEntity
  8
BORDER
  6
CONTINUOUS
 62
     2
100
AcDbLine
 39
96.0
 10
21.904719
 20
3.1799
 30
0.0
 11
21.904719
 21
3.1799
 31
0.0
  0
LINE
  5
424
100
AcDbEntity
  8
BORDER
  6
CONTINUOUS
 62
     2
100
AcDbLine
 39
96.0
 10
23.076589
 20
3.6486
 30
0.0
 11
23.076589
 21
3.6486
 31
0.0
  0
LINE
  5
425
100
AcDbEntity
  8
BORDER
  6
CONTINUOUS
 62
     2
100
AcDbLine
 39
96.0
 10
22.607839
 20
3.6486
 30
0.0
 11
22.607839
 21
3.6486
 31
0.0
  0
LINE
  5
426
100
AcDbEntity
  8
BORDER
  6
CONTINUOUS
 62
     2
100
AcDbLine
 39
96.0
 10
22.139089
 20
3.6486
 30
0.0
 11
22.139089
 21
3.6486
 31
0.0
  0
LINE
  5
427
100
AcDbEntity
  8
BORDER
  6
CONTINUOUS
 62
     2
100
AcDbLine
 39
96.0
 10
21.670339
 20
3.6486
 30
0.0
 11
21.670339
 21
3.6486
 31
0.0
  0
LINE
  5
428
100
AcDbEntity
  8
BORDER
  6
CONTINUOUS
 62
     2
100
AcDbLine
 39
96.0
 10
23.310969
 20
4.1174
 30
0.0
 11
23.310969
 21
4.1174
 31
0.0
  0
LINE
  5
429
100
AcDbEntity
  8
BORDER
  6
CONTINUOUS
 62
     2
100
AcDbLine
 39
96.0
 10
22.842219
 20
4.1174
 30
0.0
 11
22.842219
 21
4.1174
 31
0.0
  0
LINE
  5
42A
100
AcDbEntity
  8
BORDER
  6
CONTINUOUS
 62
     2
100
AcDbLine
 39
96.0
 10
22.373469
 20
4.1174
 30
0.0
 11
22.373469
 21
4.1174
 31
0.0
  0
LINE
  5
42B
100
AcDbEntity
  8
BORDER
  6
CONTINUOUS
 62
     2
100
AcDbLine
 39
96.0
 10
21.904719
 20
4.1174
 30
0.0
 11
21.904719
 21
4.1174
 31
0.0
  0
LINE
  5
42C
100
AcDbEntity
  8
BORDER
  6
CONTINUOUS
 62
     2
100
AcDbLine
 39
96.0
 10
23.076589
 20
4.5861
 30
0.0
 11
23.076589
 21
4.5861
 31
0.0
  0
LINE
  5
42D
100
AcDbEntity
  8
BORDER
  6
CONTINUOUS
 62
     2
100
AcDbLine
 39
96.0
 10
22.607839
 20
4.5861
 30
0.0
 11
22.607839
 21
4.5861
 31
0.0
  0
LINE
  5
42E
100
AcDbEntity
  8
BORDER
  6
CONTINUOUS
 62
     2
100
AcDbLine
 39
96.0
 10
22.139089
 20
4.5861
 30
0.0
 11
22.139089
 21
4.5861
 31
0.0
  0
LINE
  5
42F
100
AcDbEntity
  8
BORDER
  6
CONTINUOUS
 62
     2
100
AcDbLine
 39
96.0
 10
21.670339
 20
4.5861
 30
0.0
 11
21.670339
 21
4.5861
 31
0.0
  0
LINE
  5
430
100
AcDbEntity
  8
BORDER
  6
CONTINUOUS
 62
     2
100
AcDbLine
 39
96.0
 10
23.310969
 20
5.0549
 30
0.0
 11
23.310969
 21
5.0549
 31
0.0
  0
LINE
  5
431
100
AcDbEntity
  8
BORDER
  6
CONTINUOUS
 62
     2
100
AcDbLine
 39
96.0
 10
22.842219
 20
5.0549
 30
0.0
 11
22.842219
 21
5.0549
 31
0.0
  0
LINE
  5
432
100
AcDbEntity
  8
BORDER
  6
CONTINUOUS
 62
     2
100
AcDbLine
 39
96.0
 10
22.373469
 20
5.0549
 30
0.0
 11
22.373469
 21
5.0549
 31
0.0
  0
LINE
  5
433
100
AcDbEntity
  8
BORDER
  6
CONTINUOUS
 62
     2
100
AcDbLine
 39
96.0
 10
21.904719
 20
5.0549
 30
0.0
 11
21.904719
 21
5.0549
 31
0.0
  0
LINE
  5
434
100
AcDbEntity
  8
BORDER
  6
CONTINUOUS
 62
     2
100
AcDbLine
 39
96.0
 10
23.076589
 20
5.5236
 30
0.0
 11
23.076589
 21
5.5236
 31
0.0
  0
LINE
  5
435
100
AcDbEntity
  8
BORDER
  6
CONTINUOUS
 62
     2
100
AcDbLine
 39
96.0
 10
22.607839
 20
5.5236
 30
0.0
 11
22.607839
 21
5.5236
 31
0.0
  0
LINE
  5
436
100
AcDbEntity
  8
BORDER
  6
CONTINUOUS
 62
     2
100
AcDbLine
 39
96.0
 10
22.139089
 20
5.5236
 30
0.0
 11
22.139089
 21
5.5236
 31
0.0
  0
LINE
  5
437
100
AcDbEntity
  8
BORDER
  6
CONTINUOUS
 62
     2
100
AcDbLine
 39
96.0
 10
21.670339
 20
5.5236
 30
0.0
 11
21.670339
 21
5.5236
 31
0.0
  0
LINE
  5
438
100
AcDbEntity
  8
BORDER
  6
CONTINUOUS
 62
     2
100
AcDbLine
 39
96.0
 10
23.310969
 20
5.9924
 30
0.0
 11
23.310969
 21
5.9924
 31
0.0
  0
LINE
  5
439
100
AcDbEntity
  8
BORDER
  6
CONTINUOUS
 62
     2
100
AcDbLine
 39
96.0
 10
22.842219
 20
5.9924
 30
0.0
 11
22.842219
 21
5.9924
 31
0.0
  0
LINE
  5
43A
100
AcDbEntity
  8
BORDER
  6
CONTINUOUS
 62
     2
100
AcDbLine
 39
96.0
 10
22.373469
 20
5.9924
 30
0.0
 11
22.373469
 21
5.9924
 31
0.0
  0
LINE
  5
43B
100
AcDbEntity
  8
BORDER
  6
CONTINUOUS
 62
     2
100
AcDbLine
 39
96.0
 10
21.904719
 20
5.9924
 30
0.0
 11
21.904719
 21
5.9924
 31
0.0
  0
LINE
  5
43C
100
AcDbEntity
  8
BORDER
  6
CONTINUOUS
 62
     2
100
AcDbLine
 39
96.0
 10
23.076589
 20
6.4611
 30
0.0
 11
23.076589
 21
6.4611
 31
0.0
  0
LINE
  5
43D
100
AcDbEntity
  8
BORDER
  6
CONTINUOUS
 62
     2
100
AcDbLine
 39
96.0
 10
22.607839
 20
6.4611
 30
0.0
 11
22.607839
 21
6.4611
 31
0.0
  0
LINE
  5
43E
100
AcDbEntity
  8
BORDER
  6
CONTINUOUS
 62
     2
100
AcDbLine
 39
96.0
 10
22.139089
 20
6.4611
 30
0.0
 11
22.139089
 21
6.4611
 31
0.0
  0
LINE
  5
43F
100
AcDbEntity
  8
BORDER
  6
CONTINUOUS
 62
     2
100
AcDbLine
 39
96.0
 10
21.670339
 20
6.4611
 30
0.0
 11
21.670339
 21
6.4611
 31
0.0
  0
LINE
  5
440
100
AcDbEntity
  8
BORDER
  6
CONTINUOUS
 62
     2
100
AcDbLine
 39
96.0
 10
23.310969
 20
6.9299
 30
0.0
 11
23.310969
 21
6.9299
 31
0.0
  0
LINE
  5
441
100
AcDbEntity
  8
BORDER
  6
CONTINUOUS
 62
     2
100
AcDbLine
 39
96.0
 10
22.842219
 20
6.9299
 30
0.0
 11
22.842219
 21
6.9299
 31
0.0
  0
LINE
  5
442
100
AcDbEntity
  8
BORDER
  6
CONTINUOUS
 62
     2
100
AcDbLine
 39
96.0
 10
22.373469
 20
6.9299
 30
0.0
 11
22.373469
 21
6.9299
 31
0.0
  0
LINE
  5
443
100
AcDbEntity
  8
BORDER
  6
CONTINUOUS
 62
     2
100
AcDbLine
 39
96.0
 10
21.904719
 20
6.9299
 30
0.0
 11
21.904719
 21
6.9299
 31
0.0
  0
LINE
  5
444
100
AcDbEntity
  8
BORDER
  6
CONTINUOUS
 62
     2
100
AcDbLine
 39
96.0
 10
23.076589
 20
7.3986
 30
0.0
 11
23.076589
 21
7.3986
 31
0.0
  0
LINE
  5
445
100
AcDbEntity
  8
BORDER
  6
CONTINUOUS
 62
     2
100
AcDbLine
 39
96.0
 10
22.607839
 20
7.3986
 30
0.0
 11
22.607839
 21
7.3986
 31
0.0
  0
LINE
  5
446
100
AcDbEntity
  8
BORDER
  6
CONTINUOUS
 62
     2
100
AcDbLine
 39
96.0
 10
22.139089
 20
7.3986
 30
0.0
 11
22.139089
 21
7.3986
 31
0.0
  0
LINE
  5
447
100
AcDbEntity
  8
BORDER
  6
CONTINUOUS
 62
     2
100
AcDbLine
 39
96.0
 10
21.670339
 20
7.3986
 30
0.0
 11
21.670339
 21
7.3986
 31
0.0
  0
LINE
  5
448
100
AcDbEntity
  8
BORDER
  6
CONTINUOUS
 62
     2
100
AcDbLine
 39
96.0
 10
23.310969
 20
7.8674
 30
0.0
 11
23.310969
 21
7.8674
 31
0.0
  0
LINE
  5
449
100
AcDbEntity
  8
BORDER
  6
CONTINUOUS
 62
     2
100
AcDbLine
 39
96.0
 10
22.842219
 20
7.8674
 30
0.0
 11
22.842219
 21
7.8674
 31
0.0
  0
LINE
  5
44A
100
AcDbEntity
  8
BORDER
  6
CONTINUOUS
 62
     2
100
AcDbLine
 39
96.0
 10
22.373469
 20
7.8674
 30
0.0
 11
22.373469
 21
7.8674
 31
0.0
  0
LINE
  5
44B
100
AcDbEntity
  8
BORDER
  6
CONTINUOUS
 62
     2
100
AcDbLine
 39
96.0
 10
21.904719
 20
7.8674
 30
0.0
 11
21.904719
 21
7.8674
 31
0.0
  0
LINE
  5
44C
100
AcDbEntity
  8
BORDER
  6
CONTINUOUS
 62
     2
100
AcDbLine
 39
96.0
 10
23.076589
 20
8.3361
 30
0.0
 11
23.076589
 21
8.3361
 31
0.0
  0
LINE
  5
44D
100
AcDbEntity
  8
BORDER
  6
CONTINUOUS
 62
     2
100
AcDbLine
 39
96.0
 10
22.607839
 20
8.3361
 30
0.0
 11
22.607839
 21
8.3361
 31
0.0
  0
LINE
  5
44E
100
AcDbEntity
  8
BORDER
  6
CONTINUOUS
 62
     2
100
AcDbLine
 39
96.0
 10
22.139089
 20
8.3361
 30
0.0
 11
22.139089
 21
8.3361
 31
0.0
  0
LINE
  5
44F
100
AcDbEntity
  8
BORDER
  6
CONTINUOUS
 62
     2
100
AcDbLine
 39
96.0
 10
21.670339
 20
8.3361
 30
0.0
 11
21.670339
 21
8.3361
 31
0.0
  0
LINE
  5
450
100
AcDbEntity
  8
BORDER
  6
CONTINUOUS
 62
     1
100
AcDbLine
 39
96.0
 10
28.364919
 20
5.6057
 30
0.0
 11
28.375659
 21
5.6673
 31
0.0
  0
LINE
  5
451
100
AcDbEntity
  8
BORDER
  6
CONTINUOUS
 62
     1
100
AcDbLine
 39
96.0
 10
27.930839
 20
3.1437
 30
0.0
 11
27.941579
 21
3.2052
 31
0.0
  0
LINE
  5
452
100
AcDbEntity
  8
BORDER
  6
CONTINUOUS
 62
     1
100
AcDbLine
 39
96.0
 10
23.441339
 20
6.4738
 30
0.0
 11
23.452079
 21
6.5354
 31
0.0
  0
LINE
  5
453
100
AcDbEntity
  8
BORDER
  6
CONTINUOUS
 62
     1
100
AcDbLine
 39
96.0
 10
28.218929
 20
3.1453
 30
0.0
 11
28.254809
 21
3.1966
 31
0.0
  0
LINE
  5
454
100
AcDbEntity
  8
BORDER
  6
CONTINUOUS
 62
     1
100
AcDbLine
 39
96.0
 10
26.171069
 20
4.5792
 30
0.0
 11
26.206959
 21
4.6304
 31
0.0
  0
LINE
  5
455
100
AcDbEntity
  8
BORDER
  6
CONTINUOUS
 62
     1
100
AcDbLine
 39
96.0
 10
24.122979
 20
6.0132
 30
0.0
 11
24.158869
 21
6.0644
 31
0.0
  0
LINE
  5
456
100
AcDbEntity
  8
BORDER
  6
CONTINUOUS
 62
     1
100
AcDbLine
 39
96.0
 10
28.565119
 20
3.6671
 30
0.0
 11
28.623959
 21
3.6885
 31
0.0
  0
LINE
  5
457
100
AcDbEntity
  8
BORDER
  6
CONTINUOUS
 62
     1
100
AcDbLine
 39
96.0
 10
25.360769
 20
5.1613
 30
0.0
 11
25.419609
 21
5.1827
 31
0.0
  0
LINE
  5
458
100
AcDbEntity
  8
BORDER
  6
CONTINUOUS
 62
     3
100
AcDbLine
 39
96.0
 10
23.332939
 20
8.4718
 30
0.0
 11
21.457939
 21
8.4718
 31
0.0
  0
ARC
  5
459
100
AcDbEntity
  8
BORDER
  6
CONTINUOUS
 62
     3
100
AcDbCircle
 39
96.0
 10
26.457939
 20
8.4718
 30
0.0
 40
3.0
100
AcDbArc
 50
180.0
 51
0.0
  0
LINE
  5
45A
100
AcDbEntity
  8
BORDER
  6
CONTINUOUS
 62
     3
100
AcDbLine
 39
96.0
 10
29.582939
 20
1.949
 30
0.0
 11
29.582939
 21
8.4718
 31
0.0
  0
LINE
  5
45B
100
AcDbEntity
  8
BORDER
  6
CONTINUOUS
 62
     3
100
AcDbLine
 39
96.0
 10
23.332939
 20
8.4718
 30
0.0
 11
23.332939
 21
1.949
 31
0.0
  0
LINE
  5
45C
100
AcDbEntity
  8
BORDER
  6
CONTINUOUS
 62
     3
100
AcDbLine
 39
96.0
 10
21.457939
 20
8.4718
 30
0.0
 11
21.457939
 21
1.949
 31
0.0
  0
LINE
  5
45D
100
AcDbEntity
  8
BORDER
  6
CONTINUOUS
 62
     3
100
AcDbLine
 39
96.0
 10
31.457939
 20
8.4718
 30
0.0
 11
29.582939
 21
8.4718
 31
0.0
  0
LINE
  5
45E
100
AcDbEntity
  8
BORDER
  6
CONTINUOUS
 62
     3
100
AcDbLine
 39
96.0
 10
31.458179
 20
1.949
 30
0.0
 11
31.457939
 21
8.4718
 31
0.0
  0
LINE
  5
45F
100
AcDbEntity
  8
BORDER
  6
CONTINUOUS
 62
     1
100
AcDbLine
 39
96.0
 10
26.784839
 20
9.4234
 30
0.0
 11
26.820729
 21
9.4746
 31
0.0
  0
LINE
  5
460
100
AcDbEntity
  8
BORDER
  6
CONTINUOUS
 62
     1
100
AcDbLine
 39
96.0
 10
27.496759
 20
9.0075
 30
0.0
 11
27.507499
 21
9.0691
 31
0.0
  0
LINE
  5
461
100
AcDbEntity
  8
BORDER
  6
CONTINUOUS
 62
     1
100
AcDbLine
 39
96.0
 10
27.070729
 20
8.7887
 30
0.0
 11
27.129569
 21
8.8101
 31
0.0
  0
LINE
  5
462
100
AcDbEntity
  8
BORDER
  6
CONTINUOUS
 62
    10
100
AcDbLine
 39
96.0
 10
25.563159
 20
21.2112
 30
0.0
 11
25.549489
 21
21.1342
 31
0.0
  0
LINE
  5
463
100
AcDbEntity
  8
BORDER
  6
CONTINUOUS
 62
    10
100
AcDbLine
 39
96.0
 10
26.708429
 20
22.184
 30
0.0
 11
26.663509
 21
22.12
 31
0.0
  0
LINE
  5
464
100
AcDbEntity
  8
BORDER
  6
CONTINUOUS
 62
    10
100
AcDbLine
 39
96.0
 10
26.977229
 20
21.3512
 30
0.0
 11
26.903739
 21
21.3245
 31
0.0
  0
LINE
  5
465
100
AcDbEntity
  8
BORDER
  6
CONTINUOUS
 62
    10
100
AcDbLine
 39
96.0
 10
27.009939
 20
11.4206
 30
0.0
 11
26.998959
 21
11.3591
 31
0.0
  0
LINE
  5
466
100
AcDbEntity
  8
BORDER
  6
CONTINUOUS
 62
    10
100
AcDbLine
 39
96.0
 10
24.658379
 20
8.3597
 30
0.0
 11
24.613459
 21
8.2956
 31
0.0
  0
LINE
  5
467
100
AcDbEntity
  8
BORDER
  6
CONTINUOUS
 62
    10
100
AcDbLine
 39
96.0
 10
26.450859
 20
10.9195
 30
0.0
 11
26.405939
 21
10.8555
 31
0.0
  0
LINE
  5
468
100
AcDbEntity
  8
BORDER
  6
CONTINUOUS
 62
    10
100
AcDbLine
 39
96.0
 10
24.310719
 20
10.404
 30
0.0
 11
24.237239
 21
10.3772
 31
0.0
  0
LINE
  5
469
100
AcDbEntity
  8
BORDER
  6
CONTINUOUS
 62
     3
100
AcDbLine
 39
96.0
 10
29.582939
 20
23.4718
 30
0.0
 11
31.457939
 21
23.4718
 31
0.0
  0
LINE
  5
46A
100
AcDbEntity
  8
BORDER
  6
CONTINUOUS
 62
     3
100
AcDbLine
 39
96.0
 10
21.457939
 20
23.4718
 30
0.0
 11
23.332939
 21
23.4718
 31
0.0
  0
LINE
  5
46B
100
AcDbEntity
  8
BORDER
  6
CONTINUOUS
 62
     2
100
AcDbLine
 39
96.0
 10
31.279719
 20
8.8049
 30
0.0
 11
31.279719
 21
8.8049
 31
0.0
  0
LINE
  5
46C
100
AcDbEntity
  8
BORDER
  6
CONTINUOUS
 62
     2
100
AcDbLine
 39
96.0
 10
30.810969
 20
8.8049
 30
0.0
 11
30.810969
 21
8.8049
 31
0.0
  0
LINE
  5
46D
100
AcDbEntity
  8
BORDER
  6
CONTINUOUS
 62
     2
100
AcDbLine
 39
96.0
 10
30.342219
 20
8.8049
 30
0.0
 11
30.342219
 21
8.8049
 31
0.0
  0
LINE
  5
46E
100
AcDbEntity
  8
BORDER
  6
CONTINUOUS
 62
     2
100
AcDbLine
 39
96.0
 10
29.873469
 20
8.8049
 30
0.0
 11
29.873469
 21
8.8049
 31
0.0
  0
LINE
  5
46F
100
AcDbEntity
  8
BORDER
  6
CONTINUOUS
 62
     2
100
AcDbLine
 39
96.0
 10
31.045339
 20
9.2736
 30
0.0
 11
31.045339
 21
9.2736
 31
0.0
  0
LINE
  5
470
100
AcDbEntity
  8
BORDER
  6
CONTINUOUS
 62
     2
100
AcDbLine
 39
96.0
 10
30.576589
 20
9.2736
 30
0.0
 11
30.576589
 21
9.2736
 31
0.0
  0
LINE
  5
471
100
AcDbEntity
  8
BORDER
  6
CONTINUOUS
 62
     2
100
AcDbLine
 39
96.0
 10
30.107839
 20
9.2736
 30
0.0
 11
30.107839
 21
9.2736
 31
0.0
  0
LINE
  5
472
100
AcDbEntity
  8
BORDER
  6
CONTINUOUS
 62
     2
100
AcDbLine
 39
96.0
 10
29.639089
 20
9.2736
 30
0.0
 11
29.639089
 21
9.2736
 31
0.0
  0
LINE
  5
473
100
AcDbEntity
  8
BORDER
  6
CONTINUOUS
 62
     2
100
AcDbLine
 39
96.0
 10
31.279719
 20
9.7424
 30
0.0
 11
31.279719
 21
9.7424
 31
0.0
  0
LINE
  5
474
100
AcDbEntity
  8
BORDER
  6
CONTINUOUS
 62
     2
100
AcDbLine
 39
96.0
 10
30.810969
 20
9.7424
 30
0.0
 11
30.810969
 21
9.7424
 31
0.0
  0
LINE
  5
475
100
AcDbEntity
  8
BORDER
  6
CONTINUOUS
 62
     2
100
AcDbLine
 39
96.0
 10
30.342219
 20
9.7424
 30
0.0
 11
30.342219
 21
9.7424
 31
0.0
  0
LINE
  5
476
100
AcDbEntity
  8
BORDER
  6
CONTINUOUS
 62
     2
100
AcDbLine
 39
96.0
 10
29.873469
 20
9.7424
 30
0.0
 11
29.873469
 21
9.7424
 31
0.0
  0
LINE
  5
477
100
AcDbEntity
  8
BORDER
  6
CONTINUOUS
 62
     2
100
AcDbLine
 39
96.0
 10
31.045339
 20
10.2111
 30
0.0
 11
31.045339
 21
10.2111
 31
0.0
  0
LINE
  5
478
100
AcDbEntity
  8
BORDER
  6
CONTINUOUS
 62
     2
100
AcDbLine
 39
96.0
 10
30.576589
 20
10.2111
 30
0.0
 11
30.576589
 21
10.2111
 31
0.0
  0
LINE
  5
479
100
AcDbEntity
  8
BORDER
  6
CONTINUOUS
 62
     2
100
AcDbLine
 39
96.0
 10
30.107839
 20
10.2111
 30
0.0
 11
30.107839
 21
10.2111
 31
0.0
  0
LINE
  5
47A
100
AcDbEntity
  8
BORDER
  6
CONTINUOUS
 62
     2
100
AcDbLine
 39
96.0
 10
29.639089
 20
10.2111
 30
0.0
 11
29.639089
 21
10.2111
 31
0.0
  0
LINE
  5
47B
100
AcDbEntity
  8
BORDER
  6
CONTINUOUS
 62
     2
100
AcDbLine
 39
96.0
 10
31.279719
 20
10.6799
 30
0.0
 11
31.279719
 21
10.6799
 31
0.0
  0
LINE
  5
47C
100
AcDbEntity
  8
BORDER
  6
CONTINUOUS
 62
     2
100
AcDbLine
 39
96.0
 10
30.810969
 20
10.6799
 30
0.0
 11
30.810969
 21
10.6799
 31
0.0
  0
LINE
  5
47D
100
AcDbEntity
  8
BORDER
  6
CONTINUOUS
 62
     2
100
AcDbLine
 39
96.0
 10
30.342219
 20
10.6799
 30
0.0
 11
30.342219
 21
10.6799
 31
0.0
  0
LINE
  5
47E
100
AcDbEntity
  8
BORDER
  6
CONTINUOUS
 62
     2
100
AcDbLine
 39
96.0
 10
29.873469
 20
10.6799
 30
0.0
 11
29.873469
 21
10.6799
 31
0.0
  0
LINE
  5
47F
100
AcDbEntity
  8
BORDER
  6
CONTINUOUS
 62
     2
100
AcDbLine
 39
96.0
 10
31.045339
 20
11.1486
 30
0.0
 11
31.045339
 21
11.1486
 31
0.0
  0
LINE
  5
480
100
AcDbEntity
  8
BORDER
  6
CONTINUOUS
 62
     2
100
AcDbLine
 39
96.0
 10
30.576589
 20
11.1486
 30
0.0
 11
30.576589
 21
11.1486
 31
0.0
  0
LINE
  5
481
100
AcDbEntity
  8
BORDER
  6
CONTINUOUS
 62
     2
100
AcDbLine
 39
96.0
 10
30.107839
 20
11.1486
 30
0.0
 11
30.107839
 21
11.1486
 31
0.0
  0
LINE
  5
482
100
AcDbEntity
  8
BORDER
  6
CONTINUOUS
 62
     2
100
AcDbLine
 39
96.0
 10
29.639089
 20
11.1486
 30
0.0
 11
29.639089
 21
11.1486
 31
0.0
  0
LINE
  5
483
100
AcDbEntity
  8
BORDER
  6
CONTINUOUS
 62
     2
100
AcDbLine
 39
96.0
 10
31.279719
 20
11.6174
 30
0.0
 11
31.279719
 21
11.6174
 31
0.0
  0
LINE
  5
484
100
AcDbEntity
  8
BORDER
  6
CONTINUOUS
 62
     2
100
AcDbLine
 39
96.0
 10
30.810969
 20
11.6174
 30
0.0
 11
30.810969
 21
11.6174
 31
0.0
  0
LINE
  5
485
100
AcDbEntity
  8
BORDER
  6
CONTINUOUS
 62
     2
100
AcDbLine
 39
96.0
 10
30.342219
 20
11.6174
 30
0.0
 11
30.342219
 21
11.6174
 31
0.0
  0
LINE
  5
486
100
AcDbEntity
  8
BORDER
  6
CONTINUOUS
 62
     2
100
AcDbLine
 39
96.0
 10
29.873469
 20
11.6174
 30
0.0
 11
29.873469
 21
11.6174
 31
0.0
  0
LINE
  5
487
100
AcDbEntity
  8
BORDER
  6
CONTINUOUS
 62
     2
100
AcDbLine
 39
96.0
 10
31.045339
 20
12.0861
 30
0.0
 11
31.045339
 21
12.0861
 31
0.0
  0
LINE
  5
488
100
AcDbEntity
  8
BORDER
  6
CONTINUOUS
 62
     2
100
AcDbLine
 39
96.0
 10
30.576589
 20
12.0861
 30
0.0
 11
30.576589
 21
12.0861
 31
0.0
  0
LINE
  5
489
100
AcDbEntity
  8
BORDER
  6
CONTINUOUS
 62
     2
100
AcDbLine
 39
96.0
 10
30.107839
 20
12.0861
 30
0.0
 11
30.107839
 21
12.0861
 31
0.0
  0
LINE
  5
48A
100
AcDbEntity
  8
BORDER
  6
CONTINUOUS
 62
     2
100
AcDbLine
 39
96.0
 10
29.639089
 20
12.0861
 30
0.0
 11
29.639089
 21
12.0861
 31
0.0
  0
LINE
  5
48B
100
AcDbEntity
  8
BORDER
  6
CONTINUOUS
 62
     2
100
AcDbLine
 39
96.0
 10
31.279719
 20
12.5548
 30
0.0
 11
31.279719
 21
12.5548
 31
0.0
  0
LINE
  5
48C
100
AcDbEntity
  8
BORDER
  6
CONTINUOUS
 62
     2
100
AcDbLine
 39
96.0
 10
30.810969
 20
12.5548
 30
0.0
 11
30.810969
 21
12.5548
 31
0.0
  0
LINE
  5
48D
100
AcDbEntity
  8
BORDER
  6
CONTINUOUS
 62
     2
100
AcDbLine
 39
96.0
 10
30.342219
 20
12.5548
 30
0.0
 11
30.342219
 21
12.5548
 31
0.0
  0
LINE
  5
48E
100
AcDbEntity
  8
BORDER
  6
CONTINUOUS
 62
     2
100
AcDbLine
 39
96.0
 10
29.873469
 20
12.5548
 30
0.0
 11
29.873469
 21
12.5548
 31
0.0
  0
LINE
  5
48F
100
AcDbEntity
  8
BORDER
  6
CONTINUOUS
 62
     2
100
AcDbLine
 39
96.0
 10
31.045339
 20
13.0236
 30
0.0
 11
31.045339
 21
13.0236
 31
0.0
  0
LINE
  5
490
100
AcDbEntity
  8
BORDER
  6
CONTINUOUS
 62
     2
100
AcDbLine
 39
96.0
 10
30.576589
 20
13.0236
 30
0.0
 11
30.576589
 21
13.0236
 31
0.0
  0
LINE
  5
491
100
AcDbEntity
  8
BORDER
  6
CONTINUOUS
 62
     2
100
AcDbLine
 39
96.0
 10
30.107839
 20
13.0236
 30
0.0
 11
30.107839
 21
13.0236
 31
0.0
  0
LINE
  5
492
100
AcDbEntity
  8
BORDER
  6
CONTINUOUS
 62
     2
100
AcDbLine
 39
96.0
 10
29.639089
 20
13.0236
 30
0.0
 11
29.639089
 21
13.0236
 31
0.0
  0
LINE
  5
493
100
AcDbEntity
  8
BORDER
  6
CONTINUOUS
 62
     2
100
AcDbLine
 39
96.0
 10
31.279719
 20
13.4923
 30
0.0
 11
31.279719
 21
13.4923
 31
0.0
  0
LINE
  5
494
100
AcDbEntity
  8
BORDER
  6
CONTINUOUS
 62
     2
100
AcDbLine
 39
96.0
 10
30.810969
 20
13.4923
 30
0.0
 11
30.810969
 21
13.4923
 31
0.0
  0
LINE
  5
495
100
AcDbEntity
  8
BORDER
  6
CONTINUOUS
 62
     2
100
AcDbLine
 39
96.0
 10
30.342219
 20
13.4923
 30
0.0
 11
30.342219
 21
13.4923
 31
0.0
  0
LINE
  5
496
100
AcDbEntity
  8
BORDER
  6
CONTINUOUS
 62
     2
100
AcDbLine
 39
96.0
 10
29.873469
 20
13.4923
 30
0.0
 11
29.873469
 21
13.4923
 31
0.0
  0
LINE
  5
497
100
AcDbEntity
  8
BORDER
  6
CONTINUOUS
 62
     2
100
AcDbLine
 39
96.0
 10
31.045339
 20
13.9611
 30
0.0
 11
31.045339
 21
13.9611
 31
0.0
  0
LINE
  5
498
100
AcDbEntity
  8
BORDER
  6
CONTINUOUS
 62
     2
100
AcDbLine
 39
96.0
 10
30.576589
 20
13.9611
 30
0.0
 11
30.576589
 21
13.9611
 31
0.0
  0
LINE
  5
499
100
AcDbEntity
  8
BORDER
  6
CONTINUOUS
 62
     2
100
AcDbLine
 39
96.0
 10
30.107839
 20
13.9611
 30
0.0
 11
30.107839
 21
13.9611
 31
0.0
  0
LINE
  5
49A
100
AcDbEntity
  8
BORDER
  6
CONTINUOUS
 62
     2
100
AcDbLine
 39
96.0
 10
29.639089
 20
13.9611
 30
0.0
 11
29.639089
 21
13.9611
 31
0.0
  0
LINE
  5
49B
100
AcDbEntity
  8
BORDER
  6
CONTINUOUS
 62
     2
100
AcDbLine
 39
96.0
 10
31.279719
 20
14.4298
 30
0.0
 11
31.279719
 21
14.4298
 31
0.0
  0
LINE
  5
49C
100
AcDbEntity
  8
BORDER
  6
CONTINUOUS
 62
     2
100
AcDbLine
 39
96.0
 10
30.810969
 20
14.4298
 30
0.0
 11
30.810969
 21
14.4298
 31
0.0
  0
LINE
  5
49D
100
AcDbEntity
  8
BORDER
  6
CONTINUOUS
 62
     2
100
AcDbLine
 39
96.0
 10
30.342219
 20
14.4298
 30
0.0
 11
30.342219
 21
14.4298
 31
0.0
  0
LINE
  5
49E
100
AcDbEntity
  8
BORDER
  6
CONTINUOUS
 62
     2
100
AcDbLine
 39
96.0
 10
29.873469
 20
14.4298
 30
0.0
 11
29.873469
 21
14.4298
 31
0.0
  0
LINE
  5
49F
100
AcDbEntity
  8
BORDER
  6
CONTINUOUS
 62
     2
100
AcDbLine
 39
96.0
 10
31.045339
 20
14.8986
 30
0.0
 11
31.045339
 21
14.8986
 31
0.0
  0
LINE
  5
4A0
100
AcDbEntity
  8
BORDER
  6
CONTINUOUS
 62
     2
100
AcDbLine
 39
96.0
 10
30.576589
 20
14.8986
 30
0.0
 11
30.576589
 21
14.8986
 31
0.0
  0
LINE
  5
4A1
100
AcDbEntity
  8
BORDER
  6
CONTINUOUS
 62
     2
100
AcDbLine
 39
96.0
 10
30.107839
 20
14.8986
 30
0.0
 11
30.107839
 21
14.8986
 31
0.0
  0
LINE
  5
4A2
100
AcDbEntity
  8
BORDER
  6
CONTINUOUS
 62
     2
100
AcDbLine
 39
96.0
 10
29.639089
 20
14.8986
 30
0.0
 11
29.639089
 21
14.8986
 31
0.0
  0
LINE
  5
4A3
100
AcDbEntity
  8
BORDER
  6
CONTINUOUS
 62
     2
100
AcDbLine
 39
96.0
 10
31.279719
 20
15.3673
 30
0.0
 11
31.279719
 21
15.3673
 31
0.0
  0
LINE
  5
4A4
100
AcDbEntity
  8
BORDER
  6
CONTINUOUS
 62
     2
100
AcDbLine
 39
96.0
 10
30.810969
 20
15.3673
 30
0.0
 11
30.810969
 21
15.3673
 31
0.0
  0
LINE
  5
4A5
100
AcDbEntity
  8
BORDER
  6
CONTINUOUS
 62
     2
100
AcDbLine
 39
96.0
 10
30.342219
 20
15.3673
 30
0.0
 11
30.342219
 21
15.3673
 31
0.0
  0
LINE
  5
4A6
100
AcDbEntity
  8
BORDER
  6
CONTINUOUS
 62
     2
100
AcDbLine
 39
96.0
 10
29.873469
 20
15.3673
 30
0.0
 11
29.873469
 21
15.3673
 31
0.0
  0
LINE
  5
4A7
100
AcDbEntity
  8
BORDER
  6
CONTINUOUS
 62
     2
100
AcDbLine
 39
96.0
 10
31.045339
 20
15.8361
 30
0.0
 11
31.045339
 21
15.8361
 31
0.0
  0
LINE
  5
4A8
100
AcDbEntity
  8
BORDER
  6
CONTINUOUS
 62
     2
100
AcDbLine
 39
96.0
 10
30.576589
 20
15.8361
 30
0.0
 11
30.576589
 21
15.8361
 31
0.0
  0
LINE
  5
4A9
100
AcDbEntity
  8
BORDER
  6
CONTINUOUS
 62
     2
100
AcDbLine
 39
96.0
 10
30.107839
 20
15.8361
 30
0.0
 11
30.107839
 21
15.8361
 31
0.0
  0
LINE
  5
4AA
100
AcDbEntity
  8
BORDER
  6
CONTINUOUS
 62
     2
100
AcDbLine
 39
96.0
 10
29.639089
 20
15.8361
 30
0.0
 11
29.639089
 21
15.8361
 31
0.0
  0
LINE
  5
4AB
100
AcDbEntity
  8
BORDER
  6
CONTINUOUS
 62
     2
100
AcDbLine
 39
96.0
 10
31.279719
 20
16.3048
 30
0.0
 11
31.279719
 21
16.3048
 31
0.0
  0
LINE
  5
4AC
100
AcDbEntity
  8
BORDER
  6
CONTINUOUS
 62
     2
100
AcDbLine
 39
96.0
 10
30.810969
 20
16.3048
 30
0.0
 11
30.810969
 21
16.3048
 31
0.0
  0
LINE
  5
4AD
100
AcDbEntity
  8
BORDER
  6
CONTINUOUS
 62
     2
100
AcDbLine
 39
96.0
 10
30.342219
 20
16.3048
 30
0.0
 11
30.342219
 21
16.3048
 31
0.0
  0
LINE
  5
4AE
100
AcDbEntity
  8
BORDER
  6
CONTINUOUS
 62
     2
100
AcDbLine
 39
96.0
 10
29.873469
 20
16.3048
 30
0.0
 11
29.873469
 21
16.3048
 31
0.0
  0
LINE
  5
4AF
100
AcDbEntity
  8
BORDER
  6
CONTINUOUS
 62
     2
100
AcDbLine
 39
96.0
 10
31.045339
 20
16.7736
 30
0.0
 11
31.045339
 21
16.7736
 31
0.0
  0
LINE
  5
4B0
100
AcDbEntity
  8
BORDER
  6
CONTINUOUS
 62
     2
100
AcDbLine
 39
96.0
 10
30.576589
 20
16.7736
 30
0.0
 11
30.576589
 21
16.7736
 31
0.0
  0
LINE
  5
4B1
100
AcDbEntity
  8
BORDER
  6
CONTINUOUS
 62
     2
100
AcDbLine
 39
96.0
 10
30.107839
 20
16.7736
 30
0.0
 11
30.107839
 21
16.7736
 31
0.0
  0
LINE
  5
4B2
100
AcDbEntity
  8
BORDER
  6
CONTINUOUS
 62
     2
100
AcDbLine
 39
96.0
 10
29.639089
 20
16.7736
 30
0.0
 11
29.639089
 21
16.7736
 31
0.0
  0
LINE
  5
4B3
100
AcDbEntity
  8
BORDER
  6
CONTINUOUS
 62
     2
100
AcDbLine
 39
96.0
 10
31.279719
 20
17.2423
 30
0.0
 11
31.279719
 21
17.2423
 31
0.0
  0
LINE
  5
4B4
100
AcDbEntity
  8
BORDER
  6
CONTINUOUS
 62
     2
100
AcDbLine
 39
96.0
 10
30.810969
 20
17.2423
 30
0.0
 11
30.810969
 21
17.2423
 31
0.0
  0
LINE
  5
4B5
100
AcDbEntity
  8
BORDER
  6
CONTINUOUS
 62
     2
100
AcDbLine
 39
96.0
 10
30.342219
 20
17.2423
 30
0.0
 11
30.342219
 21
17.2423
 31
0.0
  0
LINE
  5
4B6
100
AcDbEntity
  8
BORDER
  6
CONTINUOUS
 62
     2
100
AcDbLine
 39
96.0
 10
29.873469
 20
17.2423
 30
0.0
 11
29.873469
 21
17.2423
 31
0.0
  0
LINE
  5
4B7
100
AcDbEntity
  8
BORDER
  6
CONTINUOUS
 62
     2
100
AcDbLine
 39
96.0
 10
31.045339
 20
17.7111
 30
0.0
 11
31.045339
 21
17.7111
 31
0.0
  0
LINE
  5
4B8
100
AcDbEntity
  8
BORDER
  6
CONTINUOUS
 62
     2
100
AcDbLine
 39
96.0
 10
30.576589
 20
17.7111
 30
0.0
 11
30.576589
 21
17.7111
 31
0.0
  0
LINE
  5
4B9
100
AcDbEntity
  8
BORDER
  6
CONTINUOUS
 62
     2
100
AcDbLine
 39
96.0
 10
30.107839
 20
17.7111
 30
0.0
 11
30.107839
 21
17.7111
 31
0.0
  0
LINE
  5
4BA
100
AcDbEntity
  8
BORDER
  6
CONTINUOUS
 62
     2
100
AcDbLine
 39
96.0
 10
29.639089
 20
17.7111
 30
0.0
 11
29.639089
 21
17.7111
 31
0.0
  0
LINE
  5
4BB
100
AcDbEntity
  8
BORDER
  6
CONTINUOUS
 62
     2
100
AcDbLine
 39
96.0
 10
31.279719
 20
18.1798
 30
0.0
 11
31.279719
 21
18.1798
 31
0.0
  0
LINE
  5
4BC
100
AcDbEntity
  8
BORDER
  6
CONTINUOUS
 62
     2
100
AcDbLine
 39
96.0
 10
30.810969
 20
18.1798
 30
0.0
 11
30.810969
 21
18.1798
 31
0.0
  0
LINE
  5
4BD
100
AcDbEntity
  8
BORDER
  6
CONTINUOUS
 62
     2
100
AcDbLine
 39
96.0
 10
30.342219
 20
18.1798
 30
0.0
 11
30.342219
 21
18.1798
 31
0.0
  0
LINE
  5
4BE
100
AcDbEntity
  8
BORDER
  6
CONTINUOUS
 62
     2
100
AcDbLine
 39
96.0
 10
29.873469
 20
18.1798
 30
0.0
 11
29.873469
 21
18.1798
 31
0.0
  0
LINE
  5
4BF
100
AcDbEntity
  8
BORDER
  6
CONTINUOUS
 62
     2
100
AcDbLine
 39
96.0
 10
31.045339
 20
18.6486
 30
0.0
 11
31.045339
 21
18.6486
 31
0.0
  0
LINE
  5
4C0
100
AcDbEntity
  8
BORDER
  6
CONTINUOUS
 62
     2
100
AcDbLine
 39
96.0
 10
30.576589
 20
18.6486
 30
0.0
 11
30.576589
 21
18.6486
 31
0.0
  0
LINE
  5
4C1
100
AcDbEntity
  8
BORDER
  6
CONTINUOUS
 62
     2
100
AcDbLine
 39
96.0
 10
30.107839
 20
18.6486
 30
0.0
 11
30.107839
 21
18.6486
 31
0.0
  0
LINE
  5
4C2
100
AcDbEntity
  8
BORDER
  6
CONTINUOUS
 62
     2
100
AcDbLine
 39
96.0
 10
29.639089
 20
18.6486
 30
0.0
 11
29.639089
 21
18.6486
 31
0.0
  0
LINE
  5
4C3
100
AcDbEntity
  8
BORDER
  6
CONTINUOUS
 62
     2
100
AcDbLine
 39
96.0
 10
31.279719
 20
19.1173
 30
0.0
 11
31.279719
 21
19.1173
 31
0.0
  0
LINE
  5
4C4
100
AcDbEntity
  8
BORDER
  6
CONTINUOUS
 62
     2
100
AcDbLine
 39
96.0
 10
30.810969
 20
19.1173
 30
0.0
 11
30.810969
 21
19.1173
 31
0.0
  0
LINE
  5
4C5
100
AcDbEntity
  8
BORDER
  6
CONTINUOUS
 62
     2
100
AcDbLine
 39
96.0
 10
30.342219
 20
19.1173
 30
0.0
 11
30.342219
 21
19.1173
 31
0.0
  0
LINE
  5
4C6
100
AcDbEntity
  8
BORDER
  6
CONTINUOUS
 62
     2
100
AcDbLine
 39
96.0
 10
29.873469
 20
19.1173
 30
0.0
 11
29.873469
 21
19.1173
 31
0.0
  0
LINE
  5
4C7
100
AcDbEntity
  8
BORDER
  6
CONTINUOUS
 62
     2
100
AcDbLine
 39
96.0
 10
31.045339
 20
19.5861
 30
0.0
 11
31.045339
 21
19.5861
 31
0.0
  0
LINE
  5
4C8
100
AcDbEntity
  8
BORDER
  6
CONTINUOUS
 62
     2
100
AcDbLine
 39
96.0
 10
30.576589
 20
19.5861
 30
0.0
 11
30.576589
 21
19.5861
 31
0.0
  0
LINE
  5
4C9
100
AcDbEntity
  8
BORDER
  6
CONTINUOUS
 62
     2
100
AcDbLine
 39
96.0
 10
30.107839
 20
19.5861
 30
0.0
 11
30.107839
 21
19.5861
 31
0.0
  0
LINE
  5
4CA
100
AcDbEntity
  8
BORDER
  6
CONTINUOUS
 62
     2
100
AcDbLine
 39
96.0
 10
29.639089
 20
19.5861
 30
0.0
 11
29.639089
 21
19.5861
 31
0.0
  0
LINE
  5
4CB
100
AcDbEntity
  8
BORDER
  6
CONTINUOUS
 62
     2
100
AcDbLine
 39
96.0
 10
31.279719
 20
20.0548
 30
0.0
 11
31.279719
 21
20.0548
 31
0.0
  0
LINE
  5
4CC
100
AcDbEntity
  8
BORDER
  6
CONTINUOUS
 62
     2
100
AcDbLine
 39
96.0
 10
30.810969
 20
20.0548
 30
0.0
 11
30.810969
 21
20.0548
 31
0.0
  0
LINE
  5
4CD
100
AcDbEntity
  8
BORDER
  6
CONTINUOUS
 62
     2
100
AcDbLine
 39
96.0
 10
30.342219
 20
20.0548
 30
0.0
 11
30.342219
 21
20.0548
 31
0.0
  0
LINE
  5
4CE
100
AcDbEntity
  8
BORDER
  6
CONTINUOUS
 62
     2
100
AcDbLine
 39
96.0
 10
29.873469
 20
20.0548
 30
0.0
 11
29.873469
 21
20.0548
 31
0.0
  0
LINE
  5
4CF
100
AcDbEntity
  8
BORDER
  6
CONTINUOUS
 62
     2
100
AcDbLine
 39
96.0
 10
31.045339
 20
20.5236
 30
0.0
 11
31.045339
 21
20.5236
 31
0.0
  0
LINE
  5
4D0
100
AcDbEntity
  8
BORDER
  6
CONTINUOUS
 62
     2
100
AcDbLine
 39
96.0
 10
30.576589
 20
20.5236
 30
0.0
 11
30.576589
 21
20.5236
 31
0.0
  0
LINE
  5
4D1
100
AcDbEntity
  8
BORDER
  6
CONTINUOUS
 62
     2
100
AcDbLine
 39
96.0
 10
30.107839
 20
20.5236
 30
0.0
 11
30.107839
 21
20.5236
 31
0.0
  0
LINE
  5
4D2
100
AcDbEntity
  8
BORDER
  6
CONTINUOUS
 62
     2
100
AcDbLine
 39
96.0
 10
29.639089
 20
20.5236
 30
0.0
 11
29.639089
 21
20.5236
 31
0.0
  0
LINE
  5
4D3
100
AcDbEntity
  8
BORDER
  6
CONTINUOUS
 62
     2
100
AcDbLine
 39
96.0
 10
31.279719
 20
20.9923
 30
0.0
 11
31.279719
 21
20.9923
 31
0.0
  0
LINE
  5
4D4
100
AcDbEntity
  8
BORDER
  6
CONTINUOUS
 62
     2
100
AcDbLine
 39
96.0
 10
30.810969
 20
20.9923
 30
0.0
 11
30.810969
 21
20.9923
 31
0.0
  0
LINE
  5
4D5
100
AcDbEntity
  8
BORDER
  6
CONTINUOUS
 62
     2
100
AcDbLine
 39
96.0
 10
30.342219
 20
20.9923
 30
0.0
 11
30.342219
 21
20.9923
 31
0.0
  0
LINE
  5
4D6
100
AcDbEntity
  8
BORDER
  6
CONTINUOUS
 62
     2
100
AcDbLine
 39
96.0
 10
29.873469
 20
20.9923
 30
0.0
 11
29.873469
 21
20.9923
 31
0.0
  0
LINE
  5
4D7
100
AcDbEntity
  8
BORDER
  6
CONTINUOUS
 62
     2
100
AcDbLine
 39
96.0
 10
31.045339
 20
21.4611
 30
0.0
 11
31.045339
 21
21.4611
 31
0.0
  0
LINE
  5
4D8
100
AcDbEntity
  8
BORDER
  6
CONTINUOUS
 62
     2
100
AcDbLine
 39
96.0
 10
30.576589
 20
21.4611
 30
0.0
 11
30.576589
 21
21.4611
 31
0.0
  0
LINE
  5
4D9
100
AcDbEntity
  8
BORDER
  6
CONTINUOUS
 62
     2
100
AcDbLine
 39
96.0
 10
30.107839
 20
21.4611
 30
0.0
 11
30.107839
 21
21.4611
 31
0.0
  0
LINE
  5
4DA
100
AcDbEntity
  8
BORDER
  6
CONTINUOUS
 62
     2
100
AcDbLine
 39
96.0
 10
29.639089
 20
21.4611
 30
0.0
 11
29.639089
 21
21.4611
 31
0.0
  0
LINE
  5
4DB
100
AcDbEntity
  8
BORDER
  6
CONTINUOUS
 62
     2
100
AcDbLine
 39
96.0
 10
31.279719
 20
21.9298
 30
0.0
 11
31.279719
 21
21.9298
 31
0.0
  0
LINE
  5
4DC
100
AcDbEntity
  8
BORDER
  6
CONTINUOUS
 62
     2
100
AcDbLine
 39
96.0
 10
30.810969
 20
21.9298
 30
0.0
 11
30.810969
 21
21.9298
 31
0.0
  0
LINE
  5
4DD
100
AcDbEntity
  8
BORDER
  6
CONTINUOUS
 62
     2
100
AcDbLine
 39
96.0
 10
30.342219
 20
21.9298
 30
0.0
 11
30.342219
 21
21.9298
 31
0.0
  0
LINE
  5
4DE
100
AcDbEntity
  8
BORDER
  6
CONTINUOUS
 62
     2
100
AcDbLine
 39
96.0
 10
29.873469
 20
21.9298
 30
0.0
 11
29.873469
 21
21.9298
 31
0.0
  0
LINE
  5
4DF
100
AcDbEntity
  8
BORDER
  6
CONTINUOUS
 62
     2
100
AcDbLine
 39
96.0
 10
31.045339
 20
22.3986
 30
0.0
 11
31.045339
 21
22.3986
 31
0.0
  0
LINE
  5
4E0
100
AcDbEntity
  8
BORDER
  6
CONTINUOUS
 62
     2
100
AcDbLine
 39
96.0
 10
30.576589
 20
22.3986
 30
0.0
 11
30.576589
 21
22.3986
 31
0.0
  0
LINE
  5
4E1
100
AcDbEntity
  8
BORDER
  6
CONTINUOUS
 62
     2
100
AcDbLine
 39
96.0
 10
30.107839
 20
22.3986
 30
0.0
 11
30.107839
 21
22.3986
 31
0.0
  0
LINE
  5
4E2
100
AcDbEntity
  8
BORDER
  6
CONTINUOUS
 62
     2
100
AcDbLine
 39
96.0
 10
29.639089
 20
22.3986
 30
0.0
 11
29.639089
 21
22.3986
 31
0.0
  0
LINE
  5
4E3
100
AcDbEntity
  8
BORDER
  6
CONTINUOUS
 62
     2
100
AcDbLine
 39
96.0
 10
31.279719
 20
22.8673
 30
0.0
 11
31.279719
 21
22.8673
 31
0.0
  0
LINE
  5
4E4
100
AcDbEntity
  8
BORDER
  6
CONTINUOUS
 62
     2
100
AcDbLine
 39
96.0
 10
30.810969
 20
22.8673
 30
0.0
 11
30.810969
 21
22.8673
 31
0.0
  0
LINE
  5
4E5
100
AcDbEntity
  8
BORDER
  6
CONTINUOUS
 62
     2
100
AcDbLine
 39
96.0
 10
30.342219
 20
22.8673
 30
0.0
 11
30.342219
 21
22.8673
 31
0.0
  0
LINE
  5
4E6
100
AcDbEntity
  8
BORDER
  6
CONTINUOUS
 62
     2
100
AcDbLine
 39
96.0
 10
29.873469
 20
22.8673
 30
0.0
 11
29.873469
 21
22.8673
 31
0.0
  0
LINE
  5
4E7
100
AcDbEntity
  8
BORDER
  6
CONTINUOUS
 62
     2
100
AcDbLine
 39
96.0
 10
31.045339
 20
23.3361
 30
0.0
 11
31.045339
 21
23.3361
 31
0.0
  0
LINE
  5
4E8
100
AcDbEntity
  8
BORDER
  6
CONTINUOUS
 62
     2
100
AcDbLine
 39
96.0
 10
30.576589
 20
23.3361
 30
0.0
 11
30.576589
 21
23.3361
 31
0.0
  0
LINE
  5
4E9
100
AcDbEntity
  8
BORDER
  6
CONTINUOUS
 62
     2
100
AcDbLine
 39
96.0
 10
30.107839
 20
23.3361
 30
0.0
 11
30.107839
 21
23.3361
 31
0.0
  0
LINE
  5
4EA
100
AcDbEntity
  8
BORDER
  6
CONTINUOUS
 62
     2
100
AcDbLine
 39
96.0
 10
29.639089
 20
23.3361
 30
0.0
 11
29.639089
 21
23.3361
 31
0.0
  0
LINE
  5
4EB
100
AcDbEntity
  8
BORDER
  6
CONTINUOUS
 62
     2
100
AcDbLine
 39
96.0
 10
23.310969
 20
8.8049
 30
0.0
 11
23.310969
 21
8.8049
 31
0.0
  0
LINE
  5
4EC
100
AcDbEntity
  8
BORDER
  6
CONTINUOUS
 62
     2
100
AcDbLine
 39
96.0
 10
22.842219
 20
8.8049
 30
0.0
 11
22.842219
 21
8.8049
 31
0.0
  0
LINE
  5
4ED
100
AcDbEntity
  8
BORDER
  6
CONTINUOUS
 62
     2
100
AcDbLine
 39
96.0
 10
22.373469
 20
8.8049
 30
0.0
 11
22.373469
 21
8.8049
 31
0.0
  0
LINE
  5
4EE
100
AcDbEntity
  8
BORDER
  6
CONTINUOUS
 62
     2
100
AcDbLine
 39
96.0
 10
21.904719
 20
8.8049
 30
0.0
 11
21.904719
 21
8.8049
 31
0.0
  0
LINE
  5
4EF
100
AcDbEntity
  8
BORDER
  6
CONTINUOUS
 62
     2
100
AcDbLine
 39
96.0
 10
23.076589
 20
9.2736
 30
0.0
 11
23.076589
 21
9.2736
 31
0.0
  0
LINE
  5
4F0
100
AcDbEntity
  8
BORDER
  6
CONTINUOUS
 62
     2
100
AcDbLine
 39
96.0
 10
22.607839
 20
9.2736
 30
0.0
 11
22.607839
 21
9.2736
 31
0.0
  0
LINE
  5
4F1
100
AcDbEntity
  8
BORDER
  6
CONTINUOUS
 62
     2
100
AcDbLine
 39
96.0
 10
22.139089
 20
9.2736
 30
0.0
 11
22.139089
 21
9.2736
 31
0.0
  0
LINE
  5
4F2
100
AcDbEntity
  8
BORDER
  6
CONTINUOUS
 62
     2
100
AcDbLine
 39
96.0
 10
21.670339
 20
9.2736
 30
0.0
 11
21.670339
 21
9.2736
 31
0.0
  0
LINE
  5
4F3
100
AcDbEntity
  8
BORDER
  6
CONTINUOUS
 62
     2
100
AcDbLine
 39
96.0
 10
23.310969
 20
9.7424
 30
0.0
 11
23.310969
 21
9.7424
 31
0.0
  0
LINE
  5
4F4
100
AcDbEntity
  8
BORDER
  6
CONTINUOUS
 62
     2
100
AcDbLine
 39
96.0
 10
22.842219
 20
9.7424
 30
0.0
 11
22.842219
 21
9.7424
 31
0.0
  0
LINE
  5
4F5
100
AcDbEntity
  8
BORDER
  6
CONTINUOUS
 62
     2
100
AcDbLine
 39
96.0
 10
22.373469
 20
9.7424
 30
0.0
 11
22.373469
 21
9.7424
 31
0.0
  0
LINE
  5
4F6
100
AcDbEntity
  8
BORDER
  6
CONTINUOUS
 62
     2
100
AcDbLine
 39
96.0
 10
21.904719
 20
9.7424
 30
0.0
 11
21.904719
 21
9.7424
 31
0.0
  0
LINE
  5
4F7
100
AcDbEntity
  8
BORDER
  6
CONTINUOUS
 62
     2
100
AcDbLine
 39
96.0
 10
23.076589
 20
10.2111
 30
0.0
 11
23.076589
 21
10.2111
 31
0.0
  0
LINE
  5
4F8
100
AcDbEntity
  8
BORDER
  6
CONTINUOUS
 62
     2
100
AcDbLine
 39
96.0
 10
22.607839
 20
10.2111
 30
0.0
 11
22.607839
 21
10.2111
 31
0.0
  0
LINE
  5
4F9
100
AcDbEntity
  8
BORDER
  6
CONTINUOUS
 62
     2
100
AcDbLine
 39
96.0
 10
22.139089
 20
10.2111
 30
0.0
 11
22.139089
 21
10.2111
 31
0.0
  0
LINE
  5
4FA
100
AcDbEntity
  8
BORDER
  6
CONTINUOUS
 62
     2
100
AcDbLine
 39
96.0
 10
21.670339
 20
10.2111
 30
0.0
 11
21.670339
 21
10.2111
 31
0.0
  0
LINE
  5
4FB
100
AcDbEntity
  8
BORDER
  6
CONTINUOUS
 62
     2
100
AcDbLine
 39
96.0
 10
23.310969
 20
10.6799
 30
0.0
 11
23.310969
 21
10.6799
 31
0.0
  0
LINE
  5
4FC
100
AcDbEntity
  8
BORDER
  6
CONTINUOUS
 62
     2
100
AcDbLine
 39
96.0
 10
22.842219
 20
10.6799
 30
0.0
 11
22.842219
 21
10.6799
 31
0.0
  0
LINE
  5
4FD
100
AcDbEntity
  8
BORDER
  6
CONTINUOUS
 62
     2
100
AcDbLine
 39
96.0
 10
22.373469
 20
10.6799
 30
0.0
 11
22.373469
 21
10.6799
 31
0.0
  0
LINE
  5
4FE
100
AcDbEntity
  8
BORDER
  6
CONTINUOUS
 62
     2
100
AcDbLine
 39
96.0
 10
21.904719
 20
10.6799
 30
0.0
 11
21.904719
 21
10.6799
 31
0.0
  0
LINE
  5
4FF
100
AcDbEntity
  8
BORDER
  6
CONTINUOUS
 62
     2
100
AcDbLine
 39
96.0
 10
23.076589
 20
11.1486
 30
0.0
 11
23.076589
 21
11.1486
 31
0.0
  0
LINE
  5
500
100
AcDbEntity
  8
BORDER
  6
CONTINUOUS
 62
     2
100
AcDbLine
 39
96.0
 10
22.607839
 20
11.1486
 30
0.0
 11
22.607839
 21
11.1486
 31
0.0
  0
LINE
  5
501
100
AcDbEntity
  8
BORDER
  6
CONTINUOUS
 62
     2
100
AcDbLine
 39
96.0
 10
22.139089
 20
11.1486
 30
0.0
 11
22.139089
 21
11.1486
 31
0.0
  0
LINE
  5
502
100
AcDbEntity
  8
BORDER
  6
CONTINUOUS
 62
     2
100
AcDbLine
 39
96.0
 10
21.670339
 20
11.1486
 30
0.0
 11
21.670339
 21
11.1486
 31
0.0
  0
LINE
  5
503
100
AcDbEntity
  8
BORDER
  6
CONTINUOUS
 62
     2
100
AcDbLine
 39
96.0
 10
23.310969
 20
11.6174
 30
0.0
 11
23.310969
 21
11.6174
 31
0.0
  0
LINE
  5
504
100
AcDbEntity
  8
BORDER
  6
CONTINUOUS
 62
     2
100
AcDbLine
 39
96.0
 10
22.842219
 20
11.6174
 30
0.0
 11
22.842219
 21
11.6174
 31
0.0
  0
LINE
  5
505
100
AcDbEntity
  8
BORDER
  6
CONTINUOUS
 62
     2
100
AcDbLine
 39
96.0
 10
22.373469
 20
11.6174
 30
0.0
 11
22.373469
 21
11.6174
 31
0.0
  0
LINE
  5
506
100
AcDbEntity
  8
BORDER
  6
CONTINUOUS
 62
     2
100
AcDbLine
 39
96.0
 10
21.904719
 20
11.6174
 30
0.0
 11
21.904719
 21
11.6174
 31
0.0
  0
LINE
  5
507
100
AcDbEntity
  8
BORDER
  6
CONTINUOUS
 62
     2
100
AcDbLine
 39
96.0
 10
23.076589
 20
12.0861
 30
0.0
 11
23.076589
 21
12.0861
 31
0.0
  0
LINE
  5
508
100
AcDbEntity
  8
BORDER
  6
CONTINUOUS
 62
     2
100
AcDbLine
 39
96.0
 10
22.607839
 20
12.0861
 30
0.0
 11
22.607839
 21
12.0861
 31
0.0
  0
LINE
  5
509
100
AcDbEntity
  8
BORDER
  6
CONTINUOUS
 62
     2
100
AcDbLine
 39
96.0
 10
22.139089
 20
12.0861
 30
0.0
 11
22.139089
 21
12.0861
 31
0.0
  0
LINE
  5
50A
100
AcDbEntity
  8
BORDER
  6
CONTINUOUS
 62
     2
100
AcDbLine
 39
96.0
 10
21.670339
 20
12.0861
 30
0.0
 11
21.670339
 21
12.0861
 31
0.0
  0
LINE
  5
50B
100
AcDbEntity
  8
BORDER
  6
CONTINUOUS
 62
     2
100
AcDbLine
 39
96.0
 10
23.310969
 20
12.5548
 30
0.0
 11
23.310969
 21
12.5548
 31
0.0
  0
LINE
  5
50C
100
AcDbEntity
  8
BORDER
  6
CONTINUOUS
 62
     2
100
AcDbLine
 39
96.0
 10
22.842219
 20
12.5548
 30
0.0
 11
22.842219
 21
12.5548
 31
0.0
  0
LINE
  5
50D
100
AcDbEntity
  8
BORDER
  6
CONTINUOUS
 62
     2
100
AcDbLine
 39
96.0
 10
22.373469
 20
12.5548
 30
0.0
 11
22.373469
 21
12.5548
 31
0.0
  0
LINE
  5
50E
100
AcDbEntity
  8
BORDER
  6
CONTINUOUS
 62
     2
100
AcDbLine
 39
96.0
 10
21.904719
 20
12.5548
 30
0.0
 11
21.904719
 21
12.5548
 31
0.0
  0
LINE
  5
50F
100
AcDbEntity
  8
BORDER
  6
CONTINUOUS
 62
     2
100
AcDbLine
 39
96.0
 10
23.076589
 20
13.0236
 30
0.0
 11
23.076589
 21
13.0236
 31
0.0
  0
LINE
  5
510
100
AcDbEntity
  8
BORDER
  6
CONTINUOUS
 62
     2
100
AcDbLine
 39
96.0
 10
22.607839
 20
13.0236
 30
0.0
 11
22.607839
 21
13.0236
 31
0.0
  0
LINE
  5
511
100
AcDbEntity
  8
BORDER
  6
CONTINUOUS
 62
     2
100
AcDbLine
 39
96.0
 10
22.139089
 20
13.0236
 30
0.0
 11
22.139089
 21
13.0236
 31
0.0
  0
LINE
  5
512
100
AcDbEntity
  8
BORDER
  6
CONTINUOUS
 62
     2
100
AcDbLine
 39
96.0
 10
21.670339
 20
13.0236
 30
0.0
 11
21.670339
 21
13.0236
 31
0.0
  0
LINE
  5
513
100
AcDbEntity
  8
BORDER
  6
CONTINUOUS
 62
     2
100
AcDbLine
 39
96.0
 10
23.310969
 20
13.4923
 30
0.0
 11
23.310969
 21
13.4923
 31
0.0
  0
LINE
  5
514
100
AcDbEntity
  8
BORDER
  6
CONTINUOUS
 62
     2
100
AcDbLine
 39
96.0
 10
22.842219
 20
13.4923
 30
0.0
 11
22.842219
 21
13.4923
 31
0.0
  0
LINE
  5
515
100
AcDbEntity
  8
BORDER
  6
CONTINUOUS
 62
     2
100
AcDbLine
 39
96.0
 10
22.373469
 20
13.4923
 30
0.0
 11
22.373469
 21
13.4923
 31
0.0
  0
LINE
  5
516
100
AcDbEntity
  8
BORDER
  6
CONTINUOUS
 62
     2
100
AcDbLine
 39
96.0
 10
21.904719
 20
13.4923
 30
0.0
 11
21.904719
 21
13.4923
 31
0.0
  0
LINE
  5
517
100
AcDbEntity
  8
BORDER
  6
CONTINUOUS
 62
     2
100
AcDbLine
 39
96.0
 10
23.076589
 20
13.9611
 30
0.0
 11
23.076589
 21
13.9611
 31
0.0
  0
LINE
  5
518
100
AcDbEntity
  8
BORDER
  6
CONTINUOUS
 62
     2
100
AcDbLine
 39
96.0
 10
22.607839
 20
13.9611
 30
0.0
 11
22.607839
 21
13.9611
 31
0.0
  0
LINE
  5
519
100
AcDbEntity
  8
BORDER
  6
CONTINUOUS
 62
     2
100
AcDbLine
 39
96.0
 10
22.139089
 20
13.9611
 30
0.0
 11
22.139089
 21
13.9611
 31
0.0
  0
LINE
  5
51A
100
AcDbEntity
  8
BORDER
  6
CONTINUOUS
 62
     2
100
AcDbLine
 39
96.0
 10
21.670339
 20
13.9611
 30
0.0
 11
21.670339
 21
13.9611
 31
0.0
  0
LINE
  5
51B
100
AcDbEntity
  8
BORDER
  6
CONTINUOUS
 62
     2
100
AcDbLine
 39
96.0
 10
23.310969
 20
14.4298
 30
0.0
 11
23.310969
 21
14.4298
 31
0.0
  0
LINE
  5
51C
100
AcDbEntity
  8
BORDER
  6
CONTINUOUS
 62
     2
100
AcDbLine
 39
96.0
 10
22.842219
 20
14.4298
 30
0.0
 11
22.842219
 21
14.4298
 31
0.0
  0
LINE
  5
51D
100
AcDbEntity
  8
BORDER
  6
CONTINUOUS
 62
     2
100
AcDbLine
 39
96.0
 10
22.373469
 20
14.4298
 30
0.0
 11
22.373469
 21
14.4298
 31
0.0
  0
LINE
  5
51E
100
AcDbEntity
  8
BORDER
  6
CONTINUOUS
 62
     2
100
AcDbLine
 39
96.0
 10
21.904719
 20
14.4298
 30
0.0
 11
21.904719
 21
14.4298
 31
0.0
  0
LINE
  5
51F
100
AcDbEntity
  8
BORDER
  6
CONTINUOUS
 62
     2
100
AcDbLine
 39
96.0
 10
23.076589
 20
14.8986
 30
0.0
 11
23.076589
 21
14.8986
 31
0.0
  0
LINE
  5
520
100
AcDbEntity
  8
BORDER
  6
CONTINUOUS
 62
     2
100
AcDbLine
 39
96.0
 10
22.607839
 20
14.8986
 30
0.0
 11
22.607839
 21
14.8986
 31
0.0
  0
LINE
  5
521
100
AcDbEntity
  8
BORDER
  6
CONTINUOUS
 62
     2
100
AcDbLine
 39
96.0
 10
22.139089
 20
14.8986
 30
0.0
 11
22.139089
 21
14.8986
 31
0.0
  0
LINE
  5
522
100
AcDbEntity
  8
BORDER
  6
CONTINUOUS
 62
     2
100
AcDbLine
 39
96.0
 10
21.670339
 20
14.8986
 30
0.0
 11
21.670339
 21
14.8986
 31
0.0
  0
LINE
  5
523
100
AcDbEntity
  8
BORDER
  6
CONTINUOUS
 62
     2
100
AcDbLine
 39
96.0
 10
23.310969
 20
15.3673
 30
0.0
 11
23.310969
 21
15.3673
 31
0.0
  0
LINE
  5
524
100
AcDbEntity
  8
BORDER
  6
CONTINUOUS
 62
     2
100
AcDbLine
 39
96.0
 10
22.842219
 20
15.3673
 30
0.0
 11
22.842219
 21
15.3673
 31
0.0
  0
LINE
  5
525
100
AcDbEntity
  8
BORDER
  6
CONTINUOUS
 62
     2
100
AcDbLine
 39
96.0
 10
22.373469
 20
15.3673
 30
0.0
 11
22.373469
 21
15.3673
 31
0.0
  0
LINE
  5
526
100
AcDbEntity
  8
BORDER
  6
CONTINUOUS
 62
     2
100
AcDbLine
 39
96.0
 10
21.904719
 20
15.3673
 30
0.0
 11
21.904719
 21
15.3673
 31
0.0
  0
LINE
  5
527
100
AcDbEntity
  8
BORDER
  6
CONTINUOUS
 62
     2
100
AcDbLine
 39
96.0
 10
23.076589
 20
15.8361
 30
0.0
 11
23.076589
 21
15.8361
 31
0.0
  0
LINE
  5
528
100
AcDbEntity
  8
BORDER
  6
CONTINUOUS
 62
     2
100
AcDbLine
 39
96.0
 10
22.607839
 20
15.8361
 30
0.0
 11
22.607839
 21
15.8361
 31
0.0
  0
LINE
  5
529
100
AcDbEntity
  8
BORDER
  6
CONTINUOUS
 62
     2
100
AcDbLine
 39
96.0
 10
22.139089
 20
15.8361
 30
0.0
 11
22.139089
 21
15.8361
 31
0.0
  0
LINE
  5
52A
100
AcDbEntity
  8
BORDER
  6
CONTINUOUS
 62
     2
100
AcDbLine
 39
96.0
 10
21.670339
 20
15.8361
 30
0.0
 11
21.670339
 21
15.8361
 31
0.0
  0
LINE
  5
52B
100
AcDbEntity
  8
BORDER
  6
CONTINUOUS
 62
     2
100
AcDbLine
 39
96.0
 10
23.310969
 20
16.3048
 30
0.0
 11
23.310969
 21
16.3048
 31
0.0
  0
LINE
  5
52C
100
AcDbEntity
  8
BORDER
  6
CONTINUOUS
 62
     2
100
AcDbLine
 39
96.0
 10
22.842219
 20
16.3048
 30
0.0
 11
22.842219
 21
16.3048
 31
0.0
  0
LINE
  5
52D
100
AcDbEntity
  8
BORDER
  6
CONTINUOUS
 62
     2
100
AcDbLine
 39
96.0
 10
22.373469
 20
16.3048
 30
0.0
 11
22.373469
 21
16.3048
 31
0.0
  0
LINE
  5
52E
100
AcDbEntity
  8
BORDER
  6
CONTINUOUS
 62
     2
100
AcDbLine
 39
96.0
 10
21.904719
 20
16.3048
 30
0.0
 11
21.904719
 21
16.3048
 31
0.0
  0
LINE
  5
52F
100
AcDbEntity
  8
BORDER
  6
CONTINUOUS
 62
     2
100
AcDbLine
 39
96.0
 10
23.076589
 20
16.7736
 30
0.0
 11
23.076589
 21
16.7736
 31
0.0
  0
LINE
  5
530
100
AcDbEntity
  8
BORDER
  6
CONTINUOUS
 62
     2
100
AcDbLine
 39
96.0
 10
22.607839
 20
16.7736
 30
0.0
 11
22.607839
 21
16.7736
 31
0.0
  0
LINE
  5
531
100
AcDbEntity
  8
BORDER
  6
CONTINUOUS
 62
     2
100
AcDbLine
 39
96.0
 10
22.139089
 20
16.7736
 30
0.0
 11
22.139089
 21
16.7736
 31
0.0
  0
LINE
  5
532
100
AcDbEntity
  8
BORDER
  6
CONTINUOUS
 62
     2
100
AcDbLine
 39
96.0
 10
21.670339
 20
16.7736
 30
0.0
 11
21.670339
 21
16.7736
 31
0.0
  0
LINE
  5
533
100
AcDbEntity
  8
BORDER
  6
CONTINUOUS
 62
     2
100
AcDbLine
 39
96.0
 10
23.310969
 20
17.2423
 30
0.0
 11
23.310969
 21
17.2423
 31
0.0
  0
LINE
  5
534
100
AcDbEntity
  8
BORDER
  6
CONTINUOUS
 62
     2
100
AcDbLine
 39
96.0
 10
22.842219
 20
17.2423
 30
0.0
 11
22.842219
 21
17.2423
 31
0.0
  0
LINE
  5
535
100
AcDbEntity
  8
BORDER
  6
CONTINUOUS
 62
     2
100
AcDbLine
 39
96.0
 10
22.373469
 20
17.2423
 30
0.0
 11
22.373469
 21
17.2423
 31
0.0
  0
LINE
  5
536
100
AcDbEntity
  8
BORDER
  6
CONTINUOUS
 62
     2
100
AcDbLine
 39
96.0
 10
21.904719
 20
17.2423
 30
0.0
 11
21.904719
 21
17.2423
 31
0.0
  0
LINE
  5
537
100
AcDbEntity
  8
BORDER
  6
CONTINUOUS
 62
     2
100
AcDbLine
 39
96.0
 10
23.076589
 20
17.7111
 30
0.0
 11
23.076589
 21
17.7111
 31
0.0
  0
LINE
  5
538
100
AcDbEntity
  8
BORDER
  6
CONTINUOUS
 62
     2
100
AcDbLine
 39
96.0
 10
22.607839
 20
17.7111
 30
0.0
 11
22.607839
 21
17.7111
 31
0.0
  0
LINE
  5
539
100
AcDbEntity
  8
BORDER
  6
CONTINUOUS
 62
     2
100
AcDbLine
 39
96.0
 10
22.139089
 20
17.7111
 30
0.0
 11
22.139089
 21
17.7111
 31
0.0
  0
LINE
  5
53A
100
AcDbEntity
  8
BORDER
  6
CONTINUOUS
 62
     2
100
AcDbLine
 39
96.0
 10
21.670339
 20
17.7111
 30
0.0
 11
21.670339
 21
17.7111
 31
0.0
  0
LINE
  5
53B
100
AcDbEntity
  8
BORDER
  6
CONTINUOUS
 62
     2
100
AcDbLine
 39
96.0
 10
23.310969
 20
18.1798
 30
0.0
 11
23.310969
 21
18.1798
 31
0.0
  0
LINE
  5
53C
100
AcDbEntity
  8
BORDER
  6
CONTINUOUS
 62
     2
100
AcDbLine
 39
96.0
 10
22.842219
 20
18.1798
 30
0.0
 11
22.842219
 21
18.1798
 31
0.0
  0
LINE
  5
53D
100
AcDbEntity
  8
BORDER
  6
CONTINUOUS
 62
     2
100
AcDbLine
 39
96.0
 10
22.373469
 20
18.1798
 30
0.0
 11
22.373469
 21
18.1798
 31
0.0
  0
LINE
  5
53E
100
AcDbEntity
  8
BORDER
  6
CONTINUOUS
 62
     2
100
AcDbLine
 39
96.0
 10
21.904719
 20
18.1798
 30
0.0
 11
21.904719
 21
18.1798
 31
0.0
  0
LINE
  5
53F
100
AcDbEntity
  8
BORDER
  6
CONTINUOUS
 62
     2
100
AcDbLine
 39
96.0
 10
23.076589
 20
18.6486
 30
0.0
 11
23.076589
 21
18.6486
 31
0.0
  0
LINE
  5
540
100
AcDbEntity
  8
BORDER
  6
CONTINUOUS
 62
     2
100
AcDbLine
 39
96.0
 10
22.607839
 20
18.6486
 30
0.0
 11
22.607839
 21
18.6486
 31
0.0
  0
LINE
  5
541
100
AcDbEntity
  8
BORDER
  6
CONTINUOUS
 62
     2
100
AcDbLine
 39
96.0
 10
22.139089
 20
18.6486
 30
0.0
 11
22.139089
 21
18.6486
 31
0.0
  0
LINE
  5
542
100
AcDbEntity
  8
BORDER
  6
CONTINUOUS
 62
     2
100
AcDbLine
 39
96.0
 10
21.670339
 20
18.6486
 30
0.0
 11
21.670339
 21
18.6486
 31
0.0
  0
LINE
  5
543
100
AcDbEntity
  8
BORDER
  6
CONTINUOUS
 62
     2
100
AcDbLine
 39
96.0
 10
23.310969
 20
19.1173
 30
0.0
 11
23.310969
 21
19.1173
 31
0.0
  0
LINE
  5
544
100
AcDbEntity
  8
BORDER
  6
CONTINUOUS
 62
     2
100
AcDbLine
 39
96.0
 10
22.842219
 20
19.1173
 30
0.0
 11
22.842219
 21
19.1173
 31
0.0
  0
LINE
  5
545
100
AcDbEntity
  8
BORDER
  6
CONTINUOUS
 62
     2
100
AcDbLine
 39
96.0
 10
22.373469
 20
19.1173
 30
0.0
 11
22.373469
 21
19.1173
 31
0.0
  0
LINE
  5
546
100
AcDbEntity
  8
BORDER
  6
CONTINUOUS
 62
     2
100
AcDbLine
 39
96.0
 10
21.904719
 20
19.1173
 30
0.0
 11
21.904719
 21
19.1173
 31
0.0
  0
LINE
  5
547
100
AcDbEntity
  8
BORDER
  6
CONTINUOUS
 62
     2
100
AcDbLine
 39
96.0
 10
23.076589
 20
19.5861
 30
0.0
 11
23.076589
 21
19.5861
 31
0.0
  0
LINE
  5
548
100
AcDbEntity
  8
BORDER
  6
CONTINUOUS
 62
     2
100
AcDbLine
 39
96.0
 10
22.607839
 20
19.5861
 30
0.0
 11
22.607839
 21
19.5861
 31
0.0
  0
LINE
  5
549
100
AcDbEntity
  8
BORDER
  6
CONTINUOUS
 62
     2
100
AcDbLine
 39
96.0
 10
22.139089
 20
19.5861
 30
0.0
 11
22.139089
 21
19.5861
 31
0.0
  0
LINE
  5
54A
100
AcDbEntity
  8
BORDER
  6
CONTINUOUS
 62
     2
100
AcDbLine
 39
96.0
 10
21.670339
 20
19.5861
 30
0.0
 11
21.670339
 21
19.5861
 31
0.0
  0
LINE
  5
54B
100
AcDbEntity
  8
BORDER
  6
CONTINUOUS
 62
     2
100
AcDbLine
 39
96.0
 10
23.310969
 20
20.0548
 30
0.0
 11
23.310969
 21
20.0548
 31
0.0
  0
LINE
  5
54C
100
AcDbEntity
  8
BORDER
  6
CONTINUOUS
 62
     2
100
AcDbLine
 39
96.0
 10
22.842219
 20
20.0548
 30
0.0
 11
22.842219
 21
20.0548
 31
0.0
  0
LINE
  5
54D
100
AcDbEntity
  8
BORDER
  6
CONTINUOUS
 62
     2
100
AcDbLine
 39
96.0
 10
22.373469
 20
20.0548
 30
0.0
 11
22.373469
 21
20.0548
 31
0.0
  0
LINE
  5
54E
100
AcDbEntity
  8
BORDER
  6
CONTINUOUS
 62
     2
100
AcDbLine
 39
96.0
 10
21.904719
 20
20.0548
 30
0.0
 11
21.904719
 21
20.0548
 31
0.0
  0
LINE
  5
54F
100
AcDbEntity
  8
BORDER
  6
CONTINUOUS
 62
     2
100
AcDbLine
 39
96.0
 10
23.076589
 20
20.5236
 30
0.0
 11
23.076589
 21
20.5236
 31
0.0
  0
LINE
  5
550
100
AcDbEntity
  8
BORDER
  6
CONTINUOUS
 62
     2
100
AcDbLine
 39
96.0
 10
22.607839
 20
20.5236
 30
0.0
 11
22.607839
 21
20.5236
 31
0.0
  0
LINE
  5
551
100
AcDbEntity
  8
BORDER
  6
CONTINUOUS
 62
     2
100
AcDbLine
 39
96.0
 10
22.139089
 20
20.5236
 30
0.0
 11
22.139089
 21
20.5236
 31
0.0
  0
LINE
  5
552
100
AcDbEntity
  8
BORDER
  6
CONTINUOUS
 62
     2
100
AcDbLine
 39
96.0
 10
21.670339
 20
20.5236
 30
0.0
 11
21.670339
 21
20.5236
 31
0.0
  0
LINE
  5
553
100
AcDbEntity
  8
BORDER
  6
CONTINUOUS
 62
     2
100
AcDbLine
 39
96.0
 10
23.310969
 20
20.9923
 30
0.0
 11
23.310969
 21
20.9923
 31
0.0
  0
LINE
  5
554
100
AcDbEntity
  8
BORDER
  6
CONTINUOUS
 62
     2
100
AcDbLine
 39
96.0
 10
22.842219
 20
20.9923
 30
0.0
 11
22.842219
 21
20.9923
 31
0.0
  0
LINE
  5
555
100
AcDbEntity
  8
BORDER
  6
CONTINUOUS
 62
     2
100
AcDbLine
 39
96.0
 10
22.373469
 20
20.9923
 30
0.0
 11
22.373469
 21
20.9923
 31
0.0
  0
LINE
  5
556
100
AcDbEntity
  8
BORDER
  6
CONTINUOUS
 62
     2
100
AcDbLine
 39
96.0
 10
21.904719
 20
20.9923
 30
0.0
 11
21.904719
 21
20.9923
 31
0.0
  0
LINE
  5
557
100
AcDbEntity
  8
BORDER
  6
CONTINUOUS
 62
     2
100
AcDbLine
 39
96.0
 10
23.076589
 20
21.4611
 30
0.0
 11
23.076589
 21
21.4611
 31
0.0
  0
LINE
  5
558
100
AcDbEntity
  8
BORDER
  6
CONTINUOUS
 62
     2
100
AcDbLine
 39
96.0
 10
22.607839
 20
21.4611
 30
0.0
 11
22.607839
 21
21.4611
 31
0.0
  0
LINE
  5
559
100
AcDbEntity
  8
BORDER
  6
CONTINUOUS
 62
     2
100
AcDbLine
 39
96.0
 10
22.139089
 20
21.4611
 30
0.0
 11
22.139089
 21
21.4611
 31
0.0
  0
LINE
  5
55A
100
AcDbEntity
  8
BORDER
  6
CONTINUOUS
 62
     2
100
AcDbLine
 39
96.0
 10
21.670339
 20
21.4611
 30
0.0
 11
21.670339
 21
21.4611
 31
0.0
  0
LINE
  5
55B
100
AcDbEntity
  8
BORDER
  6
CONTINUOUS
 62
     2
100
AcDbLine
 39
96.0
 10
23.310969
 20
21.9298
 30
0.0
 11
23.310969
 21
21.9298
 31
0.0
  0
LINE
  5
55C
100
AcDbEntity
  8
BORDER
  6
CONTINUOUS
 62
     2
100
AcDbLine
 39
96.0
 10
22.842219
 20
21.9298
 30
0.0
 11
22.842219
 21
21.9298
 31
0.0
  0
LINE
  5
55D
100
AcDbEntity
  8
BORDER
  6
CONTINUOUS
 62
     2
100
AcDbLine
 39
96.0
 10
22.373469
 20
21.9298
 30
0.0
 11
22.373469
 21
21.9298
 31
0.0
  0
LINE
  5
55E
100
AcDbEntity
  8
BORDER
  6
CONTINUOUS
 62
     2
100
AcDbLine
 39
96.0
 10
21.904719
 20
21.9298
 30
0.0
 11
21.904719
 21
21.9298
 31
0.0
  0
LINE
  5
55F
100
AcDbEntity
  8
BORDER
  6
CONTINUOUS
 62
     2
100
AcDbLine
 39
96.0
 10
23.076589
 20
22.3986
 30
0.0
 11
23.076589
 21
22.3986
 31
0.0
  0
LINE
  5
560
100
AcDbEntity
  8
BORDER
  6
CONTINUOUS
 62
     2
100
AcDbLine
 39
96.0
 10
22.607839
 20
22.3986
 30
0.0
 11
22.607839
 21
22.3986
 31
0.0
  0
LINE
  5
561
100
AcDbEntity
  8
BORDER
  6
CONTINUOUS
 62
     2
100
AcDbLine
 39
96.0
 10
22.139089
 20
22.3986
 30
0.0
 11
22.139089
 21
22.3986
 31
0.0
  0
LINE
  5
562
100
AcDbEntity
  8
BORDER
  6
CONTINUOUS
 62
     2
100
AcDbLine
 39
96.0
 10
21.670339
 20
22.3986
 30
0.0
 11
21.670339
 21
22.3986
 31
0.0
  0
LINE
  5
563
100
AcDbEntity
  8
BORDER
  6
CONTINUOUS
 62
     2
100
AcDbLine
 39
96.0
 10
23.310969
 20
22.8673
 30
0.0
 11
23.310969
 21
22.8673
 31
0.0
  0
LINE
  5
564
100
AcDbEntity
  8
BORDER
  6
CONTINUOUS
 62
     2
100
AcDbLine
 39
96.0
 10
22.842219
 20
22.8673
 30
0.0
 11
22.842219
 21
22.8673
 31
0.0
  0
LINE
  5
565
100
AcDbEntity
  8
BORDER
  6
CONTINUOUS
 62
     2
100
AcDbLine
 39
96.0
 10
22.373469
 20
22.8673
 30
0.0
 11
22.373469
 21
22.8673
 31
0.0
  0
LINE
  5
566
100
AcDbEntity
  8
BORDER
  6
CONTINUOUS
 62
     2
100
AcDbLine
 39
96.0
 10
21.904719
 20
22.8673
 30
0.0
 11
21.904719
 21
22.8673
 31
0.0
  0
LINE
  5
567
100
AcDbEntity
  8
BORDER
  6
CONTINUOUS
 62
     2
100
AcDbLine
 39
96.0
 10
23.076589
 20
23.3361
 30
0.0
 11
23.076589
 21
23.3361
 31
0.0
  0
LINE
  5
568
100
AcDbEntity
  8
BORDER
  6
CONTINUOUS
 62
     2
100
AcDbLine
 39
96.0
 10
22.607839
 20
23.3361
 30
0.0
 11
22.607839
 21
23.3361
 31
0.0
  0
LINE
  5
569
100
AcDbEntity
  8
BORDER
  6
CONTINUOUS
 62
     2
100
AcDbLine
 39
96.0
 10
22.139089
 20
23.3361
 30
0.0
 11
22.139089
 21
23.3361
 31
0.0
  0
LINE
  5
56A
100
AcDbEntity
  8
BORDER
  6
CONTINUOUS
 62
     2
100
AcDbLine
 39
96.0
 10
21.670339
 20
23.3361
 30
0.0
 11
21.670339
 21
23.3361
 31
0.0
  0
LINE
  5
56B
100
AcDbEntity
  8
BORDER
  6
CONTINUOUS
 62
     1
100
AcDbLine
 39
96.0
 10
29.524589
 20
12.7854
 30
0.0
 11
29.535329
 21
12.847
 31
0.0
  0
LINE
  5
56C
100
AcDbEntity
  8
BORDER
  6
CONTINUOUS
 62
     1
100
AcDbLine
 39
96.0
 10
29.090509
 20
10.3234
 30
0.0
 11
29.101249
 21
10.385
 31
0.0
  0
LINE
  5
56D
100
AcDbEntity
  8
BORDER
  6
CONTINUOUS
 62
     1
100
AcDbLine
 39
96.0
 10
28.364919
 20
20.6057
 30
0.0
 11
28.375659
 21
20.6673
 31
0.0
  0
LINE
  5
56E
100
AcDbEntity
  8
BORDER
  6
CONTINUOUS
 62
     1
100
AcDbLine
 39
96.0
 10
27.930839
 20
18.1436
 30
0.0
 11
27.941579
 21
18.2052
 31
0.0
  0
LINE
  5
56F
100
AcDbEntity
  8
BORDER
  6
CONTINUOUS
 62
     1
100
AcDbLine
 39
96.0
 10
27.496759
 20
15.6816
 30
0.0
 11
27.507499
 21
15.7432
 31
0.0
  0
LINE
  5
570
100
AcDbEntity
  8
BORDER
  6
CONTINUOUS
 62
     1
100
AcDbLine
 39
96.0
 10
27.062679
 20
13.2196
 30
0.0
 11
27.073419
 21
13.2812
 31
0.0
  0
LINE
  5
571
100
AcDbEntity
  8
BORDER
  6
CONTINUOUS
 62
     1
100
AcDbLine
 39
96.0
 10
25.469169
 20
18.5777
 30
0.0
 11
25.479909
 21
18.6393
 31
0.0
  0
LINE
  5
572
100
AcDbEntity
  8
BORDER
  6
CONTINUOUS
 62
     1
100
AcDbLine
 39
96.0
 10
25.035089
 20
16.1157
 30
0.0
 11
25.045829
 21
16.1773
 31
0.0
  0
LINE
  5
573
100
AcDbEntity
  8
BORDER
  6
CONTINUOUS
 62
     1
100
AcDbLine
 39
96.0
 10
24.601009
 20
13.6537
 30
0.0
 11
24.611749
 21
13.7152
 31
0.0
  0
LINE
  5
574
100
AcDbEntity
  8
BORDER
  6
CONTINUOUS
 62
     1
100
AcDbLine
 39
96.0
 10
24.166919
 20
11.1916
 30
0.0
 11
24.177669
 21
11.2532
 31
0.0
  0
LINE
  5
575
100
AcDbEntity
  8
BORDER
  6
CONTINUOUS
 62
     1
100
AcDbLine
 39
96.0
 10
23.441339
 20
21.4738
 30
0.0
 11
23.452079
 21
21.5354
 31
0.0
  0
LINE
  5
576
100
AcDbEntity
  8
BORDER
  6
CONTINUOUS
 62
     1
100
AcDbLine
 39
96.0
 10
29.446219
 20
11.1819
 30
0.0
 11
29.482109
 21
11.2331
 31
0.0
  0
LINE
  5
577
100
AcDbEntity
  8
BORDER
  6
CONTINUOUS
 62
     1
100
AcDbLine
 39
96.0
 10
28.832699
 20
14.6635
 30
0.0
 11
28.868579
 21
14.7147
 31
0.0
  0
LINE
  5
578
100
AcDbEntity
  8
BORDER
  6
CONTINUOUS
 62
     1
100
AcDbLine
 39
96.0
 10
27.398609
 20
12.6156
 30
0.0
 11
27.434499
 21
12.6668
 31
0.0
  0
LINE
  5
579
100
AcDbEntity
  8
BORDER
  6
CONTINUOUS
 62
     1
100
AcDbLine
 39
96.0
 10
28.218929
 20
18.1453
 30
0.0
 11
28.254809
 21
18.1966
 31
0.0
  0
LINE
  5
57A
100
AcDbEntity
  8
BORDER
  6
CONTINUOUS
 62
     1
100
AcDbLine
 39
96.0
 10
25.350759
 20
14.0496
 30
0.0
 11
25.386649
 21
14.1007
 31
0.0
  0
LINE
  5
57B
100
AcDbEntity
  8
BORDER
  6
CONTINUOUS
 62
     1
100
AcDbLine
 39
96.0
 10
23.916679
 20
12.0017
 30
0.0
 11
23.952569
 21
12.0529
 31
0.0
  0
LINE
  5
57C
100
AcDbEntity
  8
BORDER
  6
CONTINUOUS
 62
     1
100
AcDbLine
 39
96.0
 10
26.171069
 20
19.5792
 30
0.0
 11
26.206959
 21
19.6304
 31
0.0
  0
LINE
  5
57D
100
AcDbEntity
  8
BORDER
  6
CONTINUOUS
 62
     1
100
AcDbLine
 39
96.0
 10
24.736989
 20
17.5313
 30
0.0
 11
24.772879
 21
17.5825
 31
0.0
  0
LINE
  5
57E
100
AcDbEntity
  8
BORDER
  6
CONTINUOUS
 62
     1
100
AcDbLine
 39
96.0
 10
24.122979
 20
21.0131
 30
0.0
 11
24.158869
 21
21.0644
 31
0.0
  0
LINE
  5
57F
100
AcDbEntity
  8
BORDER
  6
CONTINUOUS
 62
     1
100
AcDbLine
 39
96.0
 10
28.780449
 20
10.7643
 30
0.0
 11
28.839289
 21
10.7857
 31
0.0
  0
LINE
  5
580
100
AcDbEntity
  8
BORDER
  6
CONTINUOUS
 62
     1
100
AcDbLine
 39
96.0
 10
27.925709
 20
13.1136
 30
0.0
 11
27.984549
 21
13.1349
 31
0.0
  0
LINE
  5
581
100
AcDbEntity
  8
BORDER
  6
CONTINUOUS
 62
     1
100
AcDbLine
 39
96.0
 10
25.576349
 20
12.2586
 30
0.0
 11
25.635189
 21
12.2799
 31
0.0
  0
LINE
  5
582
100
AcDbEntity
  8
BORDER
  6
CONTINUOUS
 62
     1
100
AcDbLine
 39
96.0
 10
29.420099
 20
16.3178
 30
0.0
 11
29.478939
 21
16.3392
 31
0.0
  0
LINE
  5
583
100
AcDbEntity
  8
BORDER
  6
CONTINUOUS
 62
     1
100
AcDbLine
 39
96.0
 10
24.721369
 20
14.6078
 30
0.0
 11
24.780209
 21
14.6291
 31
0.0
  0
LINE
  5
584
100
AcDbEntity
  8
BORDER
  6
CONTINUOUS
 62
     1
100
AcDbLine
 39
96.0
 10
28.565119
 20
18.6671
 30
0.0
 11
28.623959
 21
18.6884
 31
0.0
  0
LINE
  5
585
100
AcDbEntity
  8
BORDER
  6
CONTINUOUS
 62
     1
100
AcDbLine
 39
96.0
 10
26.215749
 20
17.812
 30
0.0
 11
26.274589
 21
17.8334
 31
0.0
  0
LINE
  5
586
100
AcDbEntity
  8
BORDER
  6
CONTINUOUS
 62
     1
100
AcDbLine
 39
96.0
 10
23.866389
 20
16.957
 30
0.0
 11
23.925219
 21
16.9784
 31
0.0
  0
LINE
  5
587
100
AcDbEntity
  8
BORDER
  6
CONTINUOUS
 62
     1
100
AcDbLine
 39
96.0
 10
25.360769
 20
20.1613
 30
0.0
 11
25.419609
 21
20.1826
 31
0.0
  0
LINE
  5
588
100
AcDbEntity
  8
BORDER
  6
CONTINUOUS
 62
     3
100
AcDbLine
 39
96.0
 10
29.582939
 20
8.4718
 30
0.0
 11
31.457939
 21
8.4718
 31
0.0
  0
LINE
  5
589
100
AcDbEntity
  8
BORDER
  6
CONTINUOUS
 62
     3
100
AcDbLine
 39
96.0
 10
23.332939
 20
23.4718
 30
0.0
 11
21.457939
 21
23.4718
 31
0.0
  0
ARC
  5
58A
100
AcDbEntity
  8
BORDER
  6
CONTINUOUS
 62
     3
100
AcDbCircle
 39
96.0
 10
26.457939
 20
23.4718
 30
0.0
 40
3.0
100
AcDbArc
 50
180.0
 51
0.0
  0
ARC
  5
58B
100
AcDbEntity
  8
BORDER
  6
CONTINUOUS
 62
     3
100
AcDbCircle
 39
96.0
 10
26.457939
 20
8.4718
 30
0.0
 40
3.0
100
AcDbArc
 50
0.0
 51
180.0
  0
LINE
  5
58C
100
AcDbEntity
  8
BORDER
  6
CONTINUOUS
 62
     3
100
AcDbLine
 39
96.0
 10
29.582939
 20
8.4718
 30
0.0
 11
29.582939
 21
23.4718
 31
0.0
  0
LINE
  5
58D
100
AcDbEntity
  8
BORDER
  6
CONTINUOUS
 62
     3
100
AcDbLine
 39
96.0
 10
23.332939
 20
23.4718
 30
0.0
 11
23.332939
 21
8.4718
 31
0.0
  0
LINE
  5
58E
100
AcDbEntity
  8
BORDER
  6
CONTINUOUS
 62
     3
100
AcDbLine
 39
96.0
 10
21.457939
 20
23.4718
 30
0.0
 11
21.457939
 21
8.4718
 31
0.0
  0
LINE
  5
58F
100
AcDbEntity
  8
BORDER
  6
CONTINUOUS
 62
     3
100
AcDbLine
 39
96.0
 10
31.457939
 20
23.4718
 30
0.0
 11
29.582939
 21
23.4718
 31
0.0
  0
LINE
  5
590
100
AcDbEntity
  8
BORDER
  6
CONTINUOUS
 62
     3
100
AcDbLine
 39
96.0
 10
31.457939
 20
8.4718
 30
0.0
 11
31.457939
 21
23.4718
 31
0.0
  0
LINE
  5
591
100
AcDbEntity
  8
BORDER
  6
CONTINUOUS
 62
     3
100
AcDbLine
 39
96.0
 10
21.457939
 20
8.4718
 30
0.0
 11
23.332939
 21
8.4718
 31
0.0
  0
LINE
  5
592
100
AcDbEntity
  8
BORDER
  6
CONTINUOUS
 62
     3
100
AcDbLine
 39
96.0
 10
23.332939
 20
8.4718
 30
0.0
 11
21.457939
 21
8.4718
 31
0.0
  0
LINE
  5
593
100
AcDbEntity
  8
BORDER
  6
CONTINUOUS
 62
     3
100
AcDbLine
 39
96.0
 10
31.457939
 20
8.4718
 30
0.0
 11
29.582939
 21
8.4718
 31
0.0
  0
LINE
  5
594
100
AcDbEntity
  8
BORDER
  6
CONTINUOUS
 62
     1
100
AcDbLine
 39
96.0
 10
26.784839
 20
24.4234
 30
0.0
 11
26.820729
 21
24.4746
 31
0.0
  0
LINE
  5
595
100
AcDbEntity
  8
BORDER
  6
CONTINUOUS
 62
     1
100
AcDbLine
 39
96.0
 10
27.496759
 20
24.0075
 30
0.0
 11
27.507499
 21
24.0691
 31
0.0
  0
LINE
  5
596
100
AcDbEntity
  8
BORDER
  6
CONTINUOUS
 62
     1
100
AcDbLine
 39
96.0
 10
27.070729
 20
23.7887
 30
0.0
 11
27.129569
 21
23.8101
 31
0.0
  0
LINE
  5
597
100
AcDbEntity
  8
BORDER
  6
CONTINUOUS
 62
    10
100
AcDbLine
 39
96.0
 10
27.009939
 20
26.4206
 30
0.0
 11
26.998959
 21
26.3591
 31
0.0
  0
LINE
  5
598
100
AcDbEntity
  8
BORDER
  6
CONTINUOUS
 62
    10
100
AcDbLine
 39
96.0
 10
24.658379
 20
23.3596
 30
0.0
 11
24.613459
 21
23.2956
 31
0.0
  0
LINE
  5
599
100
AcDbEntity
  8
BORDER
  6
CONTINUOUS
 62
    10
100
AcDbLine
 39
96.0
 10
26.450859
 20
25.9195
 30
0.0
 11
26.405939
 21
25.8555
 31
0.0
  0
LINE
  5
59A
100
AcDbEntity
  8
BORDER
  6
CONTINUOUS
 62
    10
100
AcDbLine
 39
96.0
 10
24.310719
 20
25.404
 30
0.0
 11
24.237239
 21
25.3772
 31
0.0
  0
LINE
  5
59B
100
AcDbEntity
  8
BORDER
  6
CONTINUOUS
 62
     2
100
AcDbLine
 39
96.0
 10
31.279719
 20
23.8048
 30
0.0
 11
31.279719
 21
23.8048
 31
0.0
  0
LINE
  5
59C
100
AcDbEntity
  8
BORDER
  6
CONTINUOUS
 62
     2
100
AcDbLine
 39
96.0
 10
30.810969
 20
23.8048
 30
0.0
 11
30.810969
 21
23.8048
 31
0.0
  0
LINE
  5
59D
100
AcDbEntity
  8
BORDER
  6
CONTINUOUS
 62
     2
100
AcDbLine
 39
96.0
 10
30.342219
 20
23.8048
 30
0.0
 11
30.342219
 21
23.8048
 31
0.0
  0
LINE
  5
59E
100
AcDbEntity
  8
BORDER
  6
CONTINUOUS
 62
     2
100
AcDbLine
 39
96.0
 10
29.873469
 20
23.8048
 30
0.0
 11
29.873469
 21
23.8048
 31
0.0
  0
LINE
  5
59F
100
AcDbEntity
  8
BORDER
  6
CONTINUOUS
 62
     2
100
AcDbLine
 39
96.0
 10
31.045339
 20
24.2736
 30
0.0
 11
31.045339
 21
24.2736
 31
0.0
  0
LINE
  5
5A0
100
AcDbEntity
  8
BORDER
  6
CONTINUOUS
 62
     2
100
AcDbLine
 39
96.0
 10
30.576589
 20
24.2736
 30
0.0
 11
30.576589
 21
24.2736
 31
0.0
  0
LINE
  5
5A1
100
AcDbEntity
  8
BORDER
  6
CONTINUOUS
 62
     2
100
AcDbLine
 39
96.0
 10
30.107839
 20
24.2736
 30
0.0
 11
30.107839
 21
24.2736
 31
0.0
  0
LINE
  5
5A2
100
AcDbEntity
  8
BORDER
  6
CONTINUOUS
 62
     2
100
AcDbLine
 39
96.0
 10
29.639089
 20
24.2736
 30
0.0
 11
29.639089
 21
24.2736
 31
0.0
  0
LINE
  5
5A3
100
AcDbEntity
  8
BORDER
  6
CONTINUOUS
 62
     2
100
AcDbLine
 39
96.0
 10
31.279719
 20
24.7423
 30
0.0
 11
31.279719
 21
24.7423
 31
0.0
  0
LINE
  5
5A4
100
AcDbEntity
  8
BORDER
  6
CONTINUOUS
 62
     2
100
AcDbLine
 39
96.0
 10
30.810969
 20
24.7423
 30
0.0
 11
30.810969
 21
24.7423
 31
0.0
  0
LINE
  5
5A5
100
AcDbEntity
  8
BORDER
  6
CONTINUOUS
 62
     2
100
AcDbLine
 39
96.0
 10
30.342219
 20
24.7423
 30
0.0
 11
30.342219
 21
24.7423
 31
0.0
  0
LINE
  5
5A6
100
AcDbEntity
  8
BORDER
  6
CONTINUOUS
 62
     2
100
AcDbLine
 39
96.0
 10
29.873469
 20
24.7423
 30
0.0
 11
29.873469
 21
24.7423
 31
0.0
  0
LINE
  5
5A7
100
AcDbEntity
  8
BORDER
  6
CONTINUOUS
 62
     2
100
AcDbLine
 39
96.0
 10
31.045339
 20
25.2111
 30
0.0
 11
31.045339
 21
25.2111
 31
0.0
  0
LINE
  5
5A8
100
AcDbEntity
  8
BORDER
  6
CONTINUOUS
 62
     2
100
AcDbLine
 39
96.0
 10
30.576589
 20
25.2111
 30
0.0
 11
30.576589
 21
25.2111
 31
0.0
  0
LINE
  5
5A9
100
AcDbEntity
  8
BORDER
  6
CONTINUOUS
 62
     2
100
AcDbLine
 39
96.0
 10
30.107839
 20
25.2111
 30
0.0
 11
30.107839
 21
25.2111
 31
0.0
  0
LINE
  5
5AA
100
AcDbEntity
  8
BORDER
  6
CONTINUOUS
 62
     2
100
AcDbLine
 39
96.0
 10
29.639089
 20
25.2111
 30
0.0
 11
29.639089
 21
25.2111
 31
0.0
  0
LINE
  5
5AB
100
AcDbEntity
  8
BORDER
  6
CONTINUOUS
 62
     2
100
AcDbLine
 39
96.0
 10
31.279719
 20
25.6798
 30
0.0
 11
31.279719
 21
25.6798
 31
0.0
  0
LINE
  5
5AC
100
AcDbEntity
  8
BORDER
  6
CONTINUOUS
 62
     2
100
AcDbLine
 39
96.0
 10
30.810969
 20
25.6798
 30
0.0
 11
30.810969
 21
25.6798
 31
0.0
  0
LINE
  5
5AD
100
AcDbEntity
  8
BORDER
  6
CONTINUOUS
 62
     2
100
AcDbLine
 39
96.0
 10
30.342219
 20
25.6798
 30
0.0
 11
30.342219
 21
25.6798
 31
0.0
  0
LINE
  5
5AE
100
AcDbEntity
  8
BORDER
  6
CONTINUOUS
 62
     2
100
AcDbLine
 39
96.0
 10
29.873469
 20
25.6798
 30
0.0
 11
29.873469
 21
25.6798
 31
0.0
  0
LINE
  5
5AF
100
AcDbEntity
  8
BORDER
  6
CONTINUOUS
 62
     2
100
AcDbLine
 39
96.0
 10
31.045339
 20
26.1486
 30
0.0
 11
31.045339
 21
26.1486
 31
0.0
  0
LINE
  5
5B0
100
AcDbEntity
  8
BORDER
  6
CONTINUOUS
 62
     2
100
AcDbLine
 39
96.0
 10
30.576589
 20
26.1486
 30
0.0
 11
30.576589
 21
26.1486
 31
0.0
  0
LINE
  5
5B1
100
AcDbEntity
  8
BORDER
  6
CONTINUOUS
 62
     2
100
AcDbLine
 39
96.0
 10
30.107839
 20
26.1486
 30
0.0
 11
30.107839
 21
26.1486
 31
0.0
  0
LINE
  5
5B2
100
AcDbEntity
  8
BORDER
  6
CONTINUOUS
 62
     2
100
AcDbLine
 39
96.0
 10
29.639089
 20
26.1486
 30
0.0
 11
29.639089
 21
26.1486
 31
0.0
  0
LINE
  5
5B3
100
AcDbEntity
  8
BORDER
  6
CONTINUOUS
 62
     2
100
AcDbLine
 39
96.0
 10
31.279719
 20
26.6173
 30
0.0
 11
31.279719
 21
26.6173
 31
0.0
  0
LINE
  5
5B4
100
AcDbEntity
  8
BORDER
  6
CONTINUOUS
 62
     2
100
AcDbLine
 39
96.0
 10
30.810969
 20
26.6173
 30
0.0
 11
30.810969
 21
26.6173
 31
0.0
  0
LINE
  5
5B5
100
AcDbEntity
  8
BORDER
  6
CONTINUOUS
 62
     2
100
AcDbLine
 39
96.0
 10
30.342219
 20
26.6173
 30
0.0
 11
30.342219
 21
26.6173
 31
0.0
  0
LINE
  5
5B6
100
AcDbEntity
  8
BORDER
  6
CONTINUOUS
 62
     2
100
AcDbLine
 39
96.0
 10
29.873469
 20
26.6173
 30
0.0
 11
29.873469
 21
26.6173
 31
0.0
  0
LINE
  5
5B7
100
AcDbEntity
  8
BORDER
  6
CONTINUOUS
 62
     2
100
AcDbLine
 39
96.0
 10
31.045339
 20
27.0861
 30
0.0
 11
31.045339
 21
27.0861
 31
0.0
  0
LINE
  5
5B8
100
AcDbEntity
  8
BORDER
  6
CONTINUOUS
 62
     2
100
AcDbLine
 39
96.0
 10
30.576589
 20
27.0861
 30
0.0
 11
30.576589
 21
27.0861
 31
0.0
  0
LINE
  5
5B9
100
AcDbEntity
  8
BORDER
  6
CONTINUOUS
 62
     2
100
AcDbLine
 39
96.0
 10
30.107839
 20
27.0861
 30
0.0
 11
30.107839
 21
27.0861
 31
0.0
  0
LINE
  5
5BA
100
AcDbEntity
  8
BORDER
  6
CONTINUOUS
 62
     2
100
AcDbLine
 39
96.0
 10
29.639089
 20
27.0861
 30
0.0
 11
29.639089
 21
27.0861
 31
0.0
  0
LINE
  5
5BB
100
AcDbEntity
  8
BORDER
  6
CONTINUOUS
 62
     2
100
AcDbLine
 39
96.0
 10
31.279719
 20
27.5548
 30
0.0
 11
31.279719
 21
27.5548
 31
0.0
  0
LINE
  5
5BC
100
AcDbEntity
  8
BORDER
  6
CONTINUOUS
 62
     2
100
AcDbLine
 39
96.0
 10
30.810969
 20
27.5548
 30
0.0
 11
30.810969
 21
27.5548
 31
0.0
  0
LINE
  5
5BD
100
AcDbEntity
  8
BORDER
  6
CONTINUOUS
 62
     2
100
AcDbLine
 39
96.0
 10
30.342219
 20
27.5548
 30
0.0
 11
30.342219
 21
27.5548
 31
0.0
  0
LINE
  5
5BE
100
AcDbEntity
  8
BORDER
  6
CONTINUOUS
 62
     2
100
AcDbLine
 39
96.0
 10
29.873469
 20
27.5548
 30
0.0
 11
29.873469
 21
27.5548
 31
0.0
  0
LINE
  5
5BF
100
AcDbEntity
  8
BORDER
  6
CONTINUOUS
 62
     2
100
AcDbLine
 39
96.0
 10
31.045339
 20
28.0236
 30
0.0
 11
31.045339
 21
28.0236
 31
0.0
  0
LINE
  5
5C0
100
AcDbEntity
  8
BORDER
  6
CONTINUOUS
 62
     2
100
AcDbLine
 39
96.0
 10
30.576589
 20
28.0236
 30
0.0
 11
30.576589
 21
28.0236
 31
0.0
  0
LINE
  5
5C1
100
AcDbEntity
  8
BORDER
  6
CONTINUOUS
 62
     2
100
AcDbLine
 39
96.0
 10
30.107839
 20
28.0236
 30
0.0
 11
30.107839
 21
28.0236
 31
0.0
  0
LINE
  5
5C2
100
AcDbEntity
  8
BORDER
  6
CONTINUOUS
 62
     2
100
AcDbLine
 39
96.0
 10
29.639089
 20
28.0236
 30
0.0
 11
29.639089
 21
28.0236
 31
0.0
  0
LINE
  5
5C3
100
AcDbEntity
  8
BORDER
  6
CONTINUOUS
 62
     2
100
AcDbLine
 39
96.0
 10
31.279719
 20
28.4923
 30
0.0
 11
31.279719
 21
28.4923
 31
0.0
  0
LINE
  5
5C4
100
AcDbEntity
  8
BORDER
  6
CONTINUOUS
 62
     2
100
AcDbLine
 39
96.0
 10
30.810969
 20
28.4923
 30
0.0
 11
30.810969
 21
28.4923
 31
0.0
  0
LINE
  5
5C5
100
AcDbEntity
  8
BORDER
  6
CONTINUOUS
 62
     2
100
AcDbLine
 39
96.0
 10
30.342219
 20
28.4923
 30
0.0
 11
30.342219
 21
28.4923
 31
0.0
  0
LINE
  5
5C6
100
AcDbEntity
  8
BORDER
  6
CONTINUOUS
 62
     2
100
AcDbLine
 39
96.0
 10
29.873469
 20
28.4923
 30
0.0
 11
29.873469
 21
28.4923
 31
0.0
  0
LINE
  5
5C7
100
AcDbEntity
  8
BORDER
  6
CONTINUOUS
 62
     2
100
AcDbLine
 39
96.0
 10
31.045339
 20
28.9611
 30
0.0
 11
31.045339
 21
28.9611
 31
0.0
  0
LINE
  5
5C8
100
AcDbEntity
  8
BORDER
  6
CONTINUOUS
 62
     2
100
AcDbLine
 39
96.0
 10
30.576589
 20
28.9611
 30
0.0
 11
30.576589
 21
28.9611
 31
0.0
  0
LINE
  5
5C9
100
AcDbEntity
  8
BORDER
  6
CONTINUOUS
 62
     2
100
AcDbLine
 39
96.0
 10
30.107839
 20
28.9611
 30
0.0
 11
30.107839
 21
28.9611
 31
0.0
  0
LINE
  5
5CA
100
AcDbEntity
  8
BORDER
  6
CONTINUOUS
 62
     2
100
AcDbLine
 39
96.0
 10
29.639089
 20
28.9611
 30
0.0
 11
29.639089
 21
28.9611
 31
0.0
  0
LINE
  5
5CB
100
AcDbEntity
  8
BORDER
  6
CONTINUOUS
 62
     2
100
AcDbLine
 39
96.0
 10
31.279719
 20
29.4299
 30
0.0
 11
31.279719
 21
29.4299
 31
0.0
  0
LINE
  5
5CC
100
AcDbEntity
  8
BORDER
  6
CONTINUOUS
 62
     2
100
AcDbLine
 39
96.0
 10
30.810969
 20
29.4299
 30
0.0
 11
30.810969
 21
29.4299
 31
0.0
  0
LINE
  5
5CD
100
AcDbEntity
  8
BORDER
  6
CONTINUOUS
 62
     2
100
AcDbLine
 39
96.0
 10
30.342219
 20
29.4299
 30
0.0
 11
30.342219
 21
29.4299
 31
0.0
  0
LINE
  5
5CE
100
AcDbEntity
  8
BORDER
  6
CONTINUOUS
 62
     2
100
AcDbLine
 39
96.0
 10
29.873469
 20
29.4299
 30
0.0
 11
29.873469
 21
29.4299
 31
0.0
  0
LINE
  5
5CF
100
AcDbEntity
  8
BORDER
  6
CONTINUOUS
 62
     2
100
AcDbLine
 39
96.0
 10
31.045339
 20
29.8986
 30
0.0
 11
31.045339
 21
29.8986
 31
0.0
  0
LINE
  5
5D0
100
AcDbEntity
  8
BORDER
  6
CONTINUOUS
 62
     2
100
AcDbLine
 39
96.0
 10
30.576589
 20
29.8986
 30
0.0
 11
30.576589
 21
29.8986
 31
0.0
  0
LINE
  5
5D1
100
AcDbEntity
  8
BORDER
  6
CONTINUOUS
 62
     2
100
AcDbLine
 39
96.0
 10
30.107839
 20
29.8986
 30
0.0
 11
30.107839
 21
29.8986
 31
0.0
  0
LINE
  5
5D2
100
AcDbEntity
  8
BORDER
  6
CONTINUOUS
 62
     2
100
AcDbLine
 39
96.0
 10
29.639089
 20
29.8986
 30
0.0
 11
29.639089
 21
29.8986
 31
0.0
  0
LINE
  5
5D3
100
AcDbEntity
  8
BORDER
  6
CONTINUOUS
 62
     2
100
AcDbLine
 39
96.0
 10
31.279719
 20
30.3674
 30
0.0
 11
31.279719
 21
30.3674
 31
0.0
  0
LINE
  5
5D4
100
AcDbEntity
  8
BORDER
  6
CONTINUOUS
 62
     2
100
AcDbLine
 39
96.0
 10
30.810969
 20
30.3674
 30
0.0
 11
30.810969
 21
30.3674
 31
0.0
  0
LINE
  5
5D5
100
AcDbEntity
  8
BORDER
  6
CONTINUOUS
 62
     2
100
AcDbLine
 39
96.0
 10
30.342219
 20
30.3674
 30
0.0
 11
30.342219
 21
30.3674
 31
0.0
  0
LINE
  5
5D6
100
AcDbEntity
  8
BORDER
  6
CONTINUOUS
 62
     2
100
AcDbLine
 39
96.0
 10
29.873469
 20
30.3674
 30
0.0
 11
29.873469
 21
30.3674
 31
0.0
  0
LINE
  5
5D7
100
AcDbEntity
  8
BORDER
  6
CONTINUOUS
 62
     2
100
AcDbLine
 39
96.0
 10
23.310969
 20
23.8048
 30
0.0
 11
23.310969
 21
23.8048
 31
0.0
  0
LINE
  5
5D8
100
AcDbEntity
  8
BORDER
  6
CONTINUOUS
 62
     2
100
AcDbLine
 39
96.0
 10
22.842219
 20
23.8048
 30
0.0
 11
22.842219
 21
23.8048
 31
0.0
  0
LINE
  5
5D9
100
AcDbEntity
  8
BORDER
  6
CONTINUOUS
 62
     2
100
AcDbLine
 39
96.0
 10
22.373469
 20
23.8048
 30
0.0
 11
22.373469
 21
23.8048
 31
0.0
  0
LINE
  5
5DA
100
AcDbEntity
  8
BORDER
  6
CONTINUOUS
 62
     2
100
AcDbLine
 39
96.0
 10
21.904719
 20
23.8048
 30
0.0
 11
21.904719
 21
23.8048
 31
0.0
  0
LINE
  5
5DB
100
AcDbEntity
  8
BORDER
  6
CONTINUOUS
 62
     2
100
AcDbLine
 39
96.0
 10
23.076589
 20
24.2736
 30
0.0
 11
23.076589
 21
24.2736
 31
0.0
  0
LINE
  5
5DC
100
AcDbEntity
  8
BORDER
  6
CONTINUOUS
 62
     2
100
AcDbLine
 39
96.0
 10
22.607839
 20
24.2736
 30
0.0
 11
22.607839
 21
24.2736
 31
0.0
  0
LINE
  5
5DD
100
AcDbEntity
  8
BORDER
  6
CONTINUOUS
 62
     2
100
AcDbLine
 39
96.0
 10
22.139089
 20
24.2736
 30
0.0
 11
22.139089
 21
24.2736
 31
0.0
  0
LINE
  5
5DE
100
AcDbEntity
  8
BORDER
  6
CONTINUOUS
 62
     2
100
AcDbLine
 39
96.0
 10
21.670339
 20
24.2736
 30
0.0
 11
21.670339
 21
24.2736
 31
0.0
  0
LINE
  5
5DF
100
AcDbEntity
  8
BORDER
  6
CONTINUOUS
 62
     2
100
AcDbLine
 39
96.0
 10
23.310969
 20
24.7423
 30
0.0
 11
23.310969
 21
24.7423
 31
0.0
  0
LINE
  5
5E0
100
AcDbEntity
  8
BORDER
  6
CONTINUOUS
 62
     2
100
AcDbLine
 39
96.0
 10
22.842219
 20
24.7423
 30
0.0
 11
22.842219
 21
24.7423
 31
0.0
  0
LINE
  5
5E1
100
AcDbEntity
  8
BORDER
  6
CONTINUOUS
 62
     2
100
AcDbLine
 39
96.0
 10
22.373469
 20
24.7423
 30
0.0
 11
22.373469
 21
24.7423
 31
0.0
  0
LINE
  5
5E2
100
AcDbEntity
  8
BORDER
  6
CONTINUOUS
 62
     2
100
AcDbLine
 39
96.0
 10
21.904719
 20
24.7423
 30
0.0
 11
21.904719
 21
24.7423
 31
0.0
  0
LINE
  5
5E3
100
AcDbEntity
  8
BORDER
  6
CONTINUOUS
 62
     2
100
AcDbLine
 39
96.0
 10
23.076589
 20
25.2111
 30
0.0
 11
23.076589
 21
25.2111
 31
0.0
  0
LINE
  5
5E4
100
AcDbEntity
  8
BORDER
  6
CONTINUOUS
 62
     2
100
AcDbLine
 39
96.0
 10
22.607839
 20
25.2111
 30
0.0
 11
22.607839
 21
25.2111
 31
0.0
  0
LINE
  5
5E5
100
AcDbEntity
  8
BORDER
  6
CONTINUOUS
 62
     2
100
AcDbLine
 39
96.0
 10
22.139089
 20
25.2111
 30
0.0
 11
22.139089
 21
25.2111
 31
0.0
  0
LINE
  5
5E6
100
AcDbEntity
  8
BORDER
  6
CONTINUOUS
 62
     2
100
AcDbLine
 39
96.0
 10
21.670339
 20
25.2111
 30
0.0
 11
21.670339
 21
25.2111
 31
0.0
  0
LINE
  5
5E7
100
AcDbEntity
  8
BORDER
  6
CONTINUOUS
 62
     2
100
AcDbLine
 39
96.0
 10
23.310969
 20
25.6798
 30
0.0
 11
23.310969
 21
25.6798
 31
0.0
  0
LINE
  5
5E8
100
AcDbEntity
  8
BORDER
  6
CONTINUOUS
 62
     2
100
AcDbLine
 39
96.0
 10
22.842219
 20
25.6798
 30
0.0
 11
22.842219
 21
25.6798
 31
0.0
  0
LINE
  5
5E9
100
AcDbEntity
  8
BORDER
  6
CONTINUOUS
 62
     2
100
AcDbLine
 39
96.0
 10
22.373469
 20
25.6798
 30
0.0
 11
22.373469
 21
25.6798
 31
0.0
  0
LINE
  5
5EA
100
AcDbEntity
  8
BORDER
  6
CONTINUOUS
 62
     2
100
AcDbLine
 39
96.0
 10
21.904719
 20
25.6798
 30
0.0
 11
21.904719
 21
25.6798
 31
0.0
  0
LINE
  5
5EB
100
AcDbEntity
  8
BORDER
  6
CONTINUOUS
 62
     2
100
AcDbLine
 39
96.0
 10
23.076589
 20
26.1486
 30
0.0
 11
23.076589
 21
26.1486
 31
0.0
  0
LINE
  5
5EC
100
AcDbEntity
  8
BORDER
  6
CONTINUOUS
 62
     2
100
AcDbLine
 39
96.0
 10
22.607839
 20
26.1486
 30
0.0
 11
22.607839
 21
26.1486
 31
0.0
  0
LINE
  5
5ED
100
AcDbEntity
  8
BORDER
  6
CONTINUOUS
 62
     2
100
AcDbLine
 39
96.0
 10
22.139089
 20
26.1486
 30
0.0
 11
22.139089
 21
26.1486
 31
0.0
  0
LINE
  5
5EE
100
AcDbEntity
  8
BORDER
  6
CONTINUOUS
 62
     2
100
AcDbLine
 39
96.0
 10
21.670339
 20
26.1486
 30
0.0
 11
21.670339
 21
26.1486
 31
0.0
  0
LINE
  5
5EF
100
AcDbEntity
  8
BORDER
  6
CONTINUOUS
 62
     2
100
AcDbLine
 39
96.0
 10
23.310969
 20
26.6173
 30
0.0
 11
23.310969
 21
26.6173
 31
0.0
  0
LINE
  5
5F0
100
AcDbEntity
  8
BORDER
  6
CONTINUOUS
 62
     2
100
AcDbLine
 39
96.0
 10
22.842219
 20
26.6173
 30
0.0
 11
22.842219
 21
26.6173
 31
0.0
  0
LINE
  5
5F1
100
AcDbEntity
  8
BORDER
  6
CONTINUOUS
 62
     2
100
AcDbLine
 39
96.0
 10
22.373469
 20
26.6173
 30
0.0
 11
22.373469
 21
26.6173
 31
0.0
  0
LINE
  5
5F2
100
AcDbEntity
  8
BORDER
  6
CONTINUOUS
 62
     2
100
AcDbLine
 39
96.0
 10
21.904719
 20
26.6173
 30
0.0
 11
21.904719
 21
26.6173
 31
0.0
  0
LINE
  5
5F3
100
AcDbEntity
  8
BORDER
  6
CONTINUOUS
 62
     2
100
AcDbLine
 39
96.0
 10
23.076589
 20
27.0861
 30
0.0
 11
23.076589
 21
27.0861
 31
0.0
  0
LINE
  5
5F4
100
AcDbEntity
  8
BORDER
  6
CONTINUOUS
 62
     2
100
AcDbLine
 39
96.0
 10
22.607839
 20
27.0861
 30
0.0
 11
22.607839
 21
27.0861
 31
0.0
  0
LINE
  5
5F5
100
AcDbEntity
  8
BORDER
  6
CONTINUOUS
 62
     2
100
AcDbLine
 39
96.0
 10
22.139089
 20
27.0861
 30
0.0
 11
22.139089
 21
27.0861
 31
0.0
  0
LINE
  5
5F6
100
AcDbEntity
  8
BORDER
  6
CONTINUOUS
 62
     2
100
AcDbLine
 39
96.0
 10
21.670339
 20
27.0861
 30
0.0
 11
21.670339
 21
27.0861
 31
0.0
  0
LINE
  5
5F7
100
AcDbEntity
  8
BORDER
  6
CONTINUOUS
 62
     2
100
AcDbLine
 39
96.0
 10
23.310969
 20
27.5548
 30
0.0
 11
23.310969
 21
27.5548
 31
0.0
  0
LINE
  5
5F8
100
AcDbEntity
  8
BORDER
  6
CONTINUOUS
 62
     2
100
AcDbLine
 39
96.0
 10
22.842219
 20
27.5548
 30
0.0
 11
22.842219
 21
27.5548
 31
0.0
  0
LINE
  5
5F9
100
AcDbEntity
  8
BORDER
  6
CONTINUOUS
 62
     2
100
AcDbLine
 39
96.0
 10
22.373469
 20
27.5548
 30
0.0
 11
22.373469
 21
27.5548
 31
0.0
  0
LINE
  5
5FA
100
AcDbEntity
  8
BORDER
  6
CONTINUOUS
 62
     2
100
AcDbLine
 39
96.0
 10
21.904719
 20
27.5548
 30
0.0
 11
21.904719
 21
27.5548
 31
0.0
  0
LINE
  5
5FB
100
AcDbEntity
  8
BORDER
  6
CONTINUOUS
 62
     2
100
AcDbLine
 39
96.0
 10
23.076589
 20
28.0236
 30
0.0
 11
23.076589
 21
28.0236
 31
0.0
  0
LINE
  5
5FC
100
AcDbEntity
  8
BORDER
  6
CONTINUOUS
 62
     2
100
AcDbLine
 39
96.0
 10
22.607839
 20
28.0236
 30
0.0
 11
22.607839
 21
28.0236
 31
0.0
  0
LINE
  5
5FD
100
AcDbEntity
  8
BORDER
  6
CONTINUOUS
 62
     2
100
AcDbLine
 39
96.0
 10
22.139089
 20
28.0236
 30
0.0
 11
22.139089
 21
28.0236
 31
0.0
  0
LINE
  5
5FE
100
AcDbEntity
  8
BORDER
  6
CONTINUOUS
 62
     2
100
AcDbLine
 39
96.0
 10
21.670339
 20
28.0236
 30
0.0
 11
21.670339
 21
28.0236
 31
0.0
  0
LINE
  5
5FF
100
AcDbEntity
  8
BORDER
  6
CONTINUOUS
 62
     2
100
AcDbLine
 39
96.0
 10
23.310969
 20
28.4923
 30
0.0
 11
23.310969
 21
28.4923
 31
0.0
  0
LINE
  5
600
100
AcDbEntity
  8
BORDER
  6
CONTINUOUS
 62
     2
100
AcDbLine
 39
96.0
 10
22.842219
 20
28.4923
 30
0.0
 11
22.842219
 21
28.4923
 31
0.0
  0
LINE
  5
601
100
AcDbEntity
  8
BORDER
  6
CONTINUOUS
 62
     2
100
AcDbLine
 39
96.0
 10
22.373469
 20
28.4923
 30
0.0
 11
22.373469
 21
28.4923
 31
0.0
  0
LINE
  5
602
100
AcDbEntity
  8
BORDER
  6
CONTINUOUS
 62
     2
100
AcDbLine
 39
96.0
 10
21.904719
 20
28.4923
 30
0.0
 11
21.904719
 21
28.4923
 31
0.0
  0
LINE
  5
603
100
AcDbEntity
  8
BORDER
  6
CONTINUOUS
 62
     2
100
AcDbLine
 39
96.0
 10
23.076589
 20
28.9611
 30
0.0
 11
23.076589
 21
28.9611
 31
0.0
  0
LINE
  5
604
100
AcDbEntity
  8
BORDER
  6
CONTINUOUS
 62
     2
100
AcDbLine
 39
96.0
 10
22.607839
 20
28.9611
 30
0.0
 11
22.607839
 21
28.9611
 31
0.0
  0
LINE
  5
605
100
AcDbEntity
  8
BORDER
  6
CONTINUOUS
 62
     2
100
AcDbLine
 39
96.0
 10
22.139089
 20
28.9611
 30
0.0
 11
22.139089
 21
28.9611
 31
0.0
  0
LINE
  5
606
100
AcDbEntity
  8
BORDER
  6
CONTINUOUS
 62
     2
100
AcDbLine
 39
96.0
 10
21.670339
 20
28.9611
 30
0.0
 11
21.670339
 21
28.9611
 31
0.0
  0
LINE
  5
607
100
AcDbEntity
  8
BORDER
  6
CONTINUOUS
 62
     2
100
AcDbLine
 39
96.0
 10
23.310969
 20
29.4299
 30
0.0
 11
23.310969
 21
29.4299
 31
0.0
  0
LINE
  5
608
100
AcDbEntity
  8
BORDER
  6
CONTINUOUS
 62
     2
100
AcDbLine
 39
96.0
 10
22.842219
 20
29.4299
 30
0.0
 11
22.842219
 21
29.4299
 31
0.0
  0
LINE
  5
609
100
AcDbEntity
  8
BORDER
  6
CONTINUOUS
 62
     2
100
AcDbLine
 39
96.0
 10
22.373469
 20
29.4299
 30
0.0
 11
22.373469
 21
29.4299
 31
0.0
  0
LINE
  5
60A
100
AcDbEntity
  8
BORDER
  6
CONTINUOUS
 62
     2
100
AcDbLine
 39
96.0
 10
21.904719
 20
29.4299
 30
0.0
 11
21.904719
 21
29.4299
 31
0.0
  0
LINE
  5
60B
100
AcDbEntity
  8
BORDER
  6
CONTINUOUS
 62
     2
100
AcDbLine
 39
96.0
 10
23.076589
 20
29.8986
 30
0.0
 11
23.076589
 21
29.8986
 31
0.0
  0
LINE
  5
60C
100
AcDbEntity
  8
BORDER
  6
CONTINUOUS
 62
     2
100
AcDbLine
 39
96.0
 10
22.607839
 20
29.8986
 30
0.0
 11
22.607839
 21
29.8986
 31
0.0
  0
LINE
  5
60D
100
AcDbEntity
  8
BORDER
  6
CONTINUOUS
 62
     2
100
AcDbLine
 39
96.0
 10
22.139089
 20
29.8986
 30
0.0
 11
22.139089
 21
29.8986
 31
0.0
  0
LINE
  5
60E
100
AcDbEntity
  8
BORDER
  6
CONTINUOUS
 62
     2
100
AcDbLine
 39
96.0
 10
21.670339
 20
29.8986
 30
0.0
 11
21.670339
 21
29.8986
 31
0.0
  0
LINE
  5
60F
100
AcDbEntity
  8
BORDER
  6
CONTINUOUS
 62
     2
100
AcDbLine
 39
96.0
 10
23.310969
 20
30.3674
 30
0.0
 11
23.310969
 21
30.3674
 31
0.0
  0
LINE
  5
610
100
AcDbEntity
  8
BORDER
  6
CONTINUOUS
 62
     2
100
AcDbLine
 39
96.0
 10
22.842219
 20
30.3674
 30
0.0
 11
22.842219
 21
30.3674
 31
0.0
  0
LINE
  5
611
100
AcDbEntity
  8
BORDER
  6
CONTINUOUS
 62
     2
100
AcDbLine
 39
96.0
 10
22.373469
 20
30.3674
 30
0.0
 11
22.373469
 21
30.3674
 31
0.0
  0
LINE
  5
612
100
AcDbEntity
  8
BORDER
  6
CONTINUOUS
 62
     2
100
AcDbLine
 39
96.0
 10
21.904719
 20
30.3674
 30
0.0
 11
21.904719
 21
30.3674
 31
0.0
  0
LINE
  5
613
100
AcDbEntity
  8
BORDER
  6
CONTINUOUS
 62
     1
100
AcDbLine
 39
96.0
 10
29.524589
 20
27.7854
 30
0.0
 11
29.535329
 21
27.847
 31
0.0
  0
LINE
  5
614
100
AcDbEntity
  8
BORDER
  6
CONTINUOUS
 62
     1
100
AcDbLine
 39
96.0
 10
29.090509
 20
25.3234
 30
0.0
 11
29.101249
 21
25.385
 31
0.0
  0
LINE
  5
615
100
AcDbEntity
  8
BORDER
  6
CONTINUOUS
 62
     1
100
AcDbLine
 39
96.0
 10
28.462329
 20
29.5999
 30
0.0
 11
28.473079
 21
29.6615
 31
0.0
  0
LINE
  5
616
100
AcDbEntity
  8
BORDER
  6
CONTINUOUS
 62
     1
100
AcDbLine
 39
96.0
 10
27.496759
 20
30.6816
 30
0.0
 11
27.507499
 21
30.7432
 31
0.0
  0
LINE
  5
617
100
AcDbEntity
  8
BORDER
  6
CONTINUOUS
 62
     1
100
AcDbLine
 39
96.0
 10
27.062679
 20
28.2196
 30
0.0
 11
27.073419
 21
28.2812
 31
0.0
  0
LINE
  5
618
100
AcDbEntity
  8
BORDER
  6
CONTINUOUS
 62
     1
100
AcDbLine
 39
96.0
 10
24.601009
 20
28.6537
 30
0.0
 11
24.611749
 21
28.7152
 31
0.0
  0
LINE
  5
619
100
AcDbEntity
  8
BORDER
  6
CONTINUOUS
 62
     1
100
AcDbLine
 39
96.0
 10
24.166919
 20
26.1916
 30
0.0
 11
24.177669
 21
26.2532
 31
0.0
  0
LINE
  5
61A
100
AcDbEntity
  8
BORDER
  6
CONTINUOUS
 62
     1
100
AcDbLine
 39
96.0
 10
29.446219
 20
26.1819
 30
0.0
 11
29.482109
 21
26.2331
 31
0.0
  0
LINE
  5
61B
100
AcDbEntity
  8
BORDER
  6
CONTINUOUS
 62
     1
100
AcDbLine
 39
96.0
 10
28.832699
 20
29.6635
 30
0.0
 11
28.868579
 21
29.7148
 31
0.0
  0
LINE
  5
61C
100
AcDbEntity
  8
BORDER
  6
CONTINUOUS
 62
     1
100
AcDbLine
 39
96.0
 10
27.398609
 20
27.6156
 30
0.0
 11
27.434499
 21
27.6668
 31
0.0
  0
LINE
  5
61D
100
AcDbEntity
  8
BORDER
  6
CONTINUOUS
 62
     1
100
AcDbLine
 39
96.0
 10
28.750419
 20
29.6016
 30
0.0
 11
28.786309
 21
29.6528
 31
0.0
  0
LINE
  5
61E
100
AcDbEntity
  8
BORDER
  6
CONTINUOUS
 62
     1
100
AcDbLine
 39
96.0
 10
25.350759
 20
29.0496
 30
0.0
 11
25.386649
 21
29.1007
 31
0.0
  0
LINE
  5
61F
100
AcDbEntity
  8
BORDER
  6
CONTINUOUS
 62
     1
100
AcDbLine
 39
96.0
 10
23.916679
 20
27.0017
 30
0.0
 11
23.952569
 21
27.0529
 31
0.0
  0
LINE
  5
620
100
AcDbEntity
  8
BORDER
  6
CONTINUOUS
 62
     1
100
AcDbLine
 39
96.0
 10
28.780449
 20
25.7643
 30
0.0
 11
28.839289
 21
25.7857
 31
0.0
  0
LINE
  5
621
100
AcDbEntity
  8
BORDER
  6
CONTINUOUS
 62
     1
100
AcDbLine
 39
96.0
 10
27.925709
 20
28.1136
 30
0.0
 11
27.984549
 21
28.1349
 31
0.0
  0
LINE
  5
622
100
AcDbEntity
  8
BORDER
  6
CONTINUOUS
 62
     1
100
AcDbLine
 39
96.0
 10
25.576349
 20
27.2586
 30
0.0
 11
25.635189
 21
27.2799
 31
0.0
  0
LINE
  5
623
100
AcDbEntity
  8
BORDER
  6
CONTINUOUS
 62
     1
100
AcDbLine
 39
96.0
 10
27.070729
 20
30.4628
 30
0.0
 11
27.129569
 21
30.4842
 31
0.0
  0
LINE
  5
624
100
AcDbEntity
  8
BORDER
  6
CONTINUOUS
 62
     1
100
AcDbLine
 39
96.0
 10
24.721369
 20
29.6078
 30
0.0
 11
24.780209
 21
29.6291
 31
0.0
  0
LINE
  5
625
100
AcDbEntity
  8
BORDER
  6
CONTINUOUS
 62
     1
100
AcDbLine
 39
96.0
 10
26.747249
 20
29.2683
 30
0.0
 11
26.806079
 21
29.2897
 31
0.0
  0
LINE
  5
626
100
AcDbEntity
  8
BORDER
  6
CONTINUOUS
 62
     3
100
AcDbLine
 39
96.0
 10
29.582939
 20
23.4718
 30
0.0
 11
31.457939
 21
23.4718
 31
0.0
  0
ARC
  5
627
100
AcDbEntity
  8
BORDER
  6
CONTINUOUS
 62
     3
100
AcDbCircle
 39
96.0
 10
26.457939
 20
23.4718
 30
0.0
 40
3.0
100
AcDbArc
 50
0.0
 51
180.0
  0
LINE
  5
628
100
AcDbEntity
  8
BORDER
  6
CONTINUOUS
 62
     3
100
AcDbLine
 39
96.0
 10
21.457939
 20
23.4718
 30
0.0
 11
23.332939
 21
23.4718
 31
0.0
  0
LINE
  5
629
100
AcDbEntity
  8
BORDER
  6
CONTINUOUS
 62
     3
100
AcDbLine
 39
96.0
 10
23.332939
 20
23.4718
 30
0.0
 11
21.457939
 21
23.4718
 31
0.0
  0
LINE
  5
62A
100
AcDbEntity
  8
BORDER
  6
CONTINUOUS
 62
     3
100
AcDbLine
 39
96.0
 10
31.457939
 20
23.4718
 30
0.0
 11
29.582939
 21
23.4718
 31
0.0
  0
LINE
  5
62B
100
AcDbEntity
  8
BORDER
  6
CONTINUOUS
 62
     1
100
AcDbLine
 39
90.0
 10
27.369069
 20
28.1001
 30
0.0
 11
27.402759
 21
28.1481
 31
0.0
  0
LINE
  5
62C
100
AcDbEntity
  8
BORDER
  6
CONTINUOUS
 62
     1
100
AcDbLine
 39
90.0
 10
27.054859
 20
29.4443
 30
0.0
 11
27.088799
 21
29.4923
 31
0.0
  0
LINE
  5
62D
100
AcDbEntity
  8
BORDER
  6
CONTINUOUS
 62
    15
100
AcDbLine
 39
89.99775
 10
27.476979
 20
30.028907
 30
0.0
 11
28.665949
 21
30.028907
 31
0.0
  0
LINE
  5
62E
100
AcDbEntity
  8
BORDER
  6
CONTINUOUS
 62
    15
100
AcDbLine
 39
89.99775
 10
28.665949
 20
30.732007
 30
0.0
 11
28.665949
 21
30.028907
 31
0.0
  0
LINE
  5
62F
100
AcDbEntity
  8
BORDER
  6
CONTINUOUS
 62
    15
100
AcDbLine
 39
89.99775
 10
27.828549
 20
30.732007
 30
0.0
 11
28.665949
 21
30.732007
 31
0.0
  0
ARC
  5
630
100
AcDbEntity
  8
BORDER
  6
CONTINUOUS
 62
    15
100
AcDbCircle
 39
89.99775
 10
27.476979
 20
30.732007
 30
0.0
 40
0.703107
100
AcDbArc
 50
180.0
 51
270.0
  0
TEXT
  5
631
100
AcDbEntity
  8
BORDER
  6
CONTINUOUS
 62
    14
100
AcDbText
 10
4.064303
 20
22.64854
 30
0.0
 40
1.125
  1
RASTRA WALL
  7
ROMAN
100
AcDbText
  0
LINE
  5
632
100
AcDbEntity
  8
BORDER
  6
CONTINUOUS
 62
    15
100
AcDbLine
 10
16.207927
 20
23.22994
 30
0.0
 11
20.757977
 21
19.64014
 31
0.0
  0
LINE
  5
633
100
AcDbEntity
  8
BORDER
  6
CONTINUOUS
 62
    14
100
AcDbLine
 10
15.432537
 20
23.22994
 30
0.0
 11
16.207927
 21
23.22994
 31
0.0
  0
LINE
  5
634
100
AcDbEntity
  8
BORDER
  6
CONTINUOUS
 62
    15
100
AcDbLine
 10
21.641277
 20
18.94334
 30
0.0
 11
20.525797
 21
19.34574
 31
0.0
  0
LINE
  5
635
100
AcDbEntity
  8
BORDER
  6
CONTINUOUS
 62
    15
100
AcDbLine
 10
21.641277
 20
18.94334
 30
0.0
 11
20.990147
 21
19.93464
 31
0.0
  0
LINE
  5
636
100
AcDbEntity
  8
BORDER
  6
CONTINUOUS
 62
    15
100
AcDbLine
 10
20.990147
 20
19.93464
 30
0.0
 11
20.525797
 21
19.34574
 31
0.0
  0
LINE
  5
637
100
AcDbEntity
  8
BORDER
  6
CONTINUOUS
 62
    15
100
AcDbLine
 39
96.0
 10
28.517269
 20
40.502407
 30
0.0
 11
25.517269
 21
40.502407
 31
0.0
  0
LINE
  5
638
100
AcDbEntity
  8
BORDER
  6
CONTINUOUS
 62
    15
100
AcDbLine
 39
96.0
 10
28.517269
 20
45.002407
 30
0.0
 11
28.517269
 21
40.002407
 31
0.0
  0
LINE
  5
639
100
AcDbEntity
  8
BORDER
  6
CONTINUOUS
 62
    15
100
AcDbLine
 39
96.0
 10
25.517269
 20
45.002407
 30
0.0
 11
28.517269
 21
45.002407
 31
0.0
  0
LINE
  5
63A
100
AcDbEntity
  8
BORDER
  6
CONTINUOUS
 62
    15
100
AcDbLine
 39
96.0
 10
25.517269
 20
40.002407
 30
0.0
 11
25.517269
 21
45.002407
 31
0.0
  0
LINE
  5
63B
100
AcDbEntity
  8
BORDER
  6
CONTINUOUS
 62
    15
100
AcDbLine
 39
96.0
 10
27.332939
 20
41.960707
 30
0.0
 11
27.332939
 21
42.460707
 31
0.0
  0
LINE
  5
63C
100
AcDbEntity
  8
BORDER
  6
CONTINUOUS
 62
    15
100
AcDbLine
 39
96.0
 10
26.832939
 20
42.460707
 30
0.0
 11
26.832939
 21
41.960707
 31
0.0
  0
ARC
  5
63D
100
AcDbEntity
  8
BORDER
  6
CONTINUOUS
 62
    15
100
AcDbCircle
 39
96.0
 10
27.082939
 20
42.460707
 30
0.0
 40
0.25
100
AcDbArc
 50
0.0
 51
180.0
  0
ARC
  5
63E
100
AcDbEntity
  8
BORDER
  6
CONTINUOUS
 62
    15
100
AcDbCircle
 39
96.0
 10
27.082939
 20
41.960707
 30
0.0
 40
0.25
100
AcDbArc
 50
180.0
 51
0.0
  0
LINE
  5
63F
100
AcDbEntity
  8
BORDER
  6
CONTINUOUS
 62
    15
100
AcDbLine
 39
96.0
 10
23.601479
 20
39.985707
 30
0.0
 11
23.601479
 21
38.485707
 31
0.0
  0
LINE
  5
640
100
AcDbEntity
  8
BORDER
  6
CONTINUOUS
 62
     3
100
AcDbLine
 39
96.0
 10
25.265309
 20
40.143307
 30
0.0
 11
25.265309
 21
41.738007
 31
0.0
  0
LINE
  5
641
100
AcDbEntity
  8
BORDER
  6
CONTINUOUS
 62
     3
100
AcDbLine
 39
96.0
 10
25.265309
 20
40.143307
 30
0.0
 11
26.800959
 21
40.143307
 31
0.0
  0
CIRCLE
  5
642
100
AcDbEntity
  8
BORDER
  6
CONTINUOUS
 62
    15
100
AcDbCircle
 39
96.0
 10
26.006519
 20
37.405676
 30
0.0
 40
0.375
  0
LINE
  5
643
100
AcDbEntity
  8
BORDER
  6
CONTINUOUS
 62
    15
100
AcDbLine
 39
96.0
 10
29.101479
 20
39.985707
 30
0.0
 11
23.601479
 21
38.485707
 31
0.0
  0
LINE
  5
644
100
AcDbEntity
  8
BORDER
  6
CONTINUOUS
 62
    15
100
AcDbLine
 39
96.0
 10
23.601479
 20
39.985707
 30
0.0
 11
29.101479
 21
38.485707
 31
0.0
  0
LINE
  5
645
100
AcDbEntity
  8
BORDER
  6
CONTINUOUS
 62
    15
100
AcDbLine
 39
96.0
 10
29.101479
 20
38.485707
 30
0.0
 11
29.101479
 21
39.985707
 31
0.0
  0
LINE
  5
646
100
AcDbEntity
  8
BORDER
  6
CONTINUOUS
 62
    15
100
AcDbLine
 39
96.0
 10
23.601479
 20
38.485707
 30
0.0
 11
29.101479
 21
38.485707
 31
0.0
  0
LINE
  5
647
100
AcDbEntity
  8
BORDER
  6
CONTINUOUS
 62
    15
100
AcDbLine
 39
96.0
 10
30.851479
 20
39.985707
 30
0.0
 11
23.601479
 21
39.985707
 31
0.0
  0
LINE
  5
648
100
AcDbEntity
  8
BORDER
  6
CONTINUOUS
 62
    10
100
AcDbLine
 39
96.0
 10
25.563159
 20
36.2112
 30
0.0
 11
25.549489
 21
36.1343
 31
0.0
  0
LINE
  5
649
100
AcDbEntity
  8
BORDER
  6
CONTINUOUS
 62
     3
100
AcDbLine
 39
96.0
 10
29.582939
 20
38.4719
 30
0.0
 11
31.457939
 21
38.4719
 31
0.0
  0
LINE
  5
64A
100
AcDbEntity
  8
BORDER
  6
CONTINUOUS
 62
     3
100
AcDbLine
 39
96.0
 10
21.457939
 20
38.4719
 30
0.0
 11
23.332939
 21
38.4719
 31
0.0
  0
LINE
  5
64B
100
AcDbEntity
  8
BORDER
  6
CONTINUOUS
 62
     2
100
AcDbLine
 39
96.0
 10
31.045339
 20
30.8361
 30
0.0
 11
31.045339
 21
30.8361
 31
0.0
  0
LINE
  5
64C
100
AcDbEntity
  8
BORDER
  6
CONTINUOUS
 62
     2
100
AcDbLine
 39
96.0
 10
30.576589
 20
30.8361
 30
0.0
 11
30.576589
 21
30.8361
 31
0.0
  0
LINE
  5
64D
100
AcDbEntity
  8
BORDER
  6
CONTINUOUS
 62
     2
100
AcDbLine
 39
96.0
 10
30.107839
 20
30.8361
 30
0.0
 11
30.107839
 21
30.8361
 31
0.0
  0
LINE
  5
64E
100
AcDbEntity
  8
BORDER
  6
CONTINUOUS
 62
     2
100
AcDbLine
 39
96.0
 10
29.639089
 20
30.8361
 30
0.0
 11
29.639089
 21
30.8361
 31
0.0
  0
LINE
  5
64F
100
AcDbEntity
  8
BORDER
  6
CONTINUOUS
 62
     2
100
AcDbLine
 39
96.0
 10
31.279719
 20
31.3049
 30
0.0
 11
31.279719
 21
31.3049
 31
0.0
  0
LINE
  5
650
100
AcDbEntity
  8
BORDER
  6
CONTINUOUS
 62
     2
100
AcDbLine
 39
96.0
 10
30.810969
 20
31.3049
 30
0.0
 11
30.810969
 21
31.3049
 31
0.0
  0
LINE
  5
651
100
AcDbEntity
  8
BORDER
  6
CONTINUOUS
 62
     2
100
AcDbLine
 39
96.0
 10
30.342219
 20
31.3049
 30
0.0
 11
30.342219
 21
31.3049
 31
0.0
  0
LINE
  5
652
100
AcDbEntity
  8
BORDER
  6
CONTINUOUS
 62
     2
100
AcDbLine
 39
96.0
 10
29.873469
 20
31.3049
 30
0.0
 11
29.873469
 21
31.3049
 31
0.0
  0
LINE
  5
653
100
AcDbEntity
  8
BORDER
  6
CONTINUOUS
 62
     2
100
AcDbLine
 39
96.0
 10
31.045339
 20
31.7736
 30
0.0
 11
31.045339
 21
31.7736
 31
0.0
  0
LINE
  5
654
100
AcDbEntity
  8
BORDER
  6
CONTINUOUS
 62
     2
100
AcDbLine
 39
96.0
 10
30.576589
 20
31.7736
 30
0.0
 11
30.576589
 21
31.7736
 31
0.0
  0
LINE
  5
655
100
AcDbEntity
  8
BORDER
  6
CONTINUOUS
 62
     2
100
AcDbLine
 39
96.0
 10
30.107839
 20
31.7736
 30
0.0
 11
30.107839
 21
31.7736
 31
0.0
  0
LINE
  5
656
100
AcDbEntity
  8
BORDER
  6
CONTINUOUS
 62
     2
100
AcDbLine
 39
96.0
 10
29.639089
 20
31.7736
 30
0.0
 11
29.639089
 21
31.7736
 31
0.0
  0
LINE
  5
657
100
AcDbEntity
  8
BORDER
  6
CONTINUOUS
 62
     2
100
AcDbLine
 39
96.0
 10
31.279719
 20
32.2424
 30
0.0
 11
31.279719
 21
32.2424
 31
0.0
  0
LINE
  5
658
100
AcDbEntity
  8
BORDER
  6
CONTINUOUS
 62
     2
100
AcDbLine
 39
96.0
 10
30.810969
 20
32.2424
 30
0.0
 11
30.810969
 21
32.2424
 31
0.0
  0
LINE
  5
659
100
AcDbEntity
  8
BORDER
  6
CONTINUOUS
 62
     2
100
AcDbLine
 39
96.0
 10
30.342219
 20
32.2424
 30
0.0
 11
30.342219
 21
32.2424
 31
0.0
  0
LINE
  5
65A
100
AcDbEntity
  8
BORDER
  6
CONTINUOUS
 62
     2
100
AcDbLine
 39
96.0
 10
29.873469
 20
32.2424
 30
0.0
 11
29.873469
 21
32.2424
 31
0.0
  0
LINE
  5
65B
100
AcDbEntity
  8
BORDER
  6
CONTINUOUS
 62
     2
100
AcDbLine
 39
96.0
 10
31.045339
 20
32.7111
 30
0.0
 11
31.045339
 21
32.7111
 31
0.0
  0
LINE
  5
65C
100
AcDbEntity
  8
BORDER
  6
CONTINUOUS
 62
     2
100
AcDbLine
 39
96.0
 10
30.576589
 20
32.7111
 30
0.0
 11
30.576589
 21
32.7111
 31
0.0
  0
LINE
  5
65D
100
AcDbEntity
  8
BORDER
  6
CONTINUOUS
 62
     2
100
AcDbLine
 39
96.0
 10
30.107839
 20
32.7111
 30
0.0
 11
30.107839
 21
32.7111
 31
0.0
  0
LINE
  5
65E
100
AcDbEntity
  8
BORDER
  6
CONTINUOUS
 62
     2
100
AcDbLine
 39
96.0
 10
29.639089
 20
32.7111
 30
0.0
 11
29.639089
 21
32.7111
 31
0.0
  0
LINE
  5
65F
100
AcDbEntity
  8
BORDER
  6
CONTINUOUS
 62
     2
100
AcDbLine
 39
96.0
 10
31.279719
 20
33.1799
 30
0.0
 11
31.279719
 21
33.1799
 31
0.0
  0
LINE
  5
660
100
AcDbEntity
  8
BORDER
  6
CONTINUOUS
 62
     2
100
AcDbLine
 39
96.0
 10
30.810969
 20
33.1799
 30
0.0
 11
30.810969
 21
33.1799
 31
0.0
  0
LINE
  5
661
100
AcDbEntity
  8
BORDER
  6
CONTINUOUS
 62
     2
100
AcDbLine
 39
96.0
 10
30.342219
 20
33.1799
 30
0.0
 11
30.342219
 21
33.1799
 31
0.0
  0
LINE
  5
662
100
AcDbEntity
  8
BORDER
  6
CONTINUOUS
 62
     2
100
AcDbLine
 39
96.0
 10
29.873469
 20
33.1799
 30
0.0
 11
29.873469
 21
33.1799
 31
0.0
  0
LINE
  5
663
100
AcDbEntity
  8
BORDER
  6
CONTINUOUS
 62
     2
100
AcDbLine
 39
96.0
 10
31.045339
 20
33.6486
 30
0.0
 11
31.045339
 21
33.6486
 31
0.0
  0
LINE
  5
664
100
AcDbEntity
  8
BORDER
  6
CONTINUOUS
 62
     2
100
AcDbLine
 39
96.0
 10
30.576589
 20
33.6486
 30
0.0
 11
30.576589
 21
33.6486
 31
0.0
  0
LINE
  5
665
100
AcDbEntity
  8
BORDER
  6
CONTINUOUS
 62
     2
100
AcDbLine
 39
96.0
 10
30.107839
 20
33.6486
 30
0.0
 11
30.107839
 21
33.6486
 31
0.0
  0
LINE
  5
666
100
AcDbEntity
  8
BORDER
  6
CONTINUOUS
 62
     2
100
AcDbLine
 39
96.0
 10
29.639089
 20
33.6486
 30
0.0
 11
29.639089
 21
33.6486
 31
0.0
  0
LINE
  5
667
100
AcDbEntity
  8
BORDER
  6
CONTINUOUS
 62
     2
100
AcDbLine
 39
96.0
 10
31.279719
 20
34.1174
 30
0.0
 11
31.279719
 21
34.1174
 31
0.0
  0
LINE
  5
668
100
AcDbEntity
  8
BORDER
  6
CONTINUOUS
 62
     2
100
AcDbLine
 39
96.0
 10
30.810969
 20
34.1174
 30
0.0
 11
30.810969
 21
34.1174
 31
0.0
  0
LINE
  5
669
100
AcDbEntity
  8
BORDER
  6
CONTINUOUS
 62
     2
100
AcDbLine
 39
96.0
 10
30.342219
 20
34.1174
 30
0.0
 11
30.342219
 21
34.1174
 31
0.0
  0
LINE
  5
66A
100
AcDbEntity
  8
BORDER
  6
CONTINUOUS
 62
     2
100
AcDbLine
 39
96.0
 10
29.873469
 20
34.1174
 30
0.0
 11
29.873469
 21
34.1174
 31
0.0
  0
LINE
  5
66B
100
AcDbEntity
  8
BORDER
  6
CONTINUOUS
 62
     2
100
AcDbLine
 39
96.0
 10
31.045339
 20
34.5861
 30
0.0
 11
31.045339
 21
34.5861
 31
0.0
  0
LINE
  5
66C
100
AcDbEntity
  8
BORDER
  6
CONTINUOUS
 62
     2
100
AcDbLine
 39
96.0
 10
30.576589
 20
34.5861
 30
0.0
 11
30.576589
 21
34.5861
 31
0.0
  0
LINE
  5
66D
100
AcDbEntity
  8
BORDER
  6
CONTINUOUS
 62
     2
100
AcDbLine
 39
96.0
 10
30.107839
 20
34.5861
 30
0.0
 11
30.107839
 21
34.5861
 31
0.0
  0
LINE
  5
66E
100
AcDbEntity
  8
BORDER
  6
CONTINUOUS
 62
     2
100
AcDbLine
 39
96.0
 10
29.639089
 20
34.5861
 30
0.0
 11
29.639089
 21
34.5861
 31
0.0
  0
LINE
  5
66F
100
AcDbEntity
  8
BORDER
  6
CONTINUOUS
 62
     2
100
AcDbLine
 39
96.0
 10
31.279719
 20
35.0549
 30
0.0
 11
31.279719
 21
35.0549
 31
0.0
  0
LINE
  5
670
100
AcDbEntity
  8
BORDER
  6
CONTINUOUS
 62
     2
100
AcDbLine
 39
96.0
 10
30.810969
 20
35.0549
 30
0.0
 11
30.810969
 21
35.0549
 31
0.0
  0
LINE
  5
671
100
AcDbEntity
  8
BORDER
  6
CONTINUOUS
 62
     2
100
AcDbLine
 39
96.0
 10
30.342219
 20
35.0549
 30
0.0
 11
30.342219
 21
35.0549
 31
0.0
  0
LINE
  5
672
100
AcDbEntity
  8
BORDER
  6
CONTINUOUS
 62
     2
100
AcDbLine
 39
96.0
 10
29.873469
 20
35.0549
 30
0.0
 11
29.873469
 21
35.0549
 31
0.0
  0
LINE
  5
673
100
AcDbEntity
  8
BORDER
  6
CONTINUOUS
 62
     2
100
AcDbLine
 39
96.0
 10
31.045339
 20
35.5236
 30
0.0
 11
31.045339
 21
35.5236
 31
0.0
  0
LINE
  5
674
100
AcDbEntity
  8
BORDER
  6
CONTINUOUS
 62
     2
100
AcDbLine
 39
96.0
 10
30.576589
 20
35.5236
 30
0.0
 11
30.576589
 21
35.5236
 31
0.0
  0
LINE
  5
675
100
AcDbEntity
  8
BORDER
  6
CONTINUOUS
 62
     2
100
AcDbLine
 39
96.0
 10
30.107839
 20
35.5236
 30
0.0
 11
30.107839
 21
35.5236
 31
0.0
  0
LINE
  5
676
100
AcDbEntity
  8
BORDER
  6
CONTINUOUS
 62
     2
100
AcDbLine
 39
96.0
 10
29.639089
 20
35.5236
 30
0.0
 11
29.639089
 21
35.5236
 31
0.0
  0
LINE
  5
677
100
AcDbEntity
  8
BORDER
  6
CONTINUOUS
 62
     2
100
AcDbLine
 39
96.0
 10
31.279719
 20
35.9924
 30
0.0
 11
31.279719
 21
35.9924
 31
0.0
  0
LINE
  5
678
100
AcDbEntity
  8
BORDER
  6
CONTINUOUS
 62
     2
100
AcDbLine
 39
96.0
 10
30.810969
 20
35.9924
 30
0.0
 11
30.810969
 21
35.9924
 31
0.0
  0
LINE
  5
679
100
AcDbEntity
  8
BORDER
  6
CONTINUOUS
 62
     2
100
AcDbLine
 39
96.0
 10
30.342219
 20
35.9924
 30
0.0
 11
30.342219
 21
35.9924
 31
0.0
  0
LINE
  5
67A
100
AcDbEntity
  8
BORDER
  6
CONTINUOUS
 62
     2
100
AcDbLine
 39
96.0
 10
29.873469
 20
35.9924
 30
0.0
 11
29.873469
 21
35.9924
 31
0.0
  0
LINE
  5
67B
100
AcDbEntity
  8
BORDER
  6
CONTINUOUS
 62
     2
100
AcDbLine
 39
96.0
 10
31.045339
 20
36.4611
 30
0.0
 11
31.045339
 21
36.4611
 31
0.0
  0
LINE
  5
67C
100
AcDbEntity
  8
BORDER
  6
CONTINUOUS
 62
     2
100
AcDbLine
 39
96.0
 10
30.576589
 20
36.4611
 30
0.0
 11
30.576589
 21
36.4611
 31
0.0
  0
LINE
  5
67D
100
AcDbEntity
  8
BORDER
  6
CONTINUOUS
 62
     2
100
AcDbLine
 39
96.0
 10
30.107839
 20
36.4611
 30
0.0
 11
30.107839
 21
36.4611
 31
0.0
  0
LINE
  5
67E
100
AcDbEntity
  8
BORDER
  6
CONTINUOUS
 62
     2
100
AcDbLine
 39
96.0
 10
29.639089
 20
36.4611
 30
0.0
 11
29.639089
 21
36.4611
 31
0.0
  0
LINE
  5
67F
100
AcDbEntity
  8
BORDER
  6
CONTINUOUS
 62
     2
100
AcDbLine
 39
96.0
 10
31.279719
 20
36.9299
 30
0.0
 11
31.279719
 21
36.9299
 31
0.0
  0
LINE
  5
680
100
AcDbEntity
  8
BORDER
  6
CONTINUOUS
 62
     2
100
AcDbLine
 39
96.0
 10
30.810969
 20
36.9299
 30
0.0
 11
30.810969
 21
36.9299
 31
0.0
  0
LINE
  5
681
100
AcDbEntity
  8
BORDER
  6
CONTINUOUS
 62
     2
100
AcDbLine
 39
96.0
 10
30.342219
 20
36.9299
 30
0.0
 11
30.342219
 21
36.9299
 31
0.0
  0
LINE
  5
682
100
AcDbEntity
  8
BORDER
  6
CONTINUOUS
 62
     2
100
AcDbLine
 39
96.0
 10
29.873469
 20
36.9299
 30
0.0
 11
29.873469
 21
36.9299
 31
0.0
  0
LINE
  5
683
100
AcDbEntity
  8
BORDER
  6
CONTINUOUS
 62
     2
100
AcDbLine
 39
96.0
 10
31.045339
 20
37.3986
 30
0.0
 11
31.045339
 21
37.3986
 31
0.0
  0
LINE
  5
684
100
AcDbEntity
  8
BORDER
  6
CONTINUOUS
 62
     2
100
AcDbLine
 39
96.0
 10
30.576589
 20
37.3986
 30
0.0
 11
30.576589
 21
37.3986
 31
0.0
  0
LINE
  5
685
100
AcDbEntity
  8
BORDER
  6
CONTINUOUS
 62
     2
100
AcDbLine
 39
96.0
 10
30.107839
 20
37.3986
 30
0.0
 11
30.107839
 21
37.3986
 31
0.0
  0
LINE
  5
686
100
AcDbEntity
  8
BORDER
  6
CONTINUOUS
 62
     2
100
AcDbLine
 39
96.0
 10
29.639089
 20
37.3986
 30
0.0
 11
29.639089
 21
37.3986
 31
0.0
  0
LINE
  5
687
100
AcDbEntity
  8
BORDER
  6
CONTINUOUS
 62
     2
100
AcDbLine
 39
96.0
 10
31.279719
 20
37.8674
 30
0.0
 11
31.279719
 21
37.8674
 31
0.0
  0
LINE
  5
688
100
AcDbEntity
  8
BORDER
  6
CONTINUOUS
 62
     2
100
AcDbLine
 39
96.0
 10
30.810969
 20
37.8674
 30
0.0
 11
30.810969
 21
37.8674
 31
0.0
  0
LINE
  5
689
100
AcDbEntity
  8
BORDER
  6
CONTINUOUS
 62
     2
100
AcDbLine
 39
96.0
 10
30.342219
 20
37.8674
 30
0.0
 11
30.342219
 21
37.8674
 31
0.0
  0
LINE
  5
68A
100
AcDbEntity
  8
BORDER
  6
CONTINUOUS
 62
     2
100
AcDbLine
 39
96.0
 10
29.873469
 20
37.8674
 30
0.0
 11
29.873469
 21
37.8674
 31
0.0
  0
LINE
  5
68B
100
AcDbEntity
  8
BORDER
  6
CONTINUOUS
 62
     2
100
AcDbLine
 39
96.0
 10
31.045339
 20
38.3361
 30
0.0
 11
31.045339
 21
38.3361
 31
0.0
  0
LINE
  5
68C
100
AcDbEntity
  8
BORDER
  6
CONTINUOUS
 62
     2
100
AcDbLine
 39
96.0
 10
30.576589
 20
38.3361
 30
0.0
 11
30.576589
 21
38.3361
 31
0.0
  0
LINE
  5
68D
100
AcDbEntity
  8
BORDER
  6
CONTINUOUS
 62
     2
100
AcDbLine
 39
96.0
 10
30.107839
 20
38.3361
 30
0.0
 11
30.107839
 21
38.3361
 31
0.0
  0
LINE
  5
68E
100
AcDbEntity
  8
BORDER
  6
CONTINUOUS
 62
     2
100
AcDbLine
 39
96.0
 10
29.639089
 20
38.3361
 30
0.0
 11
29.639089
 21
38.3361
 31
0.0
  0
LINE
  5
68F
100
AcDbEntity
  8
BORDER
  6
CONTINUOUS
 62
     2
100
AcDbLine
 39
96.0
 10
23.076589
 20
30.8361
 30
0.0
 11
23.076589
 21
30.8361
 31
0.0
  0
LINE
  5
690
100
AcDbEntity
  8
BORDER
  6
CONTINUOUS
 62
     2
100
AcDbLine
 39
96.0
 10
22.607839
 20
30.8361
 30
0.0
 11
22.607839
 21
30.8361
 31
0.0
  0
LINE
  5
691
100
AcDbEntity
  8
BORDER
  6
CONTINUOUS
 62
     2
100
AcDbLine
 39
96.0
 10
22.139089
 20
30.8361
 30
0.0
 11
22.139089
 21
30.8361
 31
0.0
  0
LINE
  5
692
100
AcDbEntity
  8
BORDER
  6
CONTINUOUS
 62
     2
100
AcDbLine
 39
96.0
 10
21.670339
 20
30.8361
 30
0.0
 11
21.670339
 21
30.8361
 31
0.0
  0
LINE
  5
693
100
AcDbEntity
  8
BORDER
  6
CONTINUOUS
 62
     2
100
AcDbLine
 39
96.0
 10
23.310969
 20
31.3049
 30
0.0
 11
23.310969
 21
31.3049
 31
0.0
  0
LINE
  5
694
100
AcDbEntity
  8
BORDER
  6
CONTINUOUS
 62
     2
100
AcDbLine
 39
96.0
 10
22.842219
 20
31.3049
 30
0.0
 11
22.842219
 21
31.3049
 31
0.0
  0
LINE
  5
695
100
AcDbEntity
  8
BORDER
  6
CONTINUOUS
 62
     2
100
AcDbLine
 39
96.0
 10
22.373469
 20
31.3049
 30
0.0
 11
22.373469
 21
31.3049
 31
0.0
  0
LINE
  5
696
100
AcDbEntity
  8
BORDER
  6
CONTINUOUS
 62
     2
100
AcDbLine
 39
96.0
 10
21.904719
 20
31.3049
 30
0.0
 11
21.904719
 21
31.3049
 31
0.0
  0
LINE
  5
697
100
AcDbEntity
  8
BORDER
  6
CONTINUOUS
 62
     2
100
AcDbLine
 39
96.0
 10
23.076589
 20
31.7736
 30
0.0
 11
23.076589
 21
31.7736
 31
0.0
  0
LINE
  5
698
100
AcDbEntity
  8
BORDER
  6
CONTINUOUS
 62
     2
100
AcDbLine
 39
96.0
 10
22.607839
 20
31.7736
 30
0.0
 11
22.607839
 21
31.7736
 31
0.0
  0
LINE
  5
699
100
AcDbEntity
  8
BORDER
  6
CONTINUOUS
 62
     2
100
AcDbLine
 39
96.0
 10
22.139089
 20
31.7736
 30
0.0
 11
22.139089
 21
31.7736
 31
0.0
  0
LINE
  5
69A
100
AcDbEntity
  8
BORDER
  6
CONTINUOUS
 62
     2
100
AcDbLine
 39
96.0
 10
21.670339
 20
31.7736
 30
0.0
 11
21.670339
 21
31.7736
 31
0.0
  0
LINE
  5
69B
100
AcDbEntity
  8
BORDER
  6
CONTINUOUS
 62
     2
100
AcDbLine
 39
96.0
 10
23.310969
 20
32.2424
 30
0.0
 11
23.310969
 21
32.2424
 31
0.0
  0
LINE
  5
69C
100
AcDbEntity
  8
BORDER
  6
CONTINUOUS
 62
     2
100
AcDbLine
 39
96.0
 10
22.842219
 20
32.2424
 30
0.0
 11
22.842219
 21
32.2424
 31
0.0
  0
LINE
  5
69D
100
AcDbEntity
  8
BORDER
  6
CONTINUOUS
 62
     2
100
AcDbLine
 39
96.0
 10
22.373469
 20
32.2424
 30
0.0
 11
22.373469
 21
32.2424
 31
0.0
  0
LINE
  5
69E
100
AcDbEntity
  8
BORDER
  6
CONTINUOUS
 62
     2
100
AcDbLine
 39
96.0
 10
21.904719
 20
32.2424
 30
0.0
 11
21.904719
 21
32.2424
 31
0.0
  0
LINE
  5
69F
100
AcDbEntity
  8
BORDER
  6
CONTINUOUS
 62
     2
100
AcDbLine
 39
96.0
 10
23.076589
 20
32.7111
 30
0.0
 11
23.076589
 21
32.7111
 31
0.0
  0
LINE
  5
6A0
100
AcDbEntity
  8
BORDER
  6
CONTINUOUS
 62
     2
100
AcDbLine
 39
96.0
 10
22.607839
 20
32.7111
 30
0.0
 11
22.607839
 21
32.7111
 31
0.0
  0
LINE
  5
6A1
100
AcDbEntity
  8
BORDER
  6
CONTINUOUS
 62
     2
100
AcDbLine
 39
96.0
 10
22.139089
 20
32.7111
 30
0.0
 11
22.139089
 21
32.7111
 31
0.0
  0
LINE
  5
6A2
100
AcDbEntity
  8
BORDER
  6
CONTINUOUS
 62
     2
100
AcDbLine
 39
96.0
 10
21.670339
 20
32.7111
 30
0.0
 11
21.670339
 21
32.7111
 31
0.0
  0
LINE
  5
6A3
100
AcDbEntity
  8
BORDER
  6
CONTINUOUS
 62
     2
100
AcDbLine
 39
96.0
 10
23.310969
 20
33.1799
 30
0.0
 11
23.310969
 21
33.1799
 31
0.0
  0
LINE
  5
6A4
100
AcDbEntity
  8
BORDER
  6
CONTINUOUS
 62
     2
100
AcDbLine
 39
96.0
 10
22.842219
 20
33.1799
 30
0.0
 11
22.842219
 21
33.1799
 31
0.0
  0
LINE
  5
6A5
100
AcDbEntity
  8
BORDER
  6
CONTINUOUS
 62
     2
100
AcDbLine
 39
96.0
 10
22.373469
 20
33.1799
 30
0.0
 11
22.373469
 21
33.1799
 31
0.0
  0
LINE
  5
6A6
100
AcDbEntity
  8
BORDER
  6
CONTINUOUS
 62
     2
100
AcDbLine
 39
96.0
 10
21.904719
 20
33.1799
 30
0.0
 11
21.904719
 21
33.1799
 31
0.0
  0
LINE
  5
6A7
100
AcDbEntity
  8
BORDER
  6
CONTINUOUS
 62
     2
100
AcDbLine
 39
96.0
 10
23.076589
 20
33.6486
 30
0.0
 11
23.076589
 21
33.6486
 31
0.0
  0
LINE
  5
6A8
100
AcDbEntity
  8
BORDER
  6
CONTINUOUS
 62
     2
100
AcDbLine
 39
96.0
 10
22.607839
 20
33.6486
 30
0.0
 11
22.607839
 21
33.6486
 31
0.0
  0
LINE
  5
6A9
100
AcDbEntity
  8
BORDER
  6
CONTINUOUS
 62
     2
100
AcDbLine
 39
96.0
 10
22.139089
 20
33.6486
 30
0.0
 11
22.139089
 21
33.6486
 31
0.0
  0
LINE
  5
6AA
100
AcDbEntity
  8
BORDER
  6
CONTINUOUS
 62
     2
100
AcDbLine
 39
96.0
 10
21.670339
 20
33.6486
 30
0.0
 11
21.670339
 21
33.6486
 31
0.0
  0
LINE
  5
6AB
100
AcDbEntity
  8
BORDER
  6
CONTINUOUS
 62
     2
100
AcDbLine
 39
96.0
 10
23.310969
 20
34.1174
 30
0.0
 11
23.310969
 21
34.1174
 31
0.0
  0
LINE
  5
6AC
100
AcDbEntity
  8
BORDER
  6
CONTINUOUS
 62
     2
100
AcDbLine
 39
96.0
 10
22.842219
 20
34.1174
 30
0.0
 11
22.842219
 21
34.1174
 31
0.0
  0
LINE
  5
6AD
100
AcDbEntity
  8
BORDER
  6
CONTINUOUS
 62
     2
100
AcDbLine
 39
96.0
 10
22.373469
 20
34.1174
 30
0.0
 11
22.373469
 21
34.1174
 31
0.0
  0
LINE
  5
6AE
100
AcDbEntity
  8
BORDER
  6
CONTINUOUS
 62
     2
100
AcDbLine
 39
96.0
 10
21.904719
 20
34.1174
 30
0.0
 11
21.904719
 21
34.1174
 31
0.0
  0
LINE
  5
6AF
100
AcDbEntity
  8
BORDER
  6
CONTINUOUS
 62
     2
100
AcDbLine
 39
96.0
 10
23.076589
 20
34.5861
 30
0.0
 11
23.076589
 21
34.5861
 31
0.0
  0
LINE
  5
6B0
100
AcDbEntity
  8
BORDER
  6
CONTINUOUS
 62
     2
100
AcDbLine
 39
96.0
 10
22.607839
 20
34.5861
 30
0.0
 11
22.607839
 21
34.5861
 31
0.0
  0
LINE
  5
6B1
100
AcDbEntity
  8
BORDER
  6
CONTINUOUS
 62
     2
100
AcDbLine
 39
96.0
 10
22.139089
 20
34.5861
 30
0.0
 11
22.139089
 21
34.5861
 31
0.0
  0
LINE
  5
6B2
100
AcDbEntity
  8
BORDER
  6
CONTINUOUS
 62
     2
100
AcDbLine
 39
96.0
 10
21.670339
 20
34.5861
 30
0.0
 11
21.670339
 21
34.5861
 31
0.0
  0
LINE
  5
6B3
100
AcDbEntity
  8
BORDER
  6
CONTINUOUS
 62
     2
100
AcDbLine
 39
96.0
 10
23.310969
 20
35.0549
 30
0.0
 11
23.310969
 21
35.0549
 31
0.0
  0
LINE
  5
6B4
100
AcDbEntity
  8
BORDER
  6
CONTINUOUS
 62
     2
100
AcDbLine
 39
96.0
 10
22.842219
 20
35.0549
 30
0.0
 11
22.842219
 21
35.0549
 31
0.0
  0
LINE
  5
6B5
100
AcDbEntity
  8
BORDER
  6
CONTINUOUS
 62
     2
100
AcDbLine
 39
96.0
 10
22.373469
 20
35.0549
 30
0.0
 11
22.373469
 21
35.0549
 31
0.0
  0
LINE
  5
6B6
100
AcDbEntity
  8
BORDER
  6
CONTINUOUS
 62
     2
100
AcDbLine
 39
96.0
 10
21.904719
 20
35.0549
 30
0.0
 11
21.904719
 21
35.0549
 31
0.0
  0
LINE
  5
6B7
100
AcDbEntity
  8
BORDER
  6
CONTINUOUS
 62
     2
100
AcDbLine
 39
96.0
 10
23.076589
 20
35.5236
 30
0.0
 11
23.076589
 21
35.5236
 31
0.0
  0
LINE
  5
6B8
100
AcDbEntity
  8
BORDER
  6
CONTINUOUS
 62
     2
100
AcDbLine
 39
96.0
 10
22.607839
 20
35.5236
 30
0.0
 11
22.607839
 21
35.5236
 31
0.0
  0
LINE
  5
6B9
100
AcDbEntity
  8
BORDER
  6
CONTINUOUS
 62
     2
100
AcDbLine
 39
96.0
 10
22.139089
 20
35.5236
 30
0.0
 11
22.139089
 21
35.5236
 31
0.0
  0
LINE
  5
6BA
100
AcDbEntity
  8
BORDER
  6
CONTINUOUS
 62
     2
100
AcDbLine
 39
96.0
 10
21.670339
 20
35.5236
 30
0.0
 11
21.670339
 21
35.5236
 31
0.0
  0
LINE
  5
6BB
100
AcDbEntity
  8
BORDER
  6
CONTINUOUS
 62
     2
100
AcDbLine
 39
96.0
 10
23.310969
 20
35.9924
 30
0.0
 11
23.310969
 21
35.9924
 31
0.0
  0
LINE
  5
6BC
100
AcDbEntity
  8
BORDER
  6
CONTINUOUS
 62
     2
100
AcDbLine
 39
96.0
 10
22.842219
 20
35.9924
 30
0.0
 11
22.842219
 21
35.9924
 31
0.0
  0
LINE
  5
6BD
100
AcDbEntity
  8
BORDER
  6
CONTINUOUS
 62
     2
100
AcDbLine
 39
96.0
 10
22.373469
 20
35.9924
 30
0.0
 11
22.373469
 21
35.9924
 31
0.0
  0
LINE
  5
6BE
100
AcDbEntity
  8
BORDER
  6
CONTINUOUS
 62
     2
100
AcDbLine
 39
96.0
 10
21.904719
 20
35.9924
 30
0.0
 11
21.904719
 21
35.9924
 31
0.0
  0
LINE
  5
6BF
100
AcDbEntity
  8
BORDER
  6
CONTINUOUS
 62
     2
100
AcDbLine
 39
96.0
 10
23.076589
 20
36.4611
 30
0.0
 11
23.076589
 21
36.4611
 31
0.0
  0
LINE
  5
6C0
100
AcDbEntity
  8
BORDER
  6
CONTINUOUS
 62
     2
100
AcDbLine
 39
96.0
 10
22.607839
 20
36.4611
 30
0.0
 11
22.607839
 21
36.4611
 31
0.0
  0
LINE
  5
6C1
100
AcDbEntity
  8
BORDER
  6
CONTINUOUS
 62
     2
100
AcDbLine
 39
96.0
 10
22.139089
 20
36.4611
 30
0.0
 11
22.139089
 21
36.4611
 31
0.0
  0
LINE
  5
6C2
100
AcDbEntity
  8
BORDER
  6
CONTINUOUS
 62
     2
100
AcDbLine
 39
96.0
 10
21.670339
 20
36.4611
 30
0.0
 11
21.670339
 21
36.4611
 31
0.0
  0
LINE
  5
6C3
100
AcDbEntity
  8
BORDER
  6
CONTINUOUS
 62
     2
100
AcDbLine
 39
96.0
 10
23.310969
 20
36.9299
 30
0.0
 11
23.310969
 21
36.9299
 31
0.0
  0
LINE
  5
6C4
100
AcDbEntity
  8
BORDER
  6
CONTINUOUS
 62
     2
100
AcDbLine
 39
96.0
 10
22.842219
 20
36.9299
 30
0.0
 11
22.842219
 21
36.9299
 31
0.0
  0
LINE
  5
6C5
100
AcDbEntity
  8
BORDER
  6
CONTINUOUS
 62
     2
100
AcDbLine
 39
96.0
 10
22.373469
 20
36.9299
 30
0.0
 11
22.373469
 21
36.9299
 31
0.0
  0
LINE
  5
6C6
100
AcDbEntity
  8
BORDER
  6
CONTINUOUS
 62
     2
100
AcDbLine
 39
96.0
 10
21.904719
 20
36.9299
 30
0.0
 11
21.904719
 21
36.9299
 31
0.0
  0
LINE
  5
6C7
100
AcDbEntity
  8
BORDER
  6
CONTINUOUS
 62
     2
100
AcDbLine
 39
96.0
 10
23.076589
 20
37.3986
 30
0.0
 11
23.076589
 21
37.3986
 31
0.0
  0
LINE
  5
6C8
100
AcDbEntity
  8
BORDER
  6
CONTINUOUS
 62
     2
100
AcDbLine
 39
96.0
 10
22.607839
 20
37.3986
 30
0.0
 11
22.607839
 21
37.3986
 31
0.0
  0
LINE
  5
6C9
100
AcDbEntity
  8
BORDER
  6
CONTINUOUS
 62
     2
100
AcDbLine
 39
96.0
 10
22.139089
 20
37.3986
 30
0.0
 11
22.139089
 21
37.3986
 31
0.0
  0
LINE
  5
6CA
100
AcDbEntity
  8
BORDER
  6
CONTINUOUS
 62
     2
100
AcDbLine
 39
96.0
 10
21.670339
 20
37.3986
 30
0.0
 11
21.670339
 21
37.3986
 31
0.0
  0
LINE
  5
6CB
100
AcDbEntity
  8
BORDER
  6
CONTINUOUS
 62
     2
100
AcDbLine
 39
96.0
 10
23.310969
 20
37.8674
 30
0.0
 11
23.310969
 21
37.8674
 31
0.0
  0
LINE
  5
6CC
100
AcDbEntity
  8
BORDER
  6
CONTINUOUS
 62
     2
100
AcDbLine
 39
96.0
 10
22.842219
 20
37.8674
 30
0.0
 11
22.842219
 21
37.8674
 31
0.0
  0
LINE
  5
6CD
100
AcDbEntity
  8
BORDER
  6
CONTINUOUS
 62
     2
100
AcDbLine
 39
96.0
 10
22.373469
 20
37.8674
 30
0.0
 11
22.373469
 21
37.8674
 31
0.0
  0
LINE
  5
6CE
100
AcDbEntity
  8
BORDER
  6
CONTINUOUS
 62
     2
100
AcDbLine
 39
96.0
 10
21.904719
 20
37.8674
 30
0.0
 11
21.904719
 21
37.8674
 31
0.0
  0
LINE
  5
6CF
100
AcDbEntity
  8
BORDER
  6
CONTINUOUS
 62
     2
100
AcDbLine
 39
96.0
 10
23.076589
 20
38.3361
 30
0.0
 11
23.076589
 21
38.3361
 31
0.0
  0
LINE
  5
6D0
100
AcDbEntity
  8
BORDER
  6
CONTINUOUS
 62
     2
100
AcDbLine
 39
96.0
 10
22.607839
 20
38.3361
 30
0.0
 11
22.607839
 21
38.3361
 31
0.0
  0
LINE
  5
6D1
100
AcDbEntity
  8
BORDER
  6
CONTINUOUS
 62
     1
100
AcDbLine
 39
96.0
 10
28.364919
 20
35.6057
 30
0.0
 11
28.375659
 21
35.6673
 31
0.0
  0
LINE
  5
6D2
100
AcDbEntity
  8
BORDER
  6
CONTINUOUS
 62
     1
100
AcDbLine
 39
96.0
 10
25.469169
 20
33.5778
 30
0.0
 11
25.479909
 21
33.6393
 31
0.0
  0
LINE
  5
6D3
100
AcDbEntity
  8
BORDER
  6
CONTINUOUS
 62
     1
100
AcDbLine
 39
96.0
 10
25.035089
 20
31.1157
 30
0.0
 11
25.045829
 21
31.1773
 31
0.0
  0
LINE
  5
6D4
100
AcDbEntity
  8
BORDER
  6
CONTINUOUS
 62
     1
100
AcDbLine
 39
96.0
 10
23.441339
 20
36.4738
 30
0.0
 11
23.452079
 21
36.5354
 31
0.0
  0
LINE
  5
6D5
100
AcDbEntity
  8
BORDER
  6
CONTINUOUS
 62
     1
100
AcDbLine
 39
96.0
 10
26.784839
 20
31.0975
 30
0.0
 11
26.820729
 21
31.1487
 31
0.0
  0
LINE
  5
6D6
100
AcDbEntity
  8
BORDER
  6
CONTINUOUS
 62
     1
100
AcDbLine
 39
96.0
 10
26.171069
 20
34.5792
 30
0.0
 11
26.206959
 21
34.6304
 31
0.0
  0
LINE
  5
6D7
100
AcDbEntity
  8
BORDER
  6
CONTINUOUS
 62
     1
100
AcDbLine
 39
96.0
 10
24.736989
 20
32.5313
 30
0.0
 11
24.772879
 21
32.5826
 31
0.0
  0
LINE
  5
6D8
100
AcDbEntity
  8
BORDER
  6
CONTINUOUS
 62
     1
100
AcDbLine
 39
96.0
 10
24.122979
 20
36.0132
 30
0.0
 11
24.158869
 21
36.0644
 31
0.0
  0
LINE
  5
6D9
100
AcDbEntity
  8
BORDER
  6
CONTINUOUS
 62
     1
100
AcDbLine
 39
96.0
 10
29.420099
 20
31.3179
 30
0.0
 11
29.478939
 21
31.3392
 31
0.0
  0
LINE
  5
6DA
100
AcDbEntity
  8
BORDER
  6
CONTINUOUS
 62
     1
100
AcDbLine
 39
96.0
 10
29.096609
 20
33.6671
 30
0.0
 11
29.155449
 21
33.6885
 31
0.0
  0
LINE
  5
6DB
100
AcDbEntity
  8
BORDER
  6
CONTINUOUS
 62
     1
100
AcDbLine
 39
96.0
 10
23.866389
 20
31.957
 30
0.0
 11
23.925219
 21
31.9784
 31
0.0
  0
LINE
  5
6DC
100
AcDbEntity
  8
BORDER
  6
CONTINUOUS
 62
     1
100
AcDbLine
 39
96.0
 10
25.360769
 20
35.1613
 30
0.0
 11
25.419609
 21
35.1827
 31
0.0
  0
LINE
  5
6DD
100
AcDbEntity
  8
BORDER
  6
CONTINUOUS
 62
     3
100
AcDbLine
 39
96.0
 10
29.724499
 20
38.4719
 30
0.0
 11
22.776499
 21
38.4719
 31
0.0
  0
ARC
  5
6DE
100
AcDbEntity
  8
BORDER
  6
CONTINUOUS
 62
     3
100
AcDbCircle
 39
96.0
 10
26.457939
 20
38.4719
 30
0.0
 40
3.0
100
AcDbArc
 50
180.0
 51
0.0
  0
LINE
  5
6DF
100
AcDbEntity
  8
BORDER
  6
CONTINUOUS
 62
     3
100
AcDbLine
 39
96.0
 10
31.457939
 20
38.4719
 30
0.0
 11
29.582939
 21
38.4719
 31
0.0
  0
LINE
  5
6E0
100
AcDbEntity
  8
BORDER
  6
CONTINUOUS
 62
    15
100
AcDbLine
 39
96.0
 10
24.270439
 20
47.680607
 30
0.0
 11
24.270439
 21
44.691107
 31
0.0
  0
LINE
  5
6E1
100
AcDbEntity
  8
BORDER
  6
CONTINUOUS
 62
    11
100
AcDbLine
 39
96.0
 10
23.579519
 20
40.002907
 30
0.0
 11
25.067069
 21
46.813107
 31
0.0
  0
LINE
  5
6E2
100
AcDbEntity
  8
BORDER
  6
CONTINUOUS
 62
    11
100
AcDbLine
 39
96.0
 10
23.579519
 20
46.317207
 30
0.0
 11
23.579519
 21
40.002907
 31
0.0
  0
LINE
  5
6E3
100
AcDbEntity
  8
BORDER
  6
CONTINUOUS
 62
    11
100
AcDbLine
 39
96.0
 10
25.079519
 20
40.002907
 30
0.0
 11
25.079519
 21
46.817207
 31
0.0
  0
LINE
  5
6E4
100
AcDbEntity
  8
BORDER
  6
CONTINUOUS
 62
     1
100
AcDbLine
 39
90.0
 10
28.199879
 20
39.606507
 30
0.0
 11
28.207209
 21
39.649707
 31
0.0
  0
LINE
  5
6E5
100
AcDbEntity
  8
BORDER
  6
CONTINUOUS
 62
     1
100
AcDbLine
 39
90.0
 10
24.242849
 20
39.548307
 30
0.0
 11
24.267999
 21
39.584107
 31
0.0
  0
LINE
  5
6E6
100
AcDbEntity
  8
BORDER
  6
CONTINUOUS
 62
     1
100
AcDbLine
 39
90.0
 10
25.196949
 20
31.6609
 30
0.0
 11
25.206959
 21
31.7186
 31
0.0
  0
LINE
  5
6E7
100
AcDbEntity
  8
BORDER
  6
CONTINUOUS
 62
     1
100
AcDbLine
 39
90.0
 10
24.101489
 20
32.4496
 30
0.0
 11
24.156909
 21
32.4697
 31
0.0
  0
LINE
  5
6E8
100
AcDbEntity
  8
BORDER
  6
CONTINUOUS
 62
    14
100
AcDbLine
 39
90.0
 10
6.613459
 20
31.521207
 30
0.0
 11
5.207209
 21
40.193107
 31
0.0
  0
LINE
  5
6E9
100
AcDbEntity
  8
BORDER
  6
CONTINUOUS
 62
    14
100
AcDbLine
 39
90.0
 10
6.613459
 20
40.661807
 30
0.0
 11
5.207209
 21
31.521207
 31
0.0
  0
LINE
  5
6EA
100
AcDbEntity
  8
BORDER
  6
CONTINUOUS
 62
    14
100
AcDbLine
 39
90.0
 10
5.207209
 20
31.521207
 30
0.0
 11
6.613459
 21
31.521207
 31
0.0
  0
LINE
  5
6EB
100
AcDbEntity
  8
BORDER
  6
CONTINUOUS
 62
    14
100
AcDbLine
 39
90.0
 10
6.613459
 20
40.661807
 30
0.0
 11
6.613459
 21
31.521207
 31
0.0
  0
LINE
  5
6EC
100
AcDbEntity
  8
BORDER
  6
CONTINUOUS
 62
    14
100
AcDbLine
 39
90.0
 10
5.207209
 20
40.934307
 30
0.0
 11
5.207209
 21
31.521207
 31
0.0
  0
LINE
  5
6ED
100
AcDbEntity
  8
BORDER
  6
CONTINUOUS
 62
     1
100
AcDbLine
 39
90.0
 10
31.611989
 20
48.994707
 30
0.0
 11
32.723809
 21
50.106507
 31
0.0
  0
LINE
  5
6EE
100
AcDbEntity
  8
BORDER
  6
CONTINUOUS
 62
     1
100
AcDbLine
 39
90.0
 10
28.815609
 20
48.062607
 30
0.0
 11
29.927419
 21
49.174407
 31
0.0
  0
LINE
  5
6EF
100
AcDbEntity
  8
BORDER
  6
CONTINUOUS
 62
     1
100
AcDbLine
 39
90.0
 10
26.018969
 20
47.130307
 30
0.0
 11
27.130549
 21
48.242207
 31
0.0
  0
LINE
  5
6F0
100
AcDbEntity
  8
BORDER
  6
CONTINUOUS
 62
     1
100
AcDbLine
 39
90.0
 10
23.222099
 20
46.198207
 30
0.0
 11
24.333919
 21
47.309907
 31
0.0
  0
LINE
  5
6F1
100
AcDbEntity
  8
BORDER
  6
CONTINUOUS
 62
     1
100
AcDbLine
 39
90.0
 10
20.425709
 20
45.265907
 30
0.0
 11
21.537529
 21
46.377807
 31
0.0
  0
LINE
  5
6F2
100
AcDbEntity
  8
BORDER
  6
CONTINUOUS
 62
     1
100
AcDbLine
 39
90.0
 10
17.629079
 20
44.333707
 30
0.0
 11
18.740649
 21
45.445507
 31
0.0
  0
LINE
  5
6F3
100
AcDbEntity
  8
BORDER
  6
CONTINUOUS
 62
     1
100
AcDbLine
 39
90.0
 10
14.832209
 20
43.401607
 30
0.0
 11
15.944019
 21
44.513307
 31
0.0
  0
LINE
  5
6F4
100
AcDbEntity
  8
BORDER
  6
CONTINUOUS
 62
     1
100
AcDbLine
 39
90.0
 10
12.035819
 20
42.469307
 30
0.0
 11
13.147639
 21
43.581207
 31
0.0
  0
LINE
  5
6F5
100
AcDbEntity
  8
BORDER
  6
CONTINUOUS
 62
     1
100
AcDbLine
 39
90.0
 10
9.239189
 20
41.537107
 30
0.0
 11
10.350759
 21
42.648907
 31
0.0
  0
LINE
  5
6F6
100
AcDbEntity
  8
BORDER
  6
CONTINUOUS
 62
     1
100
AcDbLine
 39
90.0
 10
6.442309
 20
40.605007
 30
0.0
 11
7.554129
 21
41.716807
 31
0.0
  0
LINE
  5
6F7
100
AcDbEntity
  8
BORDER
  6
CONTINUOUS
 62
    15
100
AcDbLine
 39
89.99775
 10
27.476979
 20
40.502407
 30
0.0
 11
27.476979
 21
31.083607
 31
0.0
  0
TEXT
  5
6F8
100
AcDbEntity
  8
BORDER
  6
CONTINUOUS
 62
    14
100
AcDbText
 10
-0.160714
 20
44.224707
 30
0.0
 40
1.125
  1
2 X BLOCK'G
  7
ROMAN
100
AcDbText
  0
TEXT
  5
6F9
100
AcDbEntity
  8
BORDER
  6
CONTINUOUS
 62
    14
100
AcDbText
 10
2.585629
 20
49.591307
 30
0.0
 40
1.125
  1
BOUND. NAIL
  7
ROMAN
100
AcDbText
  0
LINE
  5
6FA
100
AcDbEntity
  8
BORDER
  6
CONTINUOUS
 62
     1
100
AcDbLine
 39
47.9988
 10
27.423269
 20
40.846207
 30
0.0
 11
27.423269
 21
40.502407
 31
0.0
  0
LINE
  5
6FB
100
AcDbEntity
  8
BORDER
  6
CONTINUOUS
 62
     1
100
AcDbLine
 39
47.9988
 10
26.611259
 20
40.846207
 30
0.0
 11
27.423269
 21
40.846207
 31
0.0
  0
LINE
  5
6FC
100
AcDbEntity
  8
BORDER
  6
CONTINUOUS
 62
     1
100
AcDbLine
 39
47.9988
 10
26.767269
 20
41.192107
 30
0.0
 11
26.767269
 21
40.846207
 31
0.0
  0
LINE
  5
6FD
100
AcDbEntity
  8
BORDER
  6
CONTINUOUS
 62
     1
100
AcDbLine
 39
47.9988
 10
27.267269
 20
41.192107
 30
0.0
 11
26.767269
 21
41.192107
 31
0.0
  0
LINE
  5
6FE
100
AcDbEntity
  8
BORDER
  6
CONTINUOUS
 62
     1
100
AcDbLine
 39
47.9988
 10
27.267269
 20
40.846207
 30
0.0
 11
27.267269
 21
41.192107
 31
0.0
  0
LINE
  5
6FF
100
AcDbEntity
  8
BORDER
  6
CONTINUOUS
 62
     1
100
AcDbLine
 39
47.9988
 10
27.253589
 20
40.753407
 30
0.0
 11
27.324149
 21
40.846207
 31
0.0
  0
LINE
  5
700
100
AcDbEntity
  8
BORDER
  6
CONTINUOUS
 62
     1
100
AcDbLine
 39
47.9988
 10
27.253589
 20
40.753407
 30
0.0
 11
27.183039
 21
40.846207
 31
0.0
  0
LINE
  5
701
100
AcDbEntity
  8
BORDER
  6
CONTINUOUS
 62
     1
100
AcDbLine
 39
47.9988
 10
26.773859
 20
40.753407
 30
0.0
 11
26.844169
 21
40.846207
 31
0.0
  0
LINE
  5
702
100
AcDbEntity
  8
BORDER
  6
CONTINUOUS
 62
     1
100
AcDbLine
 39
47.9988
 10
26.773859
 20
40.753407
 30
0.0
 11
26.703059
 21
40.846207
 31
0.0
  0
LINE
  5
703
100
AcDbEntity
  8
BORDER
  6
CONTINUOUS
 62
     1
100
AcDbLine
 39
47.9988
 10
27.253589
 20
40.502407
 30
0.0
 11
27.253589
 21
40.753407
 31
0.0
  0
LINE
  5
704
100
AcDbEntity
  8
BORDER
  6
CONTINUOUS
 62
     1
100
AcDbLine
 39
47.9988
 10
26.773859
 20
40.502407
 30
0.0
 11
26.773859
 21
40.753407
 31
0.0
  0
LINE
  5
705
100
AcDbEntity
  8
BORDER
  6
CONTINUOUS
 62
     1
100
AcDbLine
 39
47.9988
 10
26.611259
 20
40.502407
 30
0.0
 11
26.611259
 21
40.846207
 31
0.0
  0
TEXT
  5
706
100
AcDbEntity
  8
BORDER
  6
CONTINUOUS
 62
    15
100
AcDbText
 10
12.547357
 20
52.044407
 30
0.0
 40
1.125
  1
SHEAR TRANSFER
  7
ROMAN
100
AcDbText
  0
LINE
  5
707
100
AcDbEntity
  8
BORDER
  6
CONTINUOUS
 62
    15
100
AcDbLine
 10
12.277519
 20
44.691107
 30
0.0
 11
22.423519
 21
42.773807
 31
0.0
  0
LINE
  5
708
100
AcDbEntity
  8
BORDER
  6
CONTINUOUS
 62
    15
100
AcDbLine
 10
15.201099
 20
50.006807
 30
0.0
 11
23.246269
 21
47.663507
 31
0.0
  0
TEXT
  5
709
100
AcDbEntity
  8
BORDER
  6
CONTINUOUS
 62
    14
100
AcDbText
 10
15.152029
 20
54.845907
 30
0.0
 40
1.125
  1
ROOF SHEATHING
  7
ROMAN
100
AcDbText
  0
LINE
  5
70A
100
AcDbEntity
  8
BORDER
  6
CONTINUOUS
 62
    15
100
AcDbLine
 10
11.302909
 20
44.779707
 30
0.0
 11
12.277519
 21
44.691107
 31
0.0
  0
LINE
  5
70B
100
AcDbEntity
  8
BORDER
  6
CONTINUOUS
 62
    15
100
AcDbLine
 10
13.783619
 20
50.006807
 30
0.0
 11
15.201099
 21
50.006807
 31
0.0
  0
LINE
  5
70C
100
AcDbEntity
  8
BORDER
  6
CONTINUOUS
 62
    15
100
AcDbLine
 10
29.502859
 20
52.635007
 30
0.0
 11
25.650809
 21
42.523507
 31
0.0
  0
LINE
  5
70D
100
AcDbEntity
  8
BORDER
  6
CONTINUOUS
 62
    15
100
AcDbLine
 10
23.528979
 20
42.564907
 30
0.0
 11
22.493099
 21
43.142307
 31
0.0
  0
LINE
  5
70E
100
AcDbEntity
  8
BORDER
  6
CONTINUOUS
 62
    15
100
AcDbLine
 10
23.528979
 20
42.564907
 30
0.0
 11
22.353939
 21
42.405307
 31
0.0
  0
LINE
  5
70F
100
AcDbEntity
  8
BORDER
  6
CONTINUOUS
 62
    15
100
AcDbLine
 10
24.326349
 20
47.348907
 30
0.0
 11
23.351249
 21
48.023507
 31
0.0
  0
LINE
  5
710
100
AcDbEntity
  8
BORDER
  6
CONTINUOUS
 62
    15
100
AcDbLine
 10
24.326349
 20
47.348907
 30
0.0
 11
23.141289
 21
47.303407
 31
0.0
  0
LINE
  5
711
100
AcDbEntity
  8
BORDER
  6
CONTINUOUS
 62
    15
100
AcDbLine
 10
22.353939
 20
42.405307
 30
0.0
 11
22.493099
 21
43.142307
 31
0.0
  0
LINE
  5
712
100
AcDbEntity
  8
BORDER
  6
CONTINUOUS
 62
    15
100
AcDbLine
 10
23.141289
 20
47.303407
 30
0.0
 11
23.351249
 21
48.023507
 31
0.0
  0
LINE
  5
713
100
AcDbEntity
  8
BORDER
  6
CONTINUOUS
 62
    15
100
AcDbLine
 10
25.250419
 20
41.472107
 30
0.0
 11
26.001149
 21
42.390007
 31
0.0
  0
LINE
  5
714
100
AcDbEntity
  8
BORDER
  6
CONTINUOUS
 62
    15
100
AcDbLine
 10
25.250419
 20
41.472107
 30
0.0
 11
25.300469
 21
42.657007
 31
0.0
  0
LINE
  5
715
100
AcDbEntity
  8
BORDER
  6
CONTINUOUS
 62
    15
100
AcDbLine
 10
25.300469
 20
42.657007
 30
0.0
 11
26.001149
 21
42.390007
 31
0.0
  0
LINE
  5
716
100
AcDbEntity
  8
BORDER
  6
CONTINUOUS
 62
    14
100
AcDbLine
 10
30.276299
 20
54.873607
 30
0.0
 11
31.882009
 21
54.818307
 31
0.0
  0
LINE
  5
717
100
AcDbEntity
  8
BORDER
  6
CONTINUOUS
 62
    15
100
AcDbLine
 10
27.022389
 20
52.635007
 30
0.0
 11
29.502859
 21
52.635007
 31
0.0
  0
TEXT
  5
718
100
AcDbEntity
  8
BORDER
  6
CONTINUOUS
 62
    15
100
AcDbText
 10
37.110415
 20
28.710853
 30
0.0
 40
1.125
  1
2 X 6 PL. WITH ANCHOR BOLTS
  7
ROMAN
100
AcDbText
  0
TEXT
  5
719
100
AcDbEntity
  8
BORDER
  6
CONTINUOUS
 62
    15
100
AcDbText
 10
37.110415
 20
26.908404
 30
0.0
 40
1.125
  1
(MIN.-1/2"%%C A.B. @ 45" O.C.)
  7
ROMAN
100
AcDbText
  0
TEXT
  5
71A
100
AcDbEntity
  8
BORDER
  6
CONTINUOUS
 62
    15
100
AcDbText
 10
37.164899
 20
17.122395
 30
0.0
 40
1.125
  1
HORIZ. REINF.(MIN. #4 @ 30" O.C.)
  7
ROMAN
100
AcDbText
  0
TEXT
  5
71B
100
AcDbEntity
  8
BORDER
  6
CONTINUOUS
 62
    15
100
AcDbText
 10
37.329057
 20
7.596055
 30
0.0
 40
1.125
  1
VERT. REINF.(MIN. #4 @ 30" O.C.)
  7
ROMAN
100
AcDbText
  0
TEXT
  5
71C
100
AcDbEntity
  8
BORDER
  6
CONTINUOUS
 62
    15
100
AcDbText
 10
36.903436
 20
15.244857
 30
0.0
 40
1.124955
  1
REQUIRED, PER DESIGN)
  7
ROMAN
100
AcDbText
  0
TEXT
  5
71D
100
AcDbEntity
  8
BORDER
  6
CONTINUOUS
 62
    15
100
AcDbText
 10
37.087297
 20
5.860196
 30
0.0
 40
1.124955
  1
REQUIRED, PER DESIGN)
  7
ROMAN
100
AcDbText
  0
LINE
  5
71E
100
AcDbEntity
  8
BORDER
  6
CONTINUOUS
 62
    14
100
AcDbLine
 39
90.0
 10
34.792409
 20
44.043107
 30
0.0
 11
59.899589
 21
44.116307
 31
0.0
  0
LINE
  5
71F
100
AcDbEntity
  8
BORDER
  6
CONTINUOUS
 62
     1
100
AcDbLine
 39
90.0
 10
59.578539
 20
58.316907
 30
0.0
 11
59.899589
 21
58.638207
 31
0.0
  0
LINE
  5
720
100
AcDbEntity
  8
BORDER
  6
CONTINUOUS
 62
     1
100
AcDbLine
 39
90.0
 10
56.781669
 20
57.384607
 30
0.0
 11
57.892989
 21
58.496307
 31
0.0
  0
LINE
  5
721
100
AcDbEntity
  8
BORDER
  6
CONTINUOUS
 62
     1
100
AcDbLine
 39
90.0
 10
53.984789
 20
56.452407
 30
0.0
 11
55.097099
 21
57.564207
 31
0.0
  0
LINE
  5
722
100
AcDbEntity
  8
BORDER
  6
CONTINUOUS
 62
     1
100
AcDbLine
 39
90.0
 10
51.188649
 20
55.520207
 30
0.0
 11
52.300219
 21
56.632107
 31
0.0
  0
LINE
  5
723
100
AcDbEntity
  8
BORDER
  6
CONTINUOUS
 62
     1
100
AcDbLine
 39
90.0
 10
48.391779
 20
54.588007
 30
0.0
 11
49.503109
 21
55.699807
 31
0.0
  0
LINE
  5
724
100
AcDbEntity
  8
BORDER
  6
CONTINUOUS
 62
     1
100
AcDbLine
 39
90.0
 10
45.594899
 20
53.655907
 30
0.0
 11
46.707209
 21
54.767607
 31
0.0
  0
LINE
  5
725
100
AcDbEntity
  8
BORDER
  6
CONTINUOUS
 62
     1
100
AcDbLine
 39
90.0
 10
42.798759
 20
52.723607
 30
0.0
 11
43.910329
 21
53.835407
 31
0.0
  0
LINE
  5
726
100
AcDbEntity
  8
BORDER
  6
CONTINUOUS
 62
     1
100
AcDbLine
 39
90.0
 10
40.001879
 20
51.791407
 30
0.0
 11
41.113209
 21
52.903207
 31
0.0
  0
LINE
  5
727
100
AcDbEntity
  8
BORDER
  6
CONTINUOUS
 62
     1
100
AcDbLine
 39
90.0
 10
37.205499
 20
50.859207
 30
0.0
 11
38.317309
 21
51.970907
 31
0.0
  0
LINE
  5
728
100
AcDbEntity
  8
BORDER
  6
CONTINUOUS
 62
     1
100
AcDbLine
 39
90.0
 10
34.408869
 20
49.927007
 30
0.0
 11
35.520439
 21
51.038807
 31
0.0
  0
LINE
  5
729
100
AcDbEntity
  8
BORDER
  6
CONTINUOUS
 62
    14
100
AcDbLine
 39
90.0
 10
57.269699
 20
46.777107
 30
0.0
 11
59.899589
 21
45.917307
 31
0.0
  0
LINE
  5
72A
100
AcDbEntity
  8
BORDER
  6
CONTINUOUS
 62
    14
100
AcDbLine
 39
90.0
 10
62.142019
 20
50.819207
 30
0.0
 11
57.269699
 21
46.777107
 31
0.0
  0
LINE
  5
72B
100
AcDbEntity
  8
BORDER
  6
CONTINUOUS
 62
    14
100
AcDbLine
 39
90.0
 10
60.038259
 20
51.649807
 30
0.0
 11
62.142019
 21
50.819207
 31
0.0
  0
LINE
  5
72C
100
AcDbEntity
  8
BORDER
  6
CONTINUOUS
 62
    14
100
AcDbLine
 39
90.0
 10
59.899589
 20
51.649807
 30
0.0
 11
59.899589
 21
60.017807
 31
0.0
  0
LINE
  5
72D
100
AcDbEntity
  8
BORDER
  6
CONTINUOUS
 62
    14
100
AcDbLine
 39
90.0
 10
59.899589
 20
39.227807
 30
0.0
 11
59.899589
 21
45.917307
 31
0.0
  0
TEXT
  5
72E
100
AcDbEntity
  8
BORDER
  6
CONTINUOUS
 62
    15
100
AcDbText
 10
37.996749
 20
33.6423
 30
0.0
 40
1.125
  1
WALL/ROOF ANCHORAGE
  7
ROMAN
100
AcDbText
  0
LINE
  5
72F
100
AcDbEntity
  8
BORDER
  6
CONTINUOUS
 62
    14
100
AcDbLine
 10
37.308279
 20
57.692707
 30
0.0
 11
44.155689
 21
53.976307
 31
0.0
  0
LINE
  5
730
100
AcDbEntity
  8
BORDER
  6
CONTINUOUS
 62
    14
100
AcDbLine
 10
36.256519
 20
51.274507
 30
0.0
 11
35.657649
 21
52.211607
 31
0.0
  0
LINE
  5
731
100
AcDbEntity
  8
BORDER
  6
CONTINUOUS
 62
    14
100
AcDbLine
 10
36.256519
 20
51.274507
 30
0.0
 11
35.215509
 21
51.665307
 31
0.0
  0
LINE
  5
732
100
AcDbEntity
  8
BORDER
  6
CONTINUOUS
 62
    14
100
AcDbLine
 10
35.215509
 20
51.665307
 30
0.0
 11
35.657649
 21
52.211607
 31
0.0
  0
LINE
  5
733
100
AcDbEntity
  8
BORDER
  6
CONTINUOUS
 62
    14
100
AcDbLine
 10
35.813409
 20
57.692707
 30
0.0
 11
37.308279
 21
57.692707
 31
0.0
  0
LINE
  5
734
100
AcDbEntity
  8
BORDER
  6
CONTINUOUS
 62
    14
100
AcDbLine
 10
45.115649
 20
53.539907
 30
0.0
 11
44.300709
 21
54.296407
 31
0.0
  0
LINE
  5
735
100
AcDbEntity
  8
BORDER
  6
CONTINUOUS
 62
    14
100
AcDbLine
 10
45.115649
 20
53.539907
 30
0.0
 11
44.009939
 21
53.656207
 31
0.0
  0
LINE
  5
736
100
AcDbEntity
  8
BORDER
  6
CONTINUOUS
 62
    14
100
AcDbLine
 10
44.009939
 20
53.656207
 30
0.0
 11
44.300709
 21
54.296407
 31
0.0
  0
ENDBLK
  5
738
100
AcDbEntity
  8
0
100
AcDbBlockEnd
  0
ENDSEC
  0
SECTION
  2
ENTITIES
  0
TEXT
  5
36
100
AcDbEntity
  8
DRAWING
100
AcDbText
 10
6.035367
 20
5.0518
 30
0.0
 40
2.5
  1
ROOF TRUSS TO WALL ANCHORAGE
  7
TITLE
100
AcDbText
  0
LEADER
  5
73B
100
AcDbEntity
  8
0
  6
CONTINUOUS
 62
     6
100
AcDbLeader
  3
STANDARD
 76
     3
 10
32.950475
 20
37.961067
 30
0.0
 10
41.875849
 20
32.394766
 30
0.0
 10
43.665117
 20
32.394766
 30
0.0
 77
   256
211
-1.0
221
0.0
231
0.0
1001
ACAD
1000
DSTYLE
1002
{
1070
    78
1070
     1
1070
   140
1040
6.0
1070
    73
1070
     0
1070
    77
1070
     1
1070
   173
1070
     1
1070
    42
1040
6.0
1070
    44
1040
0.0
1070
    43
1040
24.0
1070
   176
1070
     6
1070
   141
1040
3.0
1070
     7
1000
_CLOSEDBLANK
1070
     6
1000
_CLOSEDBLANK
1070
    41
1040
1.5
1002
}
  0
LEADER
  5
73C
100
AcDbEntity
  8
DIM_TEXT
 62
     6
100
AcDbLeader
  3
STANDARD
 76
     3
 10
33.047519
 20
28.282232
 30
0.0
 10
42.040006
 20
22.868426
 30
0.0
 10
43.829275
 20
22.868426
 30
0.0
 77
     6
211
-1.0
221
0.0
231
0.0
1001
ACAD
1000
DSTYLE
1002
{
1070
    78
1070
     1
1070
   140
1040
6.0
1070
    73
1070
     0
1070
    77
1070
     1
1070
   173
1070
     1
1070
    42
1040
6.0
1070
    44
1040
0.0
1070
    43
1040
24.0
1070
   176
1070
     6
1070
   141
1040
3.0
1070
     7
1000
_CLOSEDBLANK
1070
     6
1000
_CLOSEDBLANK
1070
    41
1040
1.5
1002
}
  0
LEADER
  5
73D
100
AcDbEntity
  8
0
  6
CONTINUOUS
 62
     6
100
AcDbLeader
  3
STANDARD
 76
     3
 10
35.309074
 20
58.064713
 30
0.0
 10
42.757505
 20
48.917581
 30
0.0
 10
44.398685
 20
48.917581
 30
0.0
 77
   256
1001
ACAD
1000
DSTYLE
1002
{
1070
    78
1070
     1
1070
   140
1040
6.0
1070
    73
1070
     0
1070
    77
1070
     1
1070
   173
1070
     1
1070
    42
1040
6.0
1070
    44
1040
0.0
1070
    43
1040
24.0
1070
   176
1070
     6
1070
   141
1040
3.0
1070
     7
1000
_CLOSEDBLANK
1070
     6
1000
_CLOSEDBLANK
1070
    41
1040
1.5
1002
}
  0
LEADER
  5
73E
100
AcDbEntity
  8
0
  6
CONTINUOUS
 62
     6
100
AcDbLeader
  3
STANDARD
 76
     3
 10
34.614729
 20
53.396522
 30
0.0
 10
42.06316
 20
44.24939
 30
0.0
 10
43.70434
 20
44.24939
 30
0.0
 77
   256
1001
ACAD
1000
DSTYLE
1002
{
1070
    78
1070
     1
1070
   140
1040
6.0
1070
    73
1070
     0
1070
    77
1070
     1
1070
   173
1070
     1
1070
    42
1040
6.0
1070
    44
1040
0.0
1070
    43
1040
24.0
1070
   176
1070
     6
1070
   141
1040
3.0
1070
     7
1000
_CLOSEDBLANK
1070
     6
1000
_CLOSEDBLANK
1070
    41
1040
1.5
1002
}
  0
LINE
  5
73F
100
AcDbEntity
  8
BORDER
  6
CONTINUOUS
 62
     7
100
AcDbLine
 39
90.0
 10
30.23937
 20
54.90904
 30
0.0
 11
66.53698
 21
55.01484
 31
0.0
  0
LINE
  5
740
100
AcDbEntity
  8
BORDER
  6
CONTINUOUS
 62
     6
100
AcDbLine
 10
38.51989
 20
69.74164
 30
0.0
 11
42.07458
 21
66.86184
 31
0.0
  0
TEXT
  5
741
100
AcDbEntity
  8
DIM_TEXT
100
AcDbText
 10
26.72888
 20
72.56074
 30
0.0
 40
1.125
  1
PREFAB. TRUSSES
 51
15.0
  7
INFO
100
AcDbText
  0
LINE
  5
742
100
AcDbEntity
  8
BORDER
  6
CONTINUOUS
 62
     3
100
AcDbLine
 39
90.0
 10
66.43444
 20
73.68354
 30
0.0
 11
11.84509
 21
55.48704
 31
0.0
  0
LINE
  5
743
100
AcDbEntity
  8
BORDER
  6
CONTINUOUS
 62
     7
100
AcDbLine
 39
90.0
 10
66.53747
 20
74.08844
 30
0.0
 11
11.84509
 21
55.85764
 31
0.0
  0
LINE
  5
744
100
AcDbEntity
  8
BORDER
  6
CONTINUOUS
 62
     7
100
AcDbLine
 39
90.0
 10
66.53747
 20
73.34744
 30
0.0
 11
11.84509
 21
55.11644
 31
0.0
  0
LINE
  5
745
100
AcDbEntity
  8
BORDER
  6
CONTINUOUS
 62
     7
100
AcDbLine
 39
90.0
 10
66.53747
 20
67.33554
 30
0.0
 11
13.25158
 21
49.57344
 31
0.0
  0
LINE
  5
746
100
AcDbEntity
  8
BORDER
  6
CONTINUOUS
 62
     7
100
AcDbLine
 39
96.0
 10
33.10803
 20
52.906433
 30
0.0
 11
33.10803
 21
16.872333
 31
0.0
  0
LINE
  5
747
100
AcDbEntity
  8
BORDER
  6
CONTINUOUS
 62
     3
100
AcDbLine
 39
96.0
 10
36.22082
 20
38.395133
 30
0.0
 11
36.22082
 21
53.395233
 31
0.0
  0
LINE
  5
748
100
AcDbEntity
  8
BORDER
  6
CONTINUOUS
 62
     3
100
AcDbLine
 39
96.0
 10
29.97082
 20
53.395233
 30
0.0
 11
29.97082
 21
38.395133
 31
0.0
  0
LINE
  5
749
100
AcDbEntity
  8
BORDER
  6
CONTINUOUS
 62
     3
100
AcDbLine
 39
96.0
 10
28.09582
 20
53.395233
 30
0.0
 11
28.09582
 21
38.395133
 31
0.0
  0
LINE
  5
74A
100
AcDbEntity
  8
BORDER
  6
CONTINUOUS
 62
     3
100
AcDbLine
 39
96.0
 10
38.09582
 20
38.395133
 30
0.0
 11
38.09582
 21
53.395233
 31
0.0
  0
LINE
  5
74B
100
AcDbEntity
  8
BORDER
  6
CONTINUOUS
 62
     7
100
AcDbLine
 39
89.99775
 10
33.41174
 20
55.42574
 30
0.0
 11
33.41174
 21
45.65534
 31
0.0
  0
ARC
  5
74C
100
AcDbEntity
  8
BORDER
  6
CONTINUOUS
 62
     7
100
AcDbCircle
 39
89.99775
 10
34.46643
 20
46.00694
 30
0.0
 40
0.351554
100
AcDbArc
 50
180.0
 51
270.0
  0
CIRCLE
  5
74D
100
AcDbEntity
  8
BORDER
  6
CONTINUOUS
 62
     7
100
AcDbCircle
 39
96.0
 10
32.6444
 20
37.969592
 30
0.0
 40
0.375
  0
CIRCLE
  5
74E
100
AcDbEntity
  8
BORDER
  6
CONTINUOUS
 62
     7
100
AcDbCircle
 39
96.0
 10
32.6444
 20
23.085892
 30
0.0
 40
0.375
  0
LINE
  5
74F
100
AcDbEntity
  8
BORDER
  6
CONTINUOUS
 62
     3
100
AcDbLine
 39
96.0
 10
33.90539
 20
14.923333
 30
0.0
 11
34.88
 21
16.872333
 31
0.0
  0
LINE
  5
750
100
AcDbEntity
  8
BORDER
  6
CONTINUOUS
 62
     3
100
AcDbLine
 39
96.0
 10
32.31066
 20
18.821433
 30
0.0
 11
33.90539
 21
14.923333
 31
0.0
  0
LINE
  5
751
100
AcDbEntity
  8
BORDER
  6
CONTINUOUS
 62
     3
100
AcDbLine
 39
96.0
 10
31.24768
 20
16.872333
 30
0.0
 11
32.31066
 21
18.821433
 31
0.0
  0
LINE
  5
752
100
AcDbEntity
  8
BORDER
  6
CONTINUOUS
 62
     3
100
AcDbLine
 39
96.0
 10
34.88
 20
16.872333
 30
0.0
 11
38.95519
 21
16.872333
 31
0.0
  0
LINE
  5
753
100
AcDbEntity
  8
BORDER
  6
CONTINUOUS
 62
     3
100
AcDbLine
 39
96.0
 10
26.99523
 20
16.872333
 30
0.0
 11
31.24768
 21
16.872333
 31
0.0
  0
LINE
  5
754
100
AcDbEntity
  8
BORDER
  6
CONTINUOUS
 62
     2
100
AcDbLine
 39
96.0
 10
37.9176
 20
17.165733
 30
0.0
 11
37.9176
 21
17.165733
 31
0.0
  0
LINE
  5
755
100
AcDbEntity
  8
BORDER
  6
CONTINUOUS
 62
     2
100
AcDbLine
 39
96.0
 10
37.44885
 20
17.165733
 30
0.0
 11
37.44885
 21
17.165733
 31
0.0
  0
LINE
  5
756
100
AcDbEntity
  8
BORDER
  6
CONTINUOUS
 62
     2
100
AcDbLine
 39
96.0
 10
36.9801
 20
17.165733
 30
0.0
 11
36.9801
 21
17.165733
 31
0.0
  0
LINE
  5
757
100
AcDbEntity
  8
BORDER
  6
CONTINUOUS
 62
     2
100
AcDbLine
 39
96.0
 10
36.51135
 20
17.165733
 30
0.0
 11
36.51135
 21
17.165733
 31
0.0
  0
LINE
  5
758
100
AcDbEntity
  8
BORDER
  6
CONTINUOUS
 62
     2
100
AcDbLine
 39
96.0
 10
37.68322
 20
17.634433
 30
0.0
 11
37.68322
 21
17.634433
 31
0.0
  0
LINE
  5
759
100
AcDbEntity
  8
BORDER
  6
CONTINUOUS
 62
     2
100
AcDbLine
 39
96.0
 10
37.21447
 20
17.634433
 30
0.0
 11
37.21447
 21
17.634433
 31
0.0
  0
LINE
  5
75A
100
AcDbEntity
  8
BORDER
  6
CONTINUOUS
 62
     2
100
AcDbLine
 39
96.0
 10
36.74572
 20
17.634433
 30
0.0
 11
36.74572
 21
17.634433
 31
0.0
  0
LINE
  5
75B
100
AcDbEntity
  8
BORDER
  6
CONTINUOUS
 62
     2
100
AcDbLine
 39
96.0
 10
36.27697
 20
17.634433
 30
0.0
 11
36.27697
 21
17.634433
 31
0.0
  0
LINE
  5
75C
100
AcDbEntity
  8
BORDER
  6
CONTINUOUS
 62
     2
100
AcDbLine
 39
96.0
 10
37.9176
 20
18.103233
 30
0.0
 11
37.9176
 21
18.103233
 31
0.0
  0
LINE
  5
75D
100
AcDbEntity
  8
BORDER
  6
CONTINUOUS
 62
     2
100
AcDbLine
 39
96.0
 10
37.44885
 20
18.103233
 30
0.0
 11
37.44885
 21
18.103233
 31
0.0
  0
LINE
  5
75E
100
AcDbEntity
  8
BORDER
  6
CONTINUOUS
 62
     2
100
AcDbLine
 39
96.0
 10
36.9801
 20
18.103233
 30
0.0
 11
36.9801
 21
18.103233
 31
0.0
  0
LINE
  5
75F
100
AcDbEntity
  8
BORDER
  6
CONTINUOUS
 62
     2
100
AcDbLine
 39
96.0
 10
36.51135
 20
18.103233
 30
0.0
 11
36.51135
 21
18.103233
 31
0.0
  0
LINE
  5
760
100
AcDbEntity
  8
BORDER
  6
CONTINUOUS
 62
     2
100
AcDbLine
 39
96.0
 10
37.68322
 20
18.571933
 30
0.0
 11
37.68322
 21
18.571933
 31
0.0
  0
LINE
  5
761
100
AcDbEntity
  8
BORDER
  6
CONTINUOUS
 62
     2
100
AcDbLine
 39
96.0
 10
37.21447
 20
18.571933
 30
0.0
 11
37.21447
 21
18.571933
 31
0.0
  0
LINE
  5
762
100
AcDbEntity
  8
BORDER
  6
CONTINUOUS
 62
     2
100
AcDbLine
 39
96.0
 10
36.74572
 20
18.571933
 30
0.0
 11
36.74572
 21
18.571933
 31
0.0
  0
LINE
  5
763
100
AcDbEntity
  8
BORDER
  6
CONTINUOUS
 62
     2
100
AcDbLine
 39
96.0
 10
36.27697
 20
18.571933
 30
0.0
 11
36.27697
 21
18.571933
 31
0.0
  0
LINE
  5
764
100
AcDbEntity
  8
BORDER
  6
CONTINUOUS
 62
     2
100
AcDbLine
 39
96.0
 10
37.9176
 20
19.040733
 30
0.0
 11
37.9176
 21
19.040733
 31
0.0
  0
LINE
  5
765
100
AcDbEntity
  8
BORDER
  6
CONTINUOUS
 62
     2
100
AcDbLine
 39
96.0
 10
37.44885
 20
19.040733
 30
0.0
 11
37.44885
 21
19.040733
 31
0.0
  0
LINE
  5
766
100
AcDbEntity
  8
BORDER
  6
CONTINUOUS
 62
     2
100
AcDbLine
 39
96.0
 10
36.9801
 20
19.040733
 30
0.0
 11
36.9801
 21
19.040733
 31
0.0
  0
LINE
  5
767
100
AcDbEntity
  8
BORDER
  6
CONTINUOUS
 62
     2
100
AcDbLine
 39
96.0
 10
36.51135
 20
19.040733
 30
0.0
 11
36.51135
 21
19.040733
 31
0.0
  0
LINE
  5
768
100
AcDbEntity
  8
BORDER
  6
CONTINUOUS
 62
     2
100
AcDbLine
 39
96.0
 10
37.68322
 20
19.509433
 30
0.0
 11
37.68322
 21
19.509433
 31
0.0
  0
LINE
  5
769
100
AcDbEntity
  8
BORDER
  6
CONTINUOUS
 62
     2
100
AcDbLine
 39
96.0
 10
37.21447
 20
19.509433
 30
0.0
 11
37.21447
 21
19.509433
 31
0.0
  0
LINE
  5
76A
100
AcDbEntity
  8
BORDER
  6
CONTINUOUS
 62
     2
100
AcDbLine
 39
96.0
 10
36.74572
 20
19.509433
 30
0.0
 11
36.74572
 21
19.509433
 31
0.0
  0
LINE
  5
76B
100
AcDbEntity
  8
BORDER
  6
CONTINUOUS
 62
     2
100
AcDbLine
 39
96.0
 10
36.27697
 20
19.509433
 30
0.0
 11
36.27697
 21
19.509433
 31
0.0
  0
LINE
  5
76C
100
AcDbEntity
  8
BORDER
  6
CONTINUOUS
 62
     2
100
AcDbLine
 39
96.0
 10
37.9176
 20
19.978233
 30
0.0
 11
37.9176
 21
19.978233
 31
0.0
  0
LINE
  5
76D
100
AcDbEntity
  8
BORDER
  6
CONTINUOUS
 62
     2
100
AcDbLine
 39
96.0
 10
37.44885
 20
19.978233
 30
0.0
 11
37.44885
 21
19.978233
 31
0.0
  0
LINE
  5
76E
100
AcDbEntity
  8
BORDER
  6
CONTINUOUS
 62
     2
100
AcDbLine
 39
96.0
 10
36.9801
 20
19.978233
 30
0.0
 11
36.9801
 21
19.978233
 31
0.0
  0
LINE
  5
76F
100
AcDbEntity
  8
BORDER
  6
CONTINUOUS
 62
     2
100
AcDbLine
 39
96.0
 10
36.51135
 20
19.978233
 30
0.0
 11
36.51135
 21
19.978233
 31
0.0
  0
LINE
  5
770
100
AcDbEntity
  8
BORDER
  6
CONTINUOUS
 62
     2
100
AcDbLine
 39
96.0
 10
37.68322
 20
20.446933
 30
0.0
 11
37.68322
 21
20.446933
 31
0.0
  0
LINE
  5
771
100
AcDbEntity
  8
BORDER
  6
CONTINUOUS
 62
     2
100
AcDbLine
 39
96.0
 10
37.21447
 20
20.446933
 30
0.0
 11
37.21447
 21
20.446933
 31
0.0
  0
LINE
  5
772
100
AcDbEntity
  8
BORDER
  6
CONTINUOUS
 62
     2
100
AcDbLine
 39
96.0
 10
36.74572
 20
20.446933
 30
0.0
 11
36.74572
 21
20.446933
 31
0.0
  0
LINE
  5
773
100
AcDbEntity
  8
BORDER
  6
CONTINUOUS
 62
     2
100
AcDbLine
 39
96.0
 10
36.27697
 20
20.446933
 30
0.0
 11
36.27697
 21
20.446933
 31
0.0
  0
LINE
  5
774
100
AcDbEntity
  8
BORDER
  6
CONTINUOUS
 62
     2
100
AcDbLine
 39
96.0
 10
37.9176
 20
20.915733
 30
0.0
 11
37.9176
 21
20.915733
 31
0.0
  0
LINE
  5
775
100
AcDbEntity
  8
BORDER
  6
CONTINUOUS
 62
     2
100
AcDbLine
 39
96.0
 10
37.44885
 20
20.915733
 30
0.0
 11
37.44885
 21
20.915733
 31
0.0
  0
LINE
  5
776
100
AcDbEntity
  8
BORDER
  6
CONTINUOUS
 62
     2
100
AcDbLine
 39
96.0
 10
36.9801
 20
20.915733
 30
0.0
 11
36.9801
 21
20.915733
 31
0.0
  0
LINE
  5
777
100
AcDbEntity
  8
BORDER
  6
CONTINUOUS
 62
     2
100
AcDbLine
 39
96.0
 10
36.51135
 20
20.915733
 30
0.0
 11
36.51135
 21
20.915733
 31
0.0
  0
LINE
  5
778
100
AcDbEntity
  8
BORDER
  6
CONTINUOUS
 62
     2
100
AcDbLine
 39
96.0
 10
37.68322
 20
21.384433
 30
0.0
 11
37.68322
 21
21.384433
 31
0.0
  0
LINE
  5
779
100
AcDbEntity
  8
BORDER
  6
CONTINUOUS
 62
     2
100
AcDbLine
 39
96.0
 10
37.21447
 20
21.384433
 30
0.0
 11
37.21447
 21
21.384433
 31
0.0
  0
LINE
  5
77A
100
AcDbEntity
  8
BORDER
  6
CONTINUOUS
 62
     2
100
AcDbLine
 39
96.0
 10
36.74572
 20
21.384433
 30
0.0
 11
36.74572
 21
21.384433
 31
0.0
  0
LINE
  5
77B
100
AcDbEntity
  8
BORDER
  6
CONTINUOUS
 62
     2
100
AcDbLine
 39
96.0
 10
36.27697
 20
21.384433
 30
0.0
 11
36.27697
 21
21.384433
 31
0.0
  0
LINE
  5
77C
100
AcDbEntity
  8
BORDER
  6
CONTINUOUS
 62
     2
100
AcDbLine
 39
96.0
 10
37.9176
 20
21.853233
 30
0.0
 11
37.9176
 21
21.853233
 31
0.0
  0
LINE
  5
77D
100
AcDbEntity
  8
BORDER
  6
CONTINUOUS
 62
     2
100
AcDbLine
 39
96.0
 10
37.44885
 20
21.853233
 30
0.0
 11
37.44885
 21
21.853233
 31
0.0
  0
LINE
  5
77E
100
AcDbEntity
  8
BORDER
  6
CONTINUOUS
 62
     2
100
AcDbLine
 39
96.0
 10
36.9801
 20
21.853233
 30
0.0
 11
36.9801
 21
21.853233
 31
0.0
  0
LINE
  5
77F
100
AcDbEntity
  8
BORDER
  6
CONTINUOUS
 62
     2
100
AcDbLine
 39
96.0
 10
36.51135
 20
21.853233
 30
0.0
 11
36.51135
 21
21.853233
 31
0.0
  0
LINE
  5
780
100
AcDbEntity
  8
BORDER
  6
CONTINUOUS
 62
     2
100
AcDbLine
 39
96.0
 10
37.68322
 20
22.321933
 30
0.0
 11
37.68322
 21
22.321933
 31
0.0
  0
LINE
  5
781
100
AcDbEntity
  8
BORDER
  6
CONTINUOUS
 62
     2
100
AcDbLine
 39
96.0
 10
37.21447
 20
22.321933
 30
0.0
 11
37.21447
 21
22.321933
 31
0.0
  0
LINE
  5
782
100
AcDbEntity
  8
BORDER
  6
CONTINUOUS
 62
     2
100
AcDbLine
 39
96.0
 10
36.74572
 20
22.321933
 30
0.0
 11
36.74572
 21
22.321933
 31
0.0
  0
LINE
  5
783
100
AcDbEntity
  8
BORDER
  6
CONTINUOUS
 62
     2
100
AcDbLine
 39
96.0
 10
36.27697
 20
22.321933
 30
0.0
 11
36.27697
 21
22.321933
 31
0.0
  0
LINE
  5
784
100
AcDbEntity
  8
BORDER
  6
CONTINUOUS
 62
     2
100
AcDbLine
 39
96.0
 10
37.9176
 20
22.790733
 30
0.0
 11
37.9176
 21
22.790733
 31
0.0
  0
LINE
  5
785
100
AcDbEntity
  8
BORDER
  6
CONTINUOUS
 62
     2
100
AcDbLine
 39
96.0
 10
37.44885
 20
22.790733
 30
0.0
 11
37.44885
 21
22.790733
 31
0.0
  0
LINE
  5
786
100
AcDbEntity
  8
BORDER
  6
CONTINUOUS
 62
     2
100
AcDbLine
 39
96.0
 10
36.9801
 20
22.790733
 30
0.0
 11
36.9801
 21
22.790733
 31
0.0
  0
LINE
  5
787
100
AcDbEntity
  8
BORDER
  6
CONTINUOUS
 62
     2
100
AcDbLine
 39
96.0
 10
36.51135
 20
22.790733
 30
0.0
 11
36.51135
 21
22.790733
 31
0.0
  0
LINE
  5
788
100
AcDbEntity
  8
BORDER
  6
CONTINUOUS
 62
     2
100
AcDbLine
 39
96.0
 10
37.68322
 20
23.259433
 30
0.0
 11
37.68322
 21
23.259433
 31
0.0
  0
LINE
  5
789
100
AcDbEntity
  8
BORDER
  6
CONTINUOUS
 62
     2
100
AcDbLine
 39
96.0
 10
37.21447
 20
23.259433
 30
0.0
 11
37.21447
 21
23.259433
 31
0.0
  0
LINE
  5
78A
100
AcDbEntity
  8
BORDER
  6
CONTINUOUS
 62
     2
100
AcDbLine
 39
96.0
 10
36.74572
 20
23.259433
 30
0.0
 11
36.74572
 21
23.259433
 31
0.0
  0
LINE
  5
78B
100
AcDbEntity
  8
BORDER
  6
CONTINUOUS
 62
     2
100
AcDbLine
 39
96.0
 10
36.27697
 20
23.259433
 30
0.0
 11
36.27697
 21
23.259433
 31
0.0
  0
LINE
  5
78C
100
AcDbEntity
  8
BORDER
  6
CONTINUOUS
 62
     2
100
AcDbLine
 39
96.0
 10
29.94885
 20
17.165733
 30
0.0
 11
29.94885
 21
17.165733
 31
0.0
  0
LINE
  5
78D
100
AcDbEntity
  8
BORDER
  6
CONTINUOUS
 62
     2
100
AcDbLine
 39
96.0
 10
29.4801
 20
17.165733
 30
0.0
 11
29.4801
 21
17.165733
 31
0.0
  0
LINE
  5
78E
100
AcDbEntity
  8
BORDER
  6
CONTINUOUS
 62
     2
100
AcDbLine
 39
96.0
 10
29.01135
 20
17.165733
 30
0.0
 11
29.01135
 21
17.165733
 31
0.0
  0
LINE
  5
78F
100
AcDbEntity
  8
BORDER
  6
CONTINUOUS
 62
     2
100
AcDbLine
 39
96.0
 10
28.5426
 20
17.165733
 30
0.0
 11
28.5426
 21
17.165733
 31
0.0
  0
LINE
  5
790
100
AcDbEntity
  8
BORDER
  6
CONTINUOUS
 62
     2
100
AcDbLine
 39
96.0
 10
29.71447
 20
17.634433
 30
0.0
 11
29.71447
 21
17.634433
 31
0.0
  0
LINE
  5
791
100
AcDbEntity
  8
BORDER
  6
CONTINUOUS
 62
     2
100
AcDbLine
 39
96.0
 10
29.24572
 20
17.634433
 30
0.0
 11
29.24572
 21
17.634433
 31
0.0
  0
LINE
  5
792
100
AcDbEntity
  8
BORDER
  6
CONTINUOUS
 62
     2
100
AcDbLine
 39
96.0
 10
28.77697
 20
17.634433
 30
0.0
 11
28.77697
 21
17.634433
 31
0.0
  0
LINE
  5
793
100
AcDbEntity
  8
BORDER
  6
CONTINUOUS
 62
     2
100
AcDbLine
 39
96.0
 10
28.30822
 20
17.634433
 30
0.0
 11
28.30822
 21
17.634433
 31
0.0
  0
LINE
  5
794
100
AcDbEntity
  8
BORDER
  6
CONTINUOUS
 62
     2
100
AcDbLine
 39
96.0
 10
29.94885
 20
18.103233
 30
0.0
 11
29.94885
 21
18.103233
 31
0.0
  0
LINE
  5
795
100
AcDbEntity
  8
BORDER
  6
CONTINUOUS
 62
     2
100
AcDbLine
 39
96.0
 10
29.4801
 20
18.103233
 30
0.0
 11
29.4801
 21
18.103233
 31
0.0
  0
LINE
  5
796
100
AcDbEntity
  8
BORDER
  6
CONTINUOUS
 62
     2
100
AcDbLine
 39
96.0
 10
29.01135
 20
18.103233
 30
0.0
 11
29.01135
 21
18.103233
 31
0.0
  0
LINE
  5
797
100
AcDbEntity
  8
BORDER
  6
CONTINUOUS
 62
     2
100
AcDbLine
 39
96.0
 10
28.5426
 20
18.103233
 30
0.0
 11
28.5426
 21
18.103233
 31
0.0
  0
LINE
  5
798
100
AcDbEntity
  8
BORDER
  6
CONTINUOUS
 62
     2
100
AcDbLine
 39
96.0
 10
29.71447
 20
18.571933
 30
0.0
 11
29.71447
 21
18.571933
 31
0.0
  0
LINE
  5
799
100
AcDbEntity
  8
BORDER
  6
CONTINUOUS
 62
     2
100
AcDbLine
 39
96.0
 10
29.24572
 20
18.571933
 30
0.0
 11
29.24572
 21
18.571933
 31
0.0
  0
LINE
  5
79A
100
AcDbEntity
  8
BORDER
  6
CONTINUOUS
 62
     2
100
AcDbLine
 39
96.0
 10
28.77697
 20
18.571933
 30
0.0
 11
28.77697
 21
18.571933
 31
0.0
  0
LINE
  5
79B
100
AcDbEntity
  8
BORDER
  6
CONTINUOUS
 62
     2
100
AcDbLine
 39
96.0
 10
28.30822
 20
18.571933
 30
0.0
 11
28.30822
 21
18.571933
 31
0.0
  0
LINE
  5
79C
100
AcDbEntity
  8
BORDER
  6
CONTINUOUS
 62
     2
100
AcDbLine
 39
96.0
 10
29.94885
 20
19.040733
 30
0.0
 11
29.94885
 21
19.040733
 31
0.0
  0
LINE
  5
79D
100
AcDbEntity
  8
BORDER
  6
CONTINUOUS
 62
     2
100
AcDbLine
 39
96.0
 10
29.4801
 20
19.040733
 30
0.0
 11
29.4801
 21
19.040733
 31
0.0
  0
LINE
  5
79E
100
AcDbEntity
  8
BORDER
  6
CONTINUOUS
 62
     2
100
AcDbLine
 39
96.0
 10
29.01135
 20
19.040733
 30
0.0
 11
29.01135
 21
19.040733
 31
0.0
  0
LINE
  5
79F
100
AcDbEntity
  8
BORDER
  6
CONTINUOUS
 62
     2
100
AcDbLine
 39
96.0
 10
28.5426
 20
19.040733
 30
0.0
 11
28.5426
 21
19.040733
 31
0.0
  0
LINE
  5
7A0
100
AcDbEntity
  8
BORDER
  6
CONTINUOUS
 62
     2
100
AcDbLine
 39
96.0
 10
29.71447
 20
19.509433
 30
0.0
 11
29.71447
 21
19.509433
 31
0.0
  0
LINE
  5
7A1
100
AcDbEntity
  8
BORDER
  6
CONTINUOUS
 62
     2
100
AcDbLine
 39
96.0
 10
29.24572
 20
19.509433
 30
0.0
 11
29.24572
 21
19.509433
 31
0.0
  0
LINE
  5
7A2
100
AcDbEntity
  8
BORDER
  6
CONTINUOUS
 62
     2
100
AcDbLine
 39
96.0
 10
28.77697
 20
19.509433
 30
0.0
 11
28.77697
 21
19.509433
 31
0.0
  0
LINE
  5
7A3
100
AcDbEntity
  8
BORDER
  6
CONTINUOUS
 62
     2
100
AcDbLine
 39
96.0
 10
28.30822
 20
19.509433
 30
0.0
 11
28.30822
 21
19.509433
 31
0.0
  0
LINE
  5
7A4
100
AcDbEntity
  8
BORDER
  6
CONTINUOUS
 62
     2
100
AcDbLine
 39
96.0
 10
29.94885
 20
19.978233
 30
0.0
 11
29.94885
 21
19.978233
 31
0.0
  0
LINE
  5
7A5
100
AcDbEntity
  8
BORDER
  6
CONTINUOUS
 62
     2
100
AcDbLine
 39
96.0
 10
29.4801
 20
19.978233
 30
0.0
 11
29.4801
 21
19.978233
 31
0.0
  0
LINE
  5
7A6
100
AcDbEntity
  8
BORDER
  6
CONTINUOUS
 62
     2
100
AcDbLine
 39
96.0
 10
29.01135
 20
19.978233
 30
0.0
 11
29.01135
 21
19.978233
 31
0.0
  0
LINE
  5
7A7
100
AcDbEntity
  8
BORDER
  6
CONTINUOUS
 62
     2
100
AcDbLine
 39
96.0
 10
28.5426
 20
19.978233
 30
0.0
 11
28.5426
 21
19.978233
 31
0.0
  0
LINE
  5
7A8
100
AcDbEntity
  8
BORDER
  6
CONTINUOUS
 62
     2
100
AcDbLine
 39
96.0
 10
29.71447
 20
20.446933
 30
0.0
 11
29.71447
 21
20.446933
 31
0.0
  0
LINE
  5
7A9
100
AcDbEntity
  8
BORDER
  6
CONTINUOUS
 62
     2
100
AcDbLine
 39
96.0
 10
29.24572
 20
20.446933
 30
0.0
 11
29.24572
 21
20.446933
 31
0.0
  0
LINE
  5
7AA
100
AcDbEntity
  8
BORDER
  6
CONTINUOUS
 62
     2
100
AcDbLine
 39
96.0
 10
28.77697
 20
20.446933
 30
0.0
 11
28.77697
 21
20.446933
 31
0.0
  0
LINE
  5
7AB
100
AcDbEntity
  8
BORDER
  6
CONTINUOUS
 62
     2
100
AcDbLine
 39
96.0
 10
28.30822
 20
20.446933
 30
0.0
 11
28.30822
 21
20.446933
 31
0.0
  0
LINE
  5
7AC
100
AcDbEntity
  8
BORDER
  6
CONTINUOUS
 62
     2
100
AcDbLine
 39
96.0
 10
29.94885
 20
20.915733
 30
0.0
 11
29.94885
 21
20.915733
 31
0.0
  0
LINE
  5
7AD
100
AcDbEntity
  8
BORDER
  6
CONTINUOUS
 62
     2
100
AcDbLine
 39
96.0
 10
29.4801
 20
20.915733
 30
0.0
 11
29.4801
 21
20.915733
 31
0.0
  0
LINE
  5
7AE
100
AcDbEntity
  8
BORDER
  6
CONTINUOUS
 62
     2
100
AcDbLine
 39
96.0
 10
29.01135
 20
20.915733
 30
0.0
 11
29.01135
 21
20.915733
 31
0.0
  0
LINE
  5
7AF
100
AcDbEntity
  8
BORDER
  6
CONTINUOUS
 62
     2
100
AcDbLine
 39
96.0
 10
28.5426
 20
20.915733
 30
0.0
 11
28.5426
 21
20.915733
 31
0.0
  0
LINE
  5
7B0
100
AcDbEntity
  8
BORDER
  6
CONTINUOUS
 62
     2
100
AcDbLine
 39
96.0
 10
29.71447
 20
21.384433
 30
0.0
 11
29.71447
 21
21.384433
 31
0.0
  0
LINE
  5
7B1
100
AcDbEntity
  8
BORDER
  6
CONTINUOUS
 62
     2
100
AcDbLine
 39
96.0
 10
29.24572
 20
21.384433
 30
0.0
 11
29.24572
 21
21.384433
 31
0.0
  0
LINE
  5
7B2
100
AcDbEntity
  8
BORDER
  6
CONTINUOUS
 62
     2
100
AcDbLine
 39
96.0
 10
28.77697
 20
21.384433
 30
0.0
 11
28.77697
 21
21.384433
 31
0.0
  0
LINE
  5
7B3
100
AcDbEntity
  8
BORDER
  6
CONTINUOUS
 62
     2
100
AcDbLine
 39
96.0
 10
28.30822
 20
21.384433
 30
0.0
 11
28.30822
 21
21.384433
 31
0.0
  0
LINE
  5
7B4
100
AcDbEntity
  8
BORDER
  6
CONTINUOUS
 62
     2
100
AcDbLine
 39
96.0
 10
29.94885
 20
21.853233
 30
0.0
 11
29.94885
 21
21.853233
 31
0.0
  0
LINE
  5
7B5
100
AcDbEntity
  8
BORDER
  6
CONTINUOUS
 62
     2
100
AcDbLine
 39
96.0
 10
29.4801
 20
21.853233
 30
0.0
 11
29.4801
 21
21.853233
 31
0.0
  0
LINE
  5
7B6
100
AcDbEntity
  8
BORDER
  6
CONTINUOUS
 62
     2
100
AcDbLine
 39
96.0
 10
29.01135
 20
21.853233
 30
0.0
 11
29.01135
 21
21.853233
 31
0.0
  0
LINE
  5
7B7
100
AcDbEntity
  8
BORDER
  6
CONTINUOUS
 62
     2
100
AcDbLine
 39
96.0
 10
28.5426
 20
21.853233
 30
0.0
 11
28.5426
 21
21.853233
 31
0.0
  0
LINE
  5
7B8
100
AcDbEntity
  8
BORDER
  6
CONTINUOUS
 62
     2
100
AcDbLine
 39
96.0
 10
29.71447
 20
22.321933
 30
0.0
 11
29.71447
 21
22.321933
 31
0.0
  0
LINE
  5
7B9
100
AcDbEntity
  8
BORDER
  6
CONTINUOUS
 62
     2
100
AcDbLine
 39
96.0
 10
29.24572
 20
22.321933
 30
0.0
 11
29.24572
 21
22.321933
 31
0.0
  0
LINE
  5
7BA
100
AcDbEntity
  8
BORDER
  6
CONTINUOUS
 62
     2
100
AcDbLine
 39
96.0
 10
28.77697
 20
22.321933
 30
0.0
 11
28.77697
 21
22.321933
 31
0.0
  0
LINE
  5
7BB
100
AcDbEntity
  8
BORDER
  6
CONTINUOUS
 62
     2
100
AcDbLine
 39
96.0
 10
28.30822
 20
22.321933
 30
0.0
 11
28.30822
 21
22.321933
 31
0.0
  0
LINE
  5
7BC
100
AcDbEntity
  8
BORDER
  6
CONTINUOUS
 62
     2
100
AcDbLine
 39
96.0
 10
29.94885
 20
22.790733
 30
0.0
 11
29.94885
 21
22.790733
 31
0.0
  0
LINE
  5
7BD
100
AcDbEntity
  8
BORDER
  6
CONTINUOUS
 62
     2
100
AcDbLine
 39
96.0
 10
29.4801
 20
22.790733
 30
0.0
 11
29.4801
 21
22.790733
 31
0.0
  0
LINE
  5
7BE
100
AcDbEntity
  8
BORDER
  6
CONTINUOUS
 62
     2
100
AcDbLine
 39
96.0
 10
29.01135
 20
22.790733
 30
0.0
 11
29.01135
 21
22.790733
 31
0.0
  0
LINE
  5
7BF
100
AcDbEntity
  8
BORDER
  6
CONTINUOUS
 62
     2
100
AcDbLine
 39
96.0
 10
28.5426
 20
22.790733
 30
0.0
 11
28.5426
 21
22.790733
 31
0.0
  0
LINE
  5
7C0
100
AcDbEntity
  8
BORDER
  6
CONTINUOUS
 62
     2
100
AcDbLine
 39
96.0
 10
29.71447
 20
23.259433
 30
0.0
 11
29.71447
 21
23.259433
 31
0.0
  0
LINE
  5
7C1
100
AcDbEntity
  8
BORDER
  6
CONTINUOUS
 62
     2
100
AcDbLine
 39
96.0
 10
29.24572
 20
23.259433
 30
0.0
 11
29.24572
 21
23.259433
 31
0.0
  0
LINE
  5
7C2
100
AcDbEntity
  8
BORDER
  6
CONTINUOUS
 62
     2
100
AcDbLine
 39
96.0
 10
28.77697
 20
23.259433
 30
0.0
 11
28.77697
 21
23.259433
 31
0.0
  0
LINE
  5
7C3
100
AcDbEntity
  8
BORDER
  6
CONTINUOUS
 62
     2
100
AcDbLine
 39
96.0
 10
28.30822
 20
23.259433
 30
0.0
 11
28.30822
 21
23.259433
 31
0.0
  0
LINE
  5
7C4
100
AcDbEntity
  8
BORDER
  6
CONTINUOUS
 62
     1
100
AcDbLine
 39
96.0
 10
35.0028
 20
20.529033
 30
0.0
 11
35.01354
 21
20.590633
 31
0.0
  0
LINE
  5
7C5
100
AcDbEntity
  8
BORDER
  6
CONTINUOUS
 62
     1
100
AcDbLine
 39
96.0
 10
34.56872
 20
18.067033
 30
0.0
 11
34.57946
 21
18.128533
 31
0.0
  0
LINE
  5
7C6
100
AcDbEntity
  8
BORDER
  6
CONTINUOUS
 62
     1
100
AcDbLine
 39
96.0
 10
30.07922
 20
21.397133
 30
0.0
 11
30.08996
 21
21.458733
 31
0.0
  0
LINE
  5
7C7
100
AcDbEntity
  8
BORDER
  6
CONTINUOUS
 62
     1
100
AcDbLine
 39
96.0
 10
34.85681
 20
18.068633
 30
0.0
 11
34.89269
 21
18.119933
 31
0.0
  0
LINE
  5
7C8
100
AcDbEntity
  8
BORDER
  6
CONTINUOUS
 62
     1
100
AcDbLine
 39
96.0
 10
32.80895
 20
19.502533
 30
0.0
 11
32.84484
 21
19.553733
 31
0.0
  0
LINE
  5
7C9
100
AcDbEntity
  8
BORDER
  6
CONTINUOUS
 62
     1
100
AcDbLine
 39
96.0
 10
30.76086
 20
20.936533
 30
0.0
 11
30.79675
 21
20.987733
 31
0.0
  0
LINE
  5
7CA
100
AcDbEntity
  8
BORDER
  6
CONTINUOUS
 62
     1
100
AcDbLine
 39
96.0
 10
35.203
 20
18.590433
 30
0.0
 11
35.26184
 21
18.611833
 31
0.0
  0
LINE
  5
7CB
100
AcDbEntity
  8
BORDER
  6
CONTINUOUS
 62
     1
100
AcDbLine
 39
96.0
 10
31.99865
 20
20.084633
 30
0.0
 11
32.05749
 21
20.106033
 31
0.0
  0
LINE
  5
7CC
100
AcDbEntity
  8
BORDER
  6
CONTINUOUS
 62
     3
100
AcDbLine
 39
96.0
 10
29.97082
 20
23.395133
 30
0.0
 11
28.09582
 21
23.395133
 31
0.0
  0
ARC
  5
7CD
100
AcDbEntity
  8
BORDER
  6
CONTINUOUS
 62
     3
100
AcDbCircle
 39
96.0
 10
33.09582
 20
23.395133
 30
0.0
 40
3.0
100
AcDbArc
 50
180.0
 51
0.0
  0
LINE
  5
7CE
100
AcDbEntity
  8
BORDER
  6
CONTINUOUS
 62
     3
100
AcDbLine
 39
96.0
 10
36.22082
 20
16.872333
 30
0.0
 11
36.22082
 21
23.395133
 31
0.0
  0
LINE
  5
7CF
100
AcDbEntity
  8
BORDER
  6
CONTINUOUS
 62
     3
100
AcDbLine
 39
96.0
 10
29.97082
 20
23.395133
 30
0.0
 11
29.97082
 21
16.872333
 31
0.0
  0
LINE
  5
7D0
100
AcDbEntity
  8
BORDER
  6
CONTINUOUS
 62
     3
100
AcDbLine
 39
96.0
 10
28.09582
 20
23.395133
 30
0.0
 11
28.09582
 21
16.872333
 31
0.0
  0
LINE
  5
7D1
100
AcDbEntity
  8
BORDER
  6
CONTINUOUS
 62
     3
100
AcDbLine
 39
96.0
 10
38.09582
 20
23.395133
 30
0.0
 11
36.22082
 21
23.395133
 31
0.0
  0
LINE
  5
7D2
100
AcDbEntity
  8
BORDER
  6
CONTINUOUS
 62
     3
100
AcDbLine
 39
96.0
 10
38.09606
 20
16.872333
 30
0.0
 11
38.09582
 21
23.395133
 31
0.0
  0
LINE
  5
7D3
100
AcDbEntity
  8
BORDER
  6
CONTINUOUS
 62
     1
100
AcDbLine
 39
96.0
 10
33.42272
 20
24.346733
 30
0.0
 11
33.45861
 21
24.397933
 31
0.0
  0
LINE
  5
7D4
100
AcDbEntity
  8
BORDER
  6
CONTINUOUS
 62
     1
100
AcDbLine
 39
96.0
 10
34.13464
 20
23.930833
 30
0.0
 11
34.14538
 21
23.992433
 31
0.0
  0
LINE
  5
7D5
100
AcDbEntity
  8
BORDER
  6
CONTINUOUS
 62
     1
100
AcDbLine
 39
96.0
 10
33.70861
 20
23.712033
 30
0.0
 11
33.76745
 21
23.733433
 31
0.0
  0
LINE
  5
7D6
100
AcDbEntity
  8
BORDER
  6
CONTINUOUS
 62
    10
100
AcDbLine
 39
96.0
 10
32.20104
 20
36.134533
 30
0.0
 11
32.18737
 21
36.057533
 31
0.0
  0
LINE
  5
7D7
100
AcDbEntity
  8
BORDER
  6
CONTINUOUS
 62
    10
100
AcDbLine
 39
96.0
 10
33.34631
 20
37.107333
 30
0.0
 11
33.30139
 21
37.043333
 31
0.0
  0
LINE
  5
7D8
100
AcDbEntity
  8
BORDER
  6
CONTINUOUS
 62
    10
100
AcDbLine
 39
96.0
 10
33.61511
 20
36.274533
 30
0.0
 11
33.54162
 21
36.247833
 31
0.0
  0
LINE
  5
7D9
100
AcDbEntity
  8
BORDER
  6
CONTINUOUS
 62
    10
100
AcDbLine
 39
96.0
 10
33.64782
 20
26.343933
 30
0.0
 11
33.63684
 21
26.282433
 31
0.0
  0
LINE
  5
7DA
100
AcDbEntity
  8
BORDER
  6
CONTINUOUS
 62
    10
100
AcDbLine
 39
96.0
 10
31.29626
 20
23.283033
 30
0.0
 11
31.25134
 21
23.218933
 31
0.0
  0
LINE
  5
7DB
100
AcDbEntity
  8
BORDER
  6
CONTINUOUS
 62
    10
100
AcDbLine
 39
96.0
 10
33.08874
 20
25.842833
 30
0.0
 11
33.04382
 21
25.778833
 31
0.0
  0
LINE
  5
7DC
100
AcDbEntity
  8
BORDER
  6
CONTINUOUS
 62
    10
100
AcDbLine
 39
96.0
 10
30.9486
 20
25.327333
 30
0.0
 11
30.87512
 21
25.300533
 31
0.0
  0
LINE
  5
7DD
100
AcDbEntity
  8
BORDER
  6
CONTINUOUS
 62
     3
100
AcDbLine
 39
96.0
 10
36.22082
 20
38.395133
 30
0.0
 11
38.09582
 21
38.395133
 31
0.0
  0
LINE
  5
7DE
100
AcDbEntity
  8
BORDER
  6
CONTINUOUS
 62
     3
100
AcDbLine
 39
96.0
 10
28.09582
 20
38.395133
 30
0.0
 11
29.97082
 21
38.395133
 31
0.0
  0
LINE
  5
7DF
100
AcDbEntity
  8
BORDER
  6
CONTINUOUS
 62
     2
100
AcDbLine
 39
96.0
 10
37.9176
 20
23.728233
 30
0.0
 11
37.9176
 21
23.728233
 31
0.0
  0
LINE
  5
7E0
100
AcDbEntity
  8
BORDER
  6
CONTINUOUS
 62
     2
100
AcDbLine
 39
96.0
 10
37.44885
 20
23.728233
 30
0.0
 11
37.44885
 21
23.728233
 31
0.0
  0
LINE
  5
7E1
100
AcDbEntity
  8
BORDER
  6
CONTINUOUS
 62
     2
100
AcDbLine
 39
96.0
 10
36.9801
 20
23.728233
 30
0.0
 11
36.9801
 21
23.728233
 31
0.0
  0
LINE
  5
7E2
100
AcDbEntity
  8
BORDER
  6
CONTINUOUS
 62
     2
100
AcDbLine
 39
96.0
 10
36.51135
 20
23.728233
 30
0.0
 11
36.51135
 21
23.728233
 31
0.0
  0
LINE
  5
7E3
100
AcDbEntity
  8
BORDER
  6
CONTINUOUS
 62
     2
100
AcDbLine
 39
96.0
 10
37.68322
 20
24.196933
 30
0.0
 11
37.68322
 21
24.196933
 31
0.0
  0
LINE
  5
7E4
100
AcDbEntity
  8
BORDER
  6
CONTINUOUS
 62
     2
100
AcDbLine
 39
96.0
 10
37.21447
 20
24.196933
 30
0.0
 11
37.21447
 21
24.196933
 31
0.0
  0
LINE
  5
7E5
100
AcDbEntity
  8
BORDER
  6
CONTINUOUS
 62
     2
100
AcDbLine
 39
96.0
 10
36.74572
 20
24.196933
 30
0.0
 11
36.74572
 21
24.196933
 31
0.0
  0
LINE
  5
7E6
100
AcDbEntity
  8
BORDER
  6
CONTINUOUS
 62
     2
100
AcDbLine
 39
96.0
 10
36.27697
 20
24.196933
 30
0.0
 11
36.27697
 21
24.196933
 31
0.0
  0
LINE
  5
7E7
100
AcDbEntity
  8
BORDER
  6
CONTINUOUS
 62
     2
100
AcDbLine
 39
96.0
 10
37.9176
 20
24.665733
 30
0.0
 11
37.9176
 21
24.665733
 31
0.0
  0
LINE
  5
7E8
100
AcDbEntity
  8
BORDER
  6
CONTINUOUS
 62
     2
100
AcDbLine
 39
96.0
 10
37.44885
 20
24.665733
 30
0.0
 11
37.44885
 21
24.665733
 31
0.0
  0
LINE
  5
7E9
100
AcDbEntity
  8
BORDER
  6
CONTINUOUS
 62
     2
100
AcDbLine
 39
96.0
 10
36.9801
 20
24.665733
 30
0.0
 11
36.9801
 21
24.665733
 31
0.0
  0
LINE
  5
7EA
100
AcDbEntity
  8
BORDER
  6
CONTINUOUS
 62
     2
100
AcDbLine
 39
96.0
 10
36.51135
 20
24.665733
 30
0.0
 11
36.51135
 21
24.665733
 31
0.0
  0
LINE
  5
7EB
100
AcDbEntity
  8
BORDER
  6
CONTINUOUS
 62
     2
100
AcDbLine
 39
96.0
 10
37.68322
 20
25.134433
 30
0.0
 11
37.68322
 21
25.134433
 31
0.0
  0
LINE
  5
7EC
100
AcDbEntity
  8
BORDER
  6
CONTINUOUS
 62
     2
100
AcDbLine
 39
96.0
 10
37.21447
 20
25.134433
 30
0.0
 11
37.21447
 21
25.134433
 31
0.0
  0
LINE
  5
7ED
100
AcDbEntity
  8
BORDER
  6
CONTINUOUS
 62
     2
100
AcDbLine
 39
96.0
 10
36.74572
 20
25.134433
 30
0.0
 11
36.74572
 21
25.134433
 31
0.0
  0
LINE
  5
7EE
100
AcDbEntity
  8
BORDER
  6
CONTINUOUS
 62
     2
100
AcDbLine
 39
96.0
 10
36.27697
 20
25.134433
 30
0.0
 11
36.27697
 21
25.134433
 31
0.0
  0
LINE
  5
7EF
100
AcDbEntity
  8
BORDER
  6
CONTINUOUS
 62
     2
100
AcDbLine
 39
96.0
 10
37.9176
 20
25.603233
 30
0.0
 11
37.9176
 21
25.603233
 31
0.0
  0
LINE
  5
7F0
100
AcDbEntity
  8
BORDER
  6
CONTINUOUS
 62
     2
100
AcDbLine
 39
96.0
 10
37.44885
 20
25.603233
 30
0.0
 11
37.44885
 21
25.603233
 31
0.0
  0
LINE
  5
7F1
100
AcDbEntity
  8
BORDER
  6
CONTINUOUS
 62
     2
100
AcDbLine
 39
96.0
 10
36.9801
 20
25.603233
 30
0.0
 11
36.9801
 21
25.603233
 31
0.0
  0
LINE
  5
7F2
100
AcDbEntity
  8
BORDER
  6
CONTINUOUS
 62
     2
100
AcDbLine
 39
96.0
 10
36.51135
 20
25.603233
 30
0.0
 11
36.51135
 21
25.603233
 31
0.0
  0
LINE
  5
7F3
100
AcDbEntity
  8
BORDER
  6
CONTINUOUS
 62
     2
100
AcDbLine
 39
96.0
 10
37.68322
 20
26.071933
 30
0.0
 11
37.68322
 21
26.071933
 31
0.0
  0
LINE
  5
7F4
100
AcDbEntity
  8
BORDER
  6
CONTINUOUS
 62
     2
100
AcDbLine
 39
96.0
 10
37.21447
 20
26.071933
 30
0.0
 11
37.21447
 21
26.071933
 31
0.0
  0
LINE
  5
7F5
100
AcDbEntity
  8
BORDER
  6
CONTINUOUS
 62
     2
100
AcDbLine
 39
96.0
 10
36.74572
 20
26.071933
 30
0.0
 11
36.74572
 21
26.071933
 31
0.0
  0
LINE
  5
7F6
100
AcDbEntity
  8
BORDER
  6
CONTINUOUS
 62
     2
100
AcDbLine
 39
96.0
 10
36.27697
 20
26.071933
 30
0.0
 11
36.27697
 21
26.071933
 31
0.0
  0
LINE
  5
7F7
100
AcDbEntity
  8
BORDER
  6
CONTINUOUS
 62
     2
100
AcDbLine
 39
96.0
 10
37.9176
 20
26.540733
 30
0.0
 11
37.9176
 21
26.540733
 31
0.0
  0
LINE
  5
7F8
100
AcDbEntity
  8
BORDER
  6
CONTINUOUS
 62
     2
100
AcDbLine
 39
96.0
 10
37.44885
 20
26.540733
 30
0.0
 11
37.44885
 21
26.540733
 31
0.0
  0
LINE
  5
7F9
100
AcDbEntity
  8
BORDER
  6
CONTINUOUS
 62
     2
100
AcDbLine
 39
96.0
 10
36.9801
 20
26.540733
 30
0.0
 11
36.9801
 21
26.540733
 31
0.0
  0
LINE
  5
7FA
100
AcDbEntity
  8
BORDER
  6
CONTINUOUS
 62
     2
100
AcDbLine
 39
96.0
 10
36.51135
 20
26.540733
 30
0.0
 11
36.51135
 21
26.540733
 31
0.0
  0
LINE
  5
7FB
100
AcDbEntity
  8
BORDER
  6
CONTINUOUS
 62
     2
100
AcDbLine
 39
96.0
 10
37.68322
 20
27.009433
 30
0.0
 11
37.68322
 21
27.009433
 31
0.0
  0
LINE
  5
7FC
100
AcDbEntity
  8
BORDER
  6
CONTINUOUS
 62
     2
100
AcDbLine
 39
96.0
 10
37.21447
 20
27.009433
 30
0.0
 11
37.21447
 21
27.009433
 31
0.0
  0
LINE
  5
7FD
100
AcDbEntity
  8
BORDER
  6
CONTINUOUS
 62
     2
100
AcDbLine
 39
96.0
 10
36.74572
 20
27.009433
 30
0.0
 11
36.74572
 21
27.009433
 31
0.0
  0
LINE
  5
7FE
100
AcDbEntity
  8
BORDER
  6
CONTINUOUS
 62
     2
100
AcDbLine
 39
96.0
 10
36.27697
 20
27.009433
 30
0.0
 11
36.27697
 21
27.009433
 31
0.0
  0
LINE
  5
7FF
100
AcDbEntity
  8
BORDER
  6
CONTINUOUS
 62
     2
100
AcDbLine
 39
96.0
 10
37.9176
 20
27.478133
 30
0.0
 11
37.9176
 21
27.478133
 31
0.0
  0
LINE
  5
800
100
AcDbEntity
  8
BORDER
  6
CONTINUOUS
 62
     2
100
AcDbLine
 39
96.0
 10
37.44885
 20
27.478133
 30
0.0
 11
37.44885
 21
27.478133
 31
0.0
  0
LINE
  5
801
100
AcDbEntity
  8
BORDER
  6
CONTINUOUS
 62
     2
100
AcDbLine
 39
96.0
 10
36.9801
 20
27.478133
 30
0.0
 11
36.9801
 21
27.478133
 31
0.0
  0
LINE
  5
802
100
AcDbEntity
  8
BORDER
  6
CONTINUOUS
 62
     2
100
AcDbLine
 39
96.0
 10
36.51135
 20
27.478133
 30
0.0
 11
36.51135
 21
27.478133
 31
0.0
  0
LINE
  5
803
100
AcDbEntity
  8
BORDER
  6
CONTINUOUS
 62
     2
100
AcDbLine
 39
96.0
 10
37.68322
 20
27.946933
 30
0.0
 11
37.68322
 21
27.946933
 31
0.0
  0
LINE
  5
804
100
AcDbEntity
  8
BORDER
  6
CONTINUOUS
 62
     2
100
AcDbLine
 39
96.0
 10
37.21447
 20
27.946933
 30
0.0
 11
37.21447
 21
27.946933
 31
0.0
  0
LINE
  5
805
100
AcDbEntity
  8
BORDER
  6
CONTINUOUS
 62
     2
100
AcDbLine
 39
96.0
 10
36.74572
 20
27.946933
 30
0.0
 11
36.74572
 21
27.946933
 31
0.0
  0
LINE
  5
806
100
AcDbEntity
  8
BORDER
  6
CONTINUOUS
 62
     2
100
AcDbLine
 39
96.0
 10
36.27697
 20
27.946933
 30
0.0
 11
36.27697
 21
27.946933
 31
0.0
  0
LINE
  5
807
100
AcDbEntity
  8
BORDER
  6
CONTINUOUS
 62
     2
100
AcDbLine
 39
96.0
 10
37.9176
 20
28.415633
 30
0.0
 11
37.9176
 21
28.415633
 31
0.0
  0
LINE
  5
808
100
AcDbEntity
  8
BORDER
  6
CONTINUOUS
 62
     2
100
AcDbLine
 39
96.0
 10
37.44885
 20
28.415633
 30
0.0
 11
37.44885
 21
28.415633
 31
0.0
  0
LINE
  5
809
100
AcDbEntity
  8
BORDER
  6
CONTINUOUS
 62
     2
100
AcDbLine
 39
96.0
 10
36.9801
 20
28.415633
 30
0.0
 11
36.9801
 21
28.415633
 31
0.0
  0
LINE
  5
80A
100
AcDbEntity
  8
BORDER
  6
CONTINUOUS
 62
     2
100
AcDbLine
 39
96.0
 10
36.51135
 20
28.415633
 30
0.0
 11
36.51135
 21
28.415633
 31
0.0
  0
LINE
  5
80B
100
AcDbEntity
  8
BORDER
  6
CONTINUOUS
 62
     2
100
AcDbLine
 39
96.0
 10
37.68322
 20
28.884433
 30
0.0
 11
37.68322
 21
28.884433
 31
0.0
  0
LINE
  5
80C
100
AcDbEntity
  8
BORDER
  6
CONTINUOUS
 62
     2
100
AcDbLine
 39
96.0
 10
37.21447
 20
28.884433
 30
0.0
 11
37.21447
 21
28.884433
 31
0.0
  0
LINE
  5
80D
100
AcDbEntity
  8
BORDER
  6
CONTINUOUS
 62
     2
100
AcDbLine
 39
96.0
 10
36.74572
 20
28.884433
 30
0.0
 11
36.74572
 21
28.884433
 31
0.0
  0
LINE
  5
80E
100
AcDbEntity
  8
BORDER
  6
CONTINUOUS
 62
     2
100
AcDbLine
 39
96.0
 10
36.27697
 20
28.884433
 30
0.0
 11
36.27697
 21
28.884433
 31
0.0
  0
LINE
  5
80F
100
AcDbEntity
  8
BORDER
  6
CONTINUOUS
 62
     2
100
AcDbLine
 39
96.0
 10
37.9176
 20
29.353133
 30
0.0
 11
37.9176
 21
29.353133
 31
0.0
  0
LINE
  5
810
100
AcDbEntity
  8
BORDER
  6
CONTINUOUS
 62
     2
100
AcDbLine
 39
96.0
 10
37.44885
 20
29.353133
 30
0.0
 11
37.44885
 21
29.353133
 31
0.0
  0
LINE
  5
811
100
AcDbEntity
  8
BORDER
  6
CONTINUOUS
 62
     2
100
AcDbLine
 39
96.0
 10
36.9801
 20
29.353133
 30
0.0
 11
36.9801
 21
29.353133
 31
0.0
  0
LINE
  5
812
100
AcDbEntity
  8
BORDER
  6
CONTINUOUS
 62
     2
100
AcDbLine
 39
96.0
 10
36.51135
 20
29.353133
 30
0.0
 11
36.51135
 21
29.353133
 31
0.0
  0
LINE
  5
813
100
AcDbEntity
  8
BORDER
  6
CONTINUOUS
 62
     2
100
AcDbLine
 39
96.0
 10
37.68322
 20
29.821933
 30
0.0
 11
37.68322
 21
29.821933
 31
0.0
  0
LINE
  5
814
100
AcDbEntity
  8
BORDER
  6
CONTINUOUS
 62
     2
100
AcDbLine
 39
96.0
 10
37.21447
 20
29.821933
 30
0.0
 11
37.21447
 21
29.821933
 31
0.0
  0
LINE
  5
815
100
AcDbEntity
  8
BORDER
  6
CONTINUOUS
 62
     2
100
AcDbLine
 39
96.0
 10
36.74572
 20
29.821933
 30
0.0
 11
36.74572
 21
29.821933
 31
0.0
  0
LINE
  5
816
100
AcDbEntity
  8
BORDER
  6
CONTINUOUS
 62
     2
100
AcDbLine
 39
96.0
 10
36.27697
 20
29.821933
 30
0.0
 11
36.27697
 21
29.821933
 31
0.0
  0
LINE
  5
817
100
AcDbEntity
  8
BORDER
  6
CONTINUOUS
 62
     2
100
AcDbLine
 39
96.0
 10
37.9176
 20
30.290633
 30
0.0
 11
37.9176
 21
30.290633
 31
0.0
  0
LINE
  5
818
100
AcDbEntity
  8
BORDER
  6
CONTINUOUS
 62
     2
100
AcDbLine
 39
96.0
 10
37.44885
 20
30.290633
 30
0.0
 11
37.44885
 21
30.290633
 31
0.0
  0
LINE
  5
819
100
AcDbEntity
  8
BORDER
  6
CONTINUOUS
 62
     2
100
AcDbLine
 39
96.0
 10
36.9801
 20
30.290633
 30
0.0
 11
36.9801
 21
30.290633
 31
0.0
  0
LINE
  5
81A
100
AcDbEntity
  8
BORDER
  6
CONTINUOUS
 62
     2
100
AcDbLine
 39
96.0
 10
36.51135
 20
30.290633
 30
0.0
 11
36.51135
 21
30.290633
 31
0.0
  0
LINE
  5
81B
100
AcDbEntity
  8
BORDER
  6
CONTINUOUS
 62
     2
100
AcDbLine
 39
96.0
 10
37.68322
 20
30.759433
 30
0.0
 11
37.68322
 21
30.759433
 31
0.0
  0
LINE
  5
81C
100
AcDbEntity
  8
BORDER
  6
CONTINUOUS
 62
     2
100
AcDbLine
 39
96.0
 10
37.21447
 20
30.759433
 30
0.0
 11
37.21447
 21
30.759433
 31
0.0
  0
LINE
  5
81D
100
AcDbEntity
  8
BORDER
  6
CONTINUOUS
 62
     2
100
AcDbLine
 39
96.0
 10
36.74572
 20
30.759433
 30
0.0
 11
36.74572
 21
30.759433
 31
0.0
  0
LINE
  5
81E
100
AcDbEntity
  8
BORDER
  6
CONTINUOUS
 62
     2
100
AcDbLine
 39
96.0
 10
36.27697
 20
30.759433
 30
0.0
 11
36.27697
 21
30.759433
 31
0.0
  0
LINE
  5
81F
100
AcDbEntity
  8
BORDER
  6
CONTINUOUS
 62
     2
100
AcDbLine
 39
96.0
 10
37.9176
 20
31.228133
 30
0.0
 11
37.9176
 21
31.228133
 31
0.0
  0
LINE
  5
820
100
AcDbEntity
  8
BORDER
  6
CONTINUOUS
 62
     2
100
AcDbLine
 39
96.0
 10
37.44885
 20
31.228133
 30
0.0
 11
37.44885
 21
31.228133
 31
0.0
  0
LINE
  5
821
100
AcDbEntity
  8
BORDER
  6
CONTINUOUS
 62
     2
100
AcDbLine
 39
96.0
 10
36.9801
 20
31.228133
 30
0.0
 11
36.9801
 21
31.228133
 31
0.0
  0
LINE
  5
822
100
AcDbEntity
  8
BORDER
  6
CONTINUOUS
 62
     2
100
AcDbLine
 39
96.0
 10
36.51135
 20
31.228133
 30
0.0
 11
36.51135
 21
31.228133
 31
0.0
  0
LINE
  5
823
100
AcDbEntity
  8
BORDER
  6
CONTINUOUS
 62
     2
100
AcDbLine
 39
96.0
 10
37.68322
 20
31.696933
 30
0.0
 11
37.68322
 21
31.696933
 31
0.0
  0
LINE
  5
824
100
AcDbEntity
  8
BORDER
  6
CONTINUOUS
 62
     2
100
AcDbLine
 39
96.0
 10
37.21447
 20
31.696933
 30
0.0
 11
37.21447
 21
31.696933
 31
0.0
  0
LINE
  5
825
100
AcDbEntity
  8
BORDER
  6
CONTINUOUS
 62
     2
100
AcDbLine
 39
96.0
 10
36.74572
 20
31.696933
 30
0.0
 11
36.74572
 21
31.696933
 31
0.0
  0
LINE
  5
826
100
AcDbEntity
  8
BORDER
  6
CONTINUOUS
 62
     2
100
AcDbLine
 39
96.0
 10
36.27697
 20
31.696933
 30
0.0
 11
36.27697
 21
31.696933
 31
0.0
  0
LINE
  5
827
100
AcDbEntity
  8
BORDER
  6
CONTINUOUS
 62
     2
100
AcDbLine
 39
96.0
 10
37.9176
 20
32.165633
 30
0.0
 11
37.9176
 21
32.165633
 31
0.0
  0
LINE
  5
828
100
AcDbEntity
  8
BORDER
  6
CONTINUOUS
 62
     2
100
AcDbLine
 39
96.0
 10
37.44885
 20
32.165633
 30
0.0
 11
37.44885
 21
32.165633
 31
0.0
  0
LINE
  5
829
100
AcDbEntity
  8
BORDER
  6
CONTINUOUS
 62
     2
100
AcDbLine
 39
96.0
 10
36.9801
 20
32.165633
 30
0.0
 11
36.9801
 21
32.165633
 31
0.0
  0
LINE
  5
82A
100
AcDbEntity
  8
BORDER
  6
CONTINUOUS
 62
     2
100
AcDbLine
 39
96.0
 10
36.51135
 20
32.165633
 30
0.0
 11
36.51135
 21
32.165633
 31
0.0
  0
LINE
  5
82B
100
AcDbEntity
  8
BORDER
  6
CONTINUOUS
 62
     2
100
AcDbLine
 39
96.0
 10
37.68322
 20
32.634433
 30
0.0
 11
37.68322
 21
32.634433
 31
0.0
  0
LINE
  5
82C
100
AcDbEntity
  8
BORDER
  6
CONTINUOUS
 62
     2
100
AcDbLine
 39
96.0
 10
37.21447
 20
32.634433
 30
0.0
 11
37.21447
 21
32.634433
 31
0.0
  0
LINE
  5
82D
100
AcDbEntity
  8
BORDER
  6
CONTINUOUS
 62
     2
100
AcDbLine
 39
96.0
 10
36.74572
 20
32.634433
 30
0.0
 11
36.74572
 21
32.634433
 31
0.0
  0
LINE
  5
82E
100
AcDbEntity
  8
BORDER
  6
CONTINUOUS
 62
     2
100
AcDbLine
 39
96.0
 10
36.27697
 20
32.634433
 30
0.0
 11
36.27697
 21
32.634433
 31
0.0
  0
LINE
  5
82F
100
AcDbEntity
  8
BORDER
  6
CONTINUOUS
 62
     2
100
AcDbLine
 39
96.0
 10
37.9176
 20
33.103133
 30
0.0
 11
37.9176
 21
33.103133
 31
0.0
  0
LINE
  5
830
100
AcDbEntity
  8
BORDER
  6
CONTINUOUS
 62
     2
100
AcDbLine
 39
96.0
 10
37.44885
 20
33.103133
 30
0.0
 11
37.44885
 21
33.103133
 31
0.0
  0
LINE
  5
831
100
AcDbEntity
  8
BORDER
  6
CONTINUOUS
 62
     2
100
AcDbLine
 39
96.0
 10
36.9801
 20
33.103133
 30
0.0
 11
36.9801
 21
33.103133
 31
0.0
  0
LINE
  5
832
100
AcDbEntity
  8
BORDER
  6
CONTINUOUS
 62
     2
100
AcDbLine
 39
96.0
 10
36.51135
 20
33.103133
 30
0.0
 11
36.51135
 21
33.103133
 31
0.0
  0
LINE
  5
833
100
AcDbEntity
  8
BORDER
  6
CONTINUOUS
 62
     2
100
AcDbLine
 39
96.0
 10
37.68322
 20
33.571933
 30
0.0
 11
37.68322
 21
33.571933
 31
0.0
  0
LINE
  5
834
100
AcDbEntity
  8
BORDER
  6
CONTINUOUS
 62
     2
100
AcDbLine
 39
96.0
 10
37.21447
 20
33.571933
 30
0.0
 11
37.21447
 21
33.571933
 31
0.0
  0
LINE
  5
835
100
AcDbEntity
  8
BORDER
  6
CONTINUOUS
 62
     2
100
AcDbLine
 39
96.0
 10
36.74572
 20
33.571933
 30
0.0
 11
36.74572
 21
33.571933
 31
0.0
  0
LINE
  5
836
100
AcDbEntity
  8
BORDER
  6
CONTINUOUS
 62
     2
100
AcDbLine
 39
96.0
 10
36.27697
 20
33.571933
 30
0.0
 11
36.27697
 21
33.571933
 31
0.0
  0
LINE
  5
837
100
AcDbEntity
  8
BORDER
  6
CONTINUOUS
 62
     2
100
AcDbLine
 39
96.0
 10
37.9176
 20
34.040633
 30
0.0
 11
37.9176
 21
34.040633
 31
0.0
  0
LINE
  5
838
100
AcDbEntity
  8
BORDER
  6
CONTINUOUS
 62
     2
100
AcDbLine
 39
96.0
 10
37.44885
 20
34.040633
 30
0.0
 11
37.44885
 21
34.040633
 31
0.0
  0
LINE
  5
839
100
AcDbEntity
  8
BORDER
  6
CONTINUOUS
 62
     2
100
AcDbLine
 39
96.0
 10
36.9801
 20
34.040633
 30
0.0
 11
36.9801
 21
34.040633
 31
0.0
  0
LINE
  5
83A
100
AcDbEntity
  8
BORDER
  6
CONTINUOUS
 62
     2
100
AcDbLine
 39
96.0
 10
36.51135
 20
34.040633
 30
0.0
 11
36.51135
 21
34.040633
 31
0.0
  0
LINE
  5
83B
100
AcDbEntity
  8
BORDER
  6
CONTINUOUS
 62
     2
100
AcDbLine
 39
96.0
 10
37.68322
 20
34.509433
 30
0.0
 11
37.68322
 21
34.509433
 31
0.0
  0
LINE
  5
83C
100
AcDbEntity
  8
BORDER
  6
CONTINUOUS
 62
     2
100
AcDbLine
 39
96.0
 10
37.21447
 20
34.509433
 30
0.0
 11
37.21447
 21
34.509433
 31
0.0
  0
LINE
  5
83D
100
AcDbEntity
  8
BORDER
  6
CONTINUOUS
 62
     2
100
AcDbLine
 39
96.0
 10
36.74572
 20
34.509433
 30
0.0
 11
36.74572
 21
34.509433
 31
0.0
  0
LINE
  5
83E
100
AcDbEntity
  8
BORDER
  6
CONTINUOUS
 62
     2
100
AcDbLine
 39
96.0
 10
36.27697
 20
34.509433
 30
0.0
 11
36.27697
 21
34.509433
 31
0.0
  0
LINE
  5
83F
100
AcDbEntity
  8
BORDER
  6
CONTINUOUS
 62
     2
100
AcDbLine
 39
96.0
 10
37.9176
 20
34.978133
 30
0.0
 11
37.9176
 21
34.978133
 31
0.0
  0
LINE
  5
840
100
AcDbEntity
  8
BORDER
  6
CONTINUOUS
 62
     2
100
AcDbLine
 39
96.0
 10
37.44885
 20
34.978133
 30
0.0
 11
37.44885
 21
34.978133
 31
0.0
  0
LINE
  5
841
100
AcDbEntity
  8
BORDER
  6
CONTINUOUS
 62
     2
100
AcDbLine
 39
96.0
 10
36.9801
 20
34.978133
 30
0.0
 11
36.9801
 21
34.978133
 31
0.0
  0
LINE
  5
842
100
AcDbEntity
  8
BORDER
  6
CONTINUOUS
 62
     2
100
AcDbLine
 39
96.0
 10
36.51135
 20
34.978133
 30
0.0
 11
36.51135
 21
34.978133
 31
0.0
  0
LINE
  5
843
100
AcDbEntity
  8
BORDER
  6
CONTINUOUS
 62
     2
100
AcDbLine
 39
96.0
 10
37.68322
 20
35.446933
 30
0.0
 11
37.68322
 21
35.446933
 31
0.0
  0
LINE
  5
844
100
AcDbEntity
  8
BORDER
  6
CONTINUOUS
 62
     2
100
AcDbLine
 39
96.0
 10
37.21447
 20
35.446933
 30
0.0
 11
37.21447
 21
35.446933
 31
0.0
  0
LINE
  5
845
100
AcDbEntity
  8
BORDER
  6
CONTINUOUS
 62
     2
100
AcDbLine
 39
96.0
 10
36.74572
 20
35.446933
 30
0.0
 11
36.74572
 21
35.446933
 31
0.0
  0
LINE
  5
846
100
AcDbEntity
  8
BORDER
  6
CONTINUOUS
 62
     2
100
AcDbLine
 39
96.0
 10
36.27697
 20
35.446933
 30
0.0
 11
36.27697
 21
35.446933
 31
0.0
  0
LINE
  5
847
100
AcDbEntity
  8
BORDER
  6
CONTINUOUS
 62
     2
100
AcDbLine
 39
96.0
 10
37.9176
 20
35.915633
 30
0.0
 11
37.9176
 21
35.915633
 31
0.0
  0
LINE
  5
848
100
AcDbEntity
  8
BORDER
  6
CONTINUOUS
 62
     2
100
AcDbLine
 39
96.0
 10
37.44885
 20
35.915633
 30
0.0
 11
37.44885
 21
35.915633
 31
0.0
  0
LINE
  5
849
100
AcDbEntity
  8
BORDER
  6
CONTINUOUS
 62
     2
100
AcDbLine
 39
96.0
 10
36.9801
 20
35.915633
 30
0.0
 11
36.9801
 21
35.915633
 31
0.0
  0
LINE
  5
84A
100
AcDbEntity
  8
BORDER
  6
CONTINUOUS
 62
     2
100
AcDbLine
 39
96.0
 10
36.51135
 20
35.915633
 30
0.0
 11
36.51135
 21
35.915633
 31
0.0
  0
LINE
  5
84B
100
AcDbEntity
  8
BORDER
  6
CONTINUOUS
 62
     2
100
AcDbLine
 39
96.0
 10
37.68322
 20
36.384433
 30
0.0
 11
37.68322
 21
36.384433
 31
0.0
  0
LINE
  5
84C
100
AcDbEntity
  8
BORDER
  6
CONTINUOUS
 62
     2
100
AcDbLine
 39
96.0
 10
37.21447
 20
36.384433
 30
0.0
 11
37.21447
 21
36.384433
 31
0.0
  0
LINE
  5
84D
100
AcDbEntity
  8
BORDER
  6
CONTINUOUS
 62
     2
100
AcDbLine
 39
96.0
 10
36.74572
 20
36.384433
 30
0.0
 11
36.74572
 21
36.384433
 31
0.0
  0
LINE
  5
84E
100
AcDbEntity
  8
BORDER
  6
CONTINUOUS
 62
     2
100
AcDbLine
 39
96.0
 10
36.27697
 20
36.384433
 30
0.0
 11
36.27697
 21
36.384433
 31
0.0
  0
LINE
  5
84F
100
AcDbEntity
  8
BORDER
  6
CONTINUOUS
 62
     2
100
AcDbLine
 39
96.0
 10
37.9176
 20
36.853133
 30
0.0
 11
37.9176
 21
36.853133
 31
0.0
  0
LINE
  5
850
100
AcDbEntity
  8
BORDER
  6
CONTINUOUS
 62
     2
100
AcDbLine
 39
96.0
 10
37.44885
 20
36.853133
 30
0.0
 11
37.44885
 21
36.853133
 31
0.0
  0
LINE
  5
851
100
AcDbEntity
  8
BORDER
  6
CONTINUOUS
 62
     2
100
AcDbLine
 39
96.0
 10
36.9801
 20
36.853133
 30
0.0
 11
36.9801
 21
36.853133
 31
0.0
  0
LINE
  5
852
100
AcDbEntity
  8
BORDER
  6
CONTINUOUS
 62
     2
100
AcDbLine
 39
96.0
 10
36.51135
 20
36.853133
 30
0.0
 11
36.51135
 21
36.853133
 31
0.0
  0
LINE
  5
853
100
AcDbEntity
  8
BORDER
  6
CONTINUOUS
 62
     2
100
AcDbLine
 39
96.0
 10
37.68322
 20
37.321933
 30
0.0
 11
37.68322
 21
37.321933
 31
0.0
  0
LINE
  5
854
100
AcDbEntity
  8
BORDER
  6
CONTINUOUS
 62
     2
100
AcDbLine
 39
96.0
 10
37.21447
 20
37.321933
 30
0.0
 11
37.21447
 21
37.321933
 31
0.0
  0
LINE
  5
855
100
AcDbEntity
  8
BORDER
  6
CONTINUOUS
 62
     2
100
AcDbLine
 39
96.0
 10
36.74572
 20
37.321933
 30
0.0
 11
36.74572
 21
37.321933
 31
0.0
  0
LINE
  5
856
100
AcDbEntity
  8
BORDER
  6
CONTINUOUS
 62
     2
100
AcDbLine
 39
96.0
 10
36.27697
 20
37.321933
 30
0.0
 11
36.27697
 21
37.321933
 31
0.0
  0
LINE
  5
857
100
AcDbEntity
  8
BORDER
  6
CONTINUOUS
 62
     2
100
AcDbLine
 39
96.0
 10
37.9176
 20
37.790633
 30
0.0
 11
37.9176
 21
37.790633
 31
0.0
  0
LINE
  5
858
100
AcDbEntity
  8
BORDER
  6
CONTINUOUS
 62
     2
100
AcDbLine
 39
96.0
 10
37.44885
 20
37.790633
 30
0.0
 11
37.44885
 21
37.790633
 31
0.0
  0
LINE
  5
859
100
AcDbEntity
  8
BORDER
  6
CONTINUOUS
 62
     2
100
AcDbLine
 39
96.0
 10
36.9801
 20
37.790633
 30
0.0
 11
36.9801
 21
37.790633
 31
0.0
  0
LINE
  5
85A
100
AcDbEntity
  8
BORDER
  6
CONTINUOUS
 62
     2
100
AcDbLine
 39
96.0
 10
36.51135
 20
37.790633
 30
0.0
 11
36.51135
 21
37.790633
 31
0.0
  0
LINE
  5
85B
100
AcDbEntity
  8
BORDER
  6
CONTINUOUS
 62
     2
100
AcDbLine
 39
96.0
 10
37.68322
 20
38.259433
 30
0.0
 11
37.68322
 21
38.259433
 31
0.0
  0
LINE
  5
85C
100
AcDbEntity
  8
BORDER
  6
CONTINUOUS
 62
     2
100
AcDbLine
 39
96.0
 10
37.21447
 20
38.259433
 30
0.0
 11
37.21447
 21
38.259433
 31
0.0
  0
LINE
  5
85D
100
AcDbEntity
  8
BORDER
  6
CONTINUOUS
 62
     2
100
AcDbLine
 39
96.0
 10
36.74572
 20
38.259433
 30
0.0
 11
36.74572
 21
38.259433
 31
0.0
  0
LINE
  5
85E
100
AcDbEntity
  8
BORDER
  6
CONTINUOUS
 62
     2
100
AcDbLine
 39
96.0
 10
36.27697
 20
38.259433
 30
0.0
 11
36.27697
 21
38.259433
 31
0.0
  0
LINE
  5
85F
100
AcDbEntity
  8
BORDER
  6
CONTINUOUS
 62
     2
100
AcDbLine
 39
96.0
 10
29.94885
 20
23.728233
 30
0.0
 11
29.94885
 21
23.728233
 31
0.0
  0
LINE
  5
860
100
AcDbEntity
  8
BORDER
  6
CONTINUOUS
 62
     2
100
AcDbLine
 39
96.0
 10
29.4801
 20
23.728233
 30
0.0
 11
29.4801
 21
23.728233
 31
0.0
  0
LINE
  5
861
100
AcDbEntity
  8
BORDER
  6
CONTINUOUS
 62
     2
100
AcDbLine
 39
96.0
 10
29.01135
 20
23.728233
 30
0.0
 11
29.01135
 21
23.728233
 31
0.0
  0
LINE
  5
862
100
AcDbEntity
  8
BORDER
  6
CONTINUOUS
 62
     2
100
AcDbLine
 39
96.0
 10
28.5426
 20
23.728233
 30
0.0
 11
28.5426
 21
23.728233
 31
0.0
  0
LINE
  5
863
100
AcDbEntity
  8
BORDER
  6
CONTINUOUS
 62
     2
100
AcDbLine
 39
96.0
 10
29.71447
 20
24.196933
 30
0.0
 11
29.71447
 21
24.196933
 31
0.0
  0
LINE
  5
864
100
AcDbEntity
  8
BORDER
  6
CONTINUOUS
 62
     2
100
AcDbLine
 39
96.0
 10
29.24572
 20
24.196933
 30
0.0
 11
29.24572
 21
24.196933
 31
0.0
  0
LINE
  5
865
100
AcDbEntity
  8
BORDER
  6
CONTINUOUS
 62
     2
100
AcDbLine
 39
96.0
 10
28.77697
 20
24.196933
 30
0.0
 11
28.77697
 21
24.196933
 31
0.0
  0
LINE
  5
866
100
AcDbEntity
  8
BORDER
  6
CONTINUOUS
 62
     2
100
AcDbLine
 39
96.0
 10
28.30822
 20
24.196933
 30
0.0
 11
28.30822
 21
24.196933
 31
0.0
  0
LINE
  5
867
100
AcDbEntity
  8
BORDER
  6
CONTINUOUS
 62
     2
100
AcDbLine
 39
96.0
 10
29.94885
 20
24.665733
 30
0.0
 11
29.94885
 21
24.665733
 31
0.0
  0
LINE
  5
868
100
AcDbEntity
  8
BORDER
  6
CONTINUOUS
 62
     2
100
AcDbLine
 39
96.0
 10
29.4801
 20
24.665733
 30
0.0
 11
29.4801
 21
24.665733
 31
0.0
  0
LINE
  5
869
100
AcDbEntity
  8
BORDER
  6
CONTINUOUS
 62
     2
100
AcDbLine
 39
96.0
 10
29.01135
 20
24.665733
 30
0.0
 11
29.01135
 21
24.665733
 31
0.0
  0
LINE
  5
86A
100
AcDbEntity
  8
BORDER
  6
CONTINUOUS
 62
     2
100
AcDbLine
 39
96.0
 10
28.5426
 20
24.665733
 30
0.0
 11
28.5426
 21
24.665733
 31
0.0
  0
LINE
  5
86B
100
AcDbEntity
  8
BORDER
  6
CONTINUOUS
 62
     2
100
AcDbLine
 39
96.0
 10
29.71447
 20
25.134433
 30
0.0
 11
29.71447
 21
25.134433
 31
0.0
  0
LINE
  5
86C
100
AcDbEntity
  8
BORDER
  6
CONTINUOUS
 62
     2
100
AcDbLine
 39
96.0
 10
29.24572
 20
25.134433
 30
0.0
 11
29.24572
 21
25.134433
 31
0.0
  0
LINE
  5
86D
100
AcDbEntity
  8
BORDER
  6
CONTINUOUS
 62
     2
100
AcDbLine
 39
96.0
 10
28.77697
 20
25.134433
 30
0.0
 11
28.77697
 21
25.134433
 31
0.0
  0
LINE
  5
86E
100
AcDbEntity
  8
BORDER
  6
CONTINUOUS
 62
     2
100
AcDbLine
 39
96.0
 10
28.30822
 20
25.134433
 30
0.0
 11
28.30822
 21
25.134433
 31
0.0
  0
LINE
  5
86F
100
AcDbEntity
  8
BORDER
  6
CONTINUOUS
 62
     2
100
AcDbLine
 39
96.0
 10
29.94885
 20
25.603233
 30
0.0
 11
29.94885
 21
25.603233
 31
0.0
  0
LINE
  5
870
100
AcDbEntity
  8
BORDER
  6
CONTINUOUS
 62
     2
100
AcDbLine
 39
96.0
 10
29.4801
 20
25.603233
 30
0.0
 11
29.4801
 21
25.603233
 31
0.0
  0
LINE
  5
871
100
AcDbEntity
  8
BORDER
  6
CONTINUOUS
 62
     2
100
AcDbLine
 39
96.0
 10
29.01135
 20
25.603233
 30
0.0
 11
29.01135
 21
25.603233
 31
0.0
  0
LINE
  5
872
100
AcDbEntity
  8
BORDER
  6
CONTINUOUS
 62
     2
100
AcDbLine
 39
96.0
 10
28.5426
 20
25.603233
 30
0.0
 11
28.5426
 21
25.603233
 31
0.0
  0
LINE
  5
873
100
AcDbEntity
  8
BORDER
  6
CONTINUOUS
 62
     2
100
AcDbLine
 39
96.0
 10
29.71447
 20
26.071933
 30
0.0
 11
29.71447
 21
26.071933
 31
0.0
  0
LINE
  5
874
100
AcDbEntity
  8
BORDER
  6
CONTINUOUS
 62
     2
100
AcDbLine
 39
96.0
 10
29.24572
 20
26.071933
 30
0.0
 11
29.24572
 21
26.071933
 31
0.0
  0
LINE
  5
875
100
AcDbEntity
  8
BORDER
  6
CONTINUOUS
 62
     2
100
AcDbLine
 39
96.0
 10
28.77697
 20
26.071933
 30
0.0
 11
28.77697
 21
26.071933
 31
0.0
  0
LINE
  5
876
100
AcDbEntity
  8
BORDER
  6
CONTINUOUS
 62
     2
100
AcDbLine
 39
96.0
 10
28.30822
 20
26.071933
 30
0.0
 11
28.30822
 21
26.071933
 31
0.0
  0
LINE
  5
877
100
AcDbEntity
  8
BORDER
  6
CONTINUOUS
 62
     2
100
AcDbLine
 39
96.0
 10
29.94885
 20
26.540733
 30
0.0
 11
29.94885
 21
26.540733
 31
0.0
  0
LINE
  5
878
100
AcDbEntity
  8
BORDER
  6
CONTINUOUS
 62
     2
100
AcDbLine
 39
96.0
 10
29.4801
 20
26.540733
 30
0.0
 11
29.4801
 21
26.540733
 31
0.0
  0
LINE
  5
879
100
AcDbEntity
  8
BORDER
  6
CONTINUOUS
 62
     2
100
AcDbLine
 39
96.0
 10
29.01135
 20
26.540733
 30
0.0
 11
29.01135
 21
26.540733
 31
0.0
  0
LINE
  5
87A
100
AcDbEntity
  8
BORDER
  6
CONTINUOUS
 62
     2
100
AcDbLine
 39
96.0
 10
28.5426
 20
26.540733
 30
0.0
 11
28.5426
 21
26.540733
 31
0.0
  0
LINE
  5
87B
100
AcDbEntity
  8
BORDER
  6
CONTINUOUS
 62
     2
100
AcDbLine
 39
96.0
 10
29.71447
 20
27.009433
 30
0.0
 11
29.71447
 21
27.009433
 31
0.0
  0
LINE
  5
87C
100
AcDbEntity
  8
BORDER
  6
CONTINUOUS
 62
     2
100
AcDbLine
 39
96.0
 10
29.24572
 20
27.009433
 30
0.0
 11
29.24572
 21
27.009433
 31
0.0
  0
LINE
  5
87D
100
AcDbEntity
  8
BORDER
  6
CONTINUOUS
 62
     2
100
AcDbLine
 39
96.0
 10
28.77697
 20
27.009433
 30
0.0
 11
28.77697
 21
27.009433
 31
0.0
  0
LINE
  5
87E
100
AcDbEntity
  8
BORDER
  6
CONTINUOUS
 62
     2
100
AcDbLine
 39
96.0
 10
28.30822
 20
27.009433
 30
0.0
 11
28.30822
 21
27.009433
 31
0.0
  0
LINE
  5
87F
100
AcDbEntity
  8
BORDER
  6
CONTINUOUS
 62
     2
100
AcDbLine
 39
96.0
 10
29.94885
 20
27.478133
 30
0.0
 11
29.94885
 21
27.478133
 31
0.0
  0
LINE
  5
880
100
AcDbEntity
  8
BORDER
  6
CONTINUOUS
 62
     2
100
AcDbLine
 39
96.0
 10
29.4801
 20
27.478133
 30
0.0
 11
29.4801
 21
27.478133
 31
0.0
  0
LINE
  5
881
100
AcDbEntity
  8
BORDER
  6
CONTINUOUS
 62
     2
100
AcDbLine
 39
96.0
 10
29.01135
 20
27.478133
 30
0.0
 11
29.01135
 21
27.478133
 31
0.0
  0
LINE
  5
882
100
AcDbEntity
  8
BORDER
  6
CONTINUOUS
 62
     2
100
AcDbLine
 39
96.0
 10
28.5426
 20
27.478133
 30
0.0
 11
28.5426
 21
27.478133
 31
0.0
  0
LINE
  5
883
100
AcDbEntity
  8
BORDER
  6
CONTINUOUS
 62
     2
100
AcDbLine
 39
96.0
 10
29.71447
 20
27.946933
 30
0.0
 11
29.71447
 21
27.946933
 31
0.0
  0
LINE
  5
884
100
AcDbEntity
  8
BORDER
  6
CONTINUOUS
 62
     2
100
AcDbLine
 39
96.0
 10
29.24572
 20
27.946933
 30
0.0
 11
29.24572
 21
27.946933
 31
0.0
  0
LINE
  5
885
100
AcDbEntity
  8
BORDER
  6
CONTINUOUS
 62
     2
100
AcDbLine
 39
96.0
 10
28.77697
 20
27.946933
 30
0.0
 11
28.77697
 21
27.946933
 31
0.0
  0
LINE
  5
886
100
AcDbEntity
  8
BORDER
  6
CONTINUOUS
 62
     2
100
AcDbLine
 39
96.0
 10
28.30822
 20
27.946933
 30
0.0
 11
28.30822
 21
27.946933
 31
0.0
  0
LINE
  5
887
100
AcDbEntity
  8
BORDER
  6
CONTINUOUS
 62
     2
100
AcDbLine
 39
96.0
 10
29.94885
 20
28.415633
 30
0.0
 11
29.94885
 21
28.415633
 31
0.0
  0
LINE
  5
888
100
AcDbEntity
  8
BORDER
  6
CONTINUOUS
 62
     2
100
AcDbLine
 39
96.0
 10
29.4801
 20
28.415633
 30
0.0
 11
29.4801
 21
28.415633
 31
0.0
  0
LINE
  5
889
100
AcDbEntity
  8
BORDER
  6
CONTINUOUS
 62
     2
100
AcDbLine
 39
96.0
 10
29.01135
 20
28.415633
 30
0.0
 11
29.01135
 21
28.415633
 31
0.0
  0
LINE
  5
88A
100
AcDbEntity
  8
BORDER
  6
CONTINUOUS
 62
     2
100
AcDbLine
 39
96.0
 10
28.5426
 20
28.415633
 30
0.0
 11
28.5426
 21
28.415633
 31
0.0
  0
LINE
  5
88B
100
AcDbEntity
  8
BORDER
  6
CONTINUOUS
 62
     2
100
AcDbLine
 39
96.0
 10
29.71447
 20
28.884433
 30
0.0
 11
29.71447
 21
28.884433
 31
0.0
  0
LINE
  5
88C
100
AcDbEntity
  8
BORDER
  6
CONTINUOUS
 62
     2
100
AcDbLine
 39
96.0
 10
29.24572
 20
28.884433
 30
0.0
 11
29.24572
 21
28.884433
 31
0.0
  0
LINE
  5
88D
100
AcDbEntity
  8
BORDER
  6
CONTINUOUS
 62
     2
100
AcDbLine
 39
96.0
 10
28.77697
 20
28.884433
 30
0.0
 11
28.77697
 21
28.884433
 31
0.0
  0
LINE
  5
88E
100
AcDbEntity
  8
BORDER
  6
CONTINUOUS
 62
     2
100
AcDbLine
 39
96.0
 10
28.30822
 20
28.884433
 30
0.0
 11
28.30822
 21
28.884433
 31
0.0
  0
LINE
  5
88F
100
AcDbEntity
  8
BORDER
  6
CONTINUOUS
 62
     2
100
AcDbLine
 39
96.0
 10
29.94885
 20
29.353133
 30
0.0
 11
29.94885
 21
29.353133
 31
0.0
  0
LINE
  5
890
100
AcDbEntity
  8
BORDER
  6
CONTINUOUS
 62
     2
100
AcDbLine
 39
96.0
 10
29.4801
 20
29.353133
 30
0.0
 11
29.4801
 21
29.353133
 31
0.0
  0
LINE
  5
891
100
AcDbEntity
  8
BORDER
  6
CONTINUOUS
 62
     2
100
AcDbLine
 39
96.0
 10
29.01135
 20
29.353133
 30
0.0
 11
29.01135
 21
29.353133
 31
0.0
  0
LINE
  5
892
100
AcDbEntity
  8
BORDER
  6
CONTINUOUS
 62
     2
100
AcDbLine
 39
96.0
 10
28.5426
 20
29.353133
 30
0.0
 11
28.5426
 21
29.353133
 31
0.0
  0
LINE
  5
893
100
AcDbEntity
  8
BORDER
  6
CONTINUOUS
 62
     2
100
AcDbLine
 39
96.0
 10
29.71447
 20
29.821933
 30
0.0
 11
29.71447
 21
29.821933
 31
0.0
  0
LINE
  5
894
100
AcDbEntity
  8
BORDER
  6
CONTINUOUS
 62
     2
100
AcDbLine
 39
96.0
 10
29.24572
 20
29.821933
 30
0.0
 11
29.24572
 21
29.821933
 31
0.0
  0
LINE
  5
895
100
AcDbEntity
  8
BORDER
  6
CONTINUOUS
 62
     2
100
AcDbLine
 39
96.0
 10
28.77697
 20
29.821933
 30
0.0
 11
28.77697
 21
29.821933
 31
0.0
  0
LINE
  5
896
100
AcDbEntity
  8
BORDER
  6
CONTINUOUS
 62
     2
100
AcDbLine
 39
96.0
 10
28.30822
 20
29.821933
 30
0.0
 11
28.30822
 21
29.821933
 31
0.0
  0
LINE
  5
897
100
AcDbEntity
  8
BORDER
  6
CONTINUOUS
 62
     2
100
AcDbLine
 39
96.0
 10
29.94885
 20
30.290633
 30
0.0
 11
29.94885
 21
30.290633
 31
0.0
  0
LINE
  5
898
100
AcDbEntity
  8
BORDER
  6
CONTINUOUS
 62
     2
100
AcDbLine
 39
96.0
 10
29.4801
 20
30.290633
 30
0.0
 11
29.4801
 21
30.290633
 31
0.0
  0
LINE
  5
899
100
AcDbEntity
  8
BORDER
  6
CONTINUOUS
 62
     2
100
AcDbLine
 39
96.0
 10
29.01135
 20
30.290633
 30
0.0
 11
29.01135
 21
30.290633
 31
0.0
  0
LINE
  5
89A
100
AcDbEntity
  8
BORDER
  6
CONTINUOUS
 62
     2
100
AcDbLine
 39
96.0
 10
28.5426
 20
30.290633
 30
0.0
 11
28.5426
 21
30.290633
 31
0.0
  0
LINE
  5
89B
100
AcDbEntity
  8
BORDER
  6
CONTINUOUS
 62
     2
100
AcDbLine
 39
96.0
 10
29.71447
 20
30.759433
 30
0.0
 11
29.71447
 21
30.759433
 31
0.0
  0
LINE
  5
89C
100
AcDbEntity
  8
BORDER
  6
CONTINUOUS
 62
     2
100
AcDbLine
 39
96.0
 10
29.24572
 20
30.759433
 30
0.0
 11
29.24572
 21
30.759433
 31
0.0
  0
LINE
  5
89D
100
AcDbEntity
  8
BORDER
  6
CONTINUOUS
 62
     2
100
AcDbLine
 39
96.0
 10
28.77697
 20
30.759433
 30
0.0
 11
28.77697
 21
30.759433
 31
0.0
  0
LINE
  5
89E
100
AcDbEntity
  8
BORDER
  6
CONTINUOUS
 62
     2
100
AcDbLine
 39
96.0
 10
28.30822
 20
30.759433
 30
0.0
 11
28.30822
 21
30.759433
 31
0.0
  0
LINE
  5
89F
100
AcDbEntity
  8
BORDER
  6
CONTINUOUS
 62
     2
100
AcDbLine
 39
96.0
 10
29.94885
 20
31.228133
 30
0.0
 11
29.94885
 21
31.228133
 31
0.0
  0
LINE
  5
8A0
100
AcDbEntity
  8
BORDER
  6
CONTINUOUS
 62
     2
100
AcDbLine
 39
96.0
 10
29.4801
 20
31.228133
 30
0.0
 11
29.4801
 21
31.228133
 31
0.0
  0
LINE
  5
8A1
100
AcDbEntity
  8
BORDER
  6
CONTINUOUS
 62
     2
100
AcDbLine
 39
96.0
 10
29.01135
 20
31.228133
 30
0.0
 11
29.01135
 21
31.228133
 31
0.0
  0
LINE
  5
8A2
100
AcDbEntity
  8
BORDER
  6
CONTINUOUS
 62
     2
100
AcDbLine
 39
96.0
 10
28.5426
 20
31.228133
 30
0.0
 11
28.5426
 21
31.228133
 31
0.0
  0
LINE
  5
8A3
100
AcDbEntity
  8
BORDER
  6
CONTINUOUS
 62
     2
100
AcDbLine
 39
96.0
 10
29.71447
 20
31.696933
 30
0.0
 11
29.71447
 21
31.696933
 31
0.0
  0
LINE
  5
8A4
100
AcDbEntity
  8
BORDER
  6
CONTINUOUS
 62
     2
100
AcDbLine
 39
96.0
 10
29.24572
 20
31.696933
 30
0.0
 11
29.24572
 21
31.696933
 31
0.0
  0
LINE
  5
8A5
100
AcDbEntity
  8
BORDER
  6
CONTINUOUS
 62
     2
100
AcDbLine
 39
96.0
 10
28.77697
 20
31.696933
 30
0.0
 11
28.77697
 21
31.696933
 31
0.0
  0
LINE
  5
8A6
100
AcDbEntity
  8
BORDER
  6
CONTINUOUS
 62
     2
100
AcDbLine
 39
96.0
 10
28.30822
 20
31.696933
 30
0.0
 11
28.30822
 21
31.696933
 31
0.0
  0
LINE
  5
8A7
100
AcDbEntity
  8
BORDER
  6
CONTINUOUS
 62
     2
100
AcDbLine
 39
96.0
 10
29.94885
 20
32.165633
 30
0.0
 11
29.94885
 21
32.165633
 31
0.0
  0
LINE
  5
8A8
100
AcDbEntity
  8
BORDER
  6
CONTINUOUS
 62
     2
100
AcDbLine
 39
96.0
 10
29.4801
 20
32.165633
 30
0.0
 11
29.4801
 21
32.165633
 31
0.0
  0
LINE
  5
8A9
100
AcDbEntity
  8
BORDER
  6
CONTINUOUS
 62
     2
100
AcDbLine
 39
96.0
 10
29.01135
 20
32.165633
 30
0.0
 11
29.01135
 21
32.165633
 31
0.0
  0
LINE
  5
8AA
100
AcDbEntity
  8
BORDER
  6
CONTINUOUS
 62
     2
100
AcDbLine
 39
96.0
 10
28.5426
 20
32.165633
 30
0.0
 11
28.5426
 21
32.165633
 31
0.0
  0
LINE
  5
8AB
100
AcDbEntity
  8
BORDER
  6
CONTINUOUS
 62
     2
100
AcDbLine
 39
96.0
 10
29.71447
 20
32.634433
 30
0.0
 11
29.71447
 21
32.634433
 31
0.0
  0
LINE
  5
8AC
100
AcDbEntity
  8
BORDER
  6
CONTINUOUS
 62
     2
100
AcDbLine
 39
96.0
 10
29.24572
 20
32.634433
 30
0.0
 11
29.24572
 21
32.634433
 31
0.0
  0
LINE
  5
8AD
100
AcDbEntity
  8
BORDER
  6
CONTINUOUS
 62
     2
100
AcDbLine
 39
96.0
 10
28.77697
 20
32.634433
 30
0.0
 11
28.77697
 21
32.634433
 31
0.0
  0
LINE
  5
8AE
100
AcDbEntity
  8
BORDER
  6
CONTINUOUS
 62
     2
100
AcDbLine
 39
96.0
 10
28.30822
 20
32.634433
 30
0.0
 11
28.30822
 21
32.634433
 31
0.0
  0
LINE
  5
8AF
100
AcDbEntity
  8
BORDER
  6
CONTINUOUS
 62
     2
100
AcDbLine
 39
96.0
 10
29.94885
 20
33.103133
 30
0.0
 11
29.94885
 21
33.103133
 31
0.0
  0
LINE
  5
8B0
100
AcDbEntity
  8
BORDER
  6
CONTINUOUS
 62
     2
100
AcDbLine
 39
96.0
 10
29.4801
 20
33.103133
 30
0.0
 11
29.4801
 21
33.103133
 31
0.0
  0
LINE
  5
8B1
100
AcDbEntity
  8
BORDER
  6
CONTINUOUS
 62
     2
100
AcDbLine
 39
96.0
 10
29.01135
 20
33.103133
 30
0.0
 11
29.01135
 21
33.103133
 31
0.0
  0
LINE
  5
8B2
100
AcDbEntity
  8
BORDER
  6
CONTINUOUS
 62
     2
100
AcDbLine
 39
96.0
 10
28.5426
 20
33.103133
 30
0.0
 11
28.5426
 21
33.103133
 31
0.0
  0
LINE
  5
8B3
100
AcDbEntity
  8
BORDER
  6
CONTINUOUS
 62
     2
100
AcDbLine
 39
96.0
 10
29.71447
 20
33.571933
 30
0.0
 11
29.71447
 21
33.571933
 31
0.0
  0
LINE
  5
8B4
100
AcDbEntity
  8
BORDER
  6
CONTINUOUS
 62
     2
100
AcDbLine
 39
96.0
 10
29.24572
 20
33.571933
 30
0.0
 11
29.24572
 21
33.571933
 31
0.0
  0
LINE
  5
8B5
100
AcDbEntity
  8
BORDER
  6
CONTINUOUS
 62
     2
100
AcDbLine
 39
96.0
 10
28.77697
 20
33.571933
 30
0.0
 11
28.77697
 21
33.571933
 31
0.0
  0
LINE
  5
8B6
100
AcDbEntity
  8
BORDER
  6
CONTINUOUS
 62
     2
100
AcDbLine
 39
96.0
 10
28.30822
 20
33.571933
 30
0.0
 11
28.30822
 21
33.571933
 31
0.0
  0
LINE
  5
8B7
100
AcDbEntity
  8
BORDER
  6
CONTINUOUS
 62
     2
100
AcDbLine
 39
96.0
 10
29.94885
 20
34.040633
 30
0.0
 11
29.94885
 21
34.040633
 31
0.0
  0
LINE
  5
8B8
100
AcDbEntity
  8
BORDER
  6
CONTINUOUS
 62
     2
100
AcDbLine
 39
96.0
 10
29.4801
 20
34.040633
 30
0.0
 11
29.4801
 21
34.040633
 31
0.0
  0
LINE
  5
8B9
100
AcDbEntity
  8
BORDER
  6
CONTINUOUS
 62
     2
100
AcDbLine
 39
96.0
 10
29.01135
 20
34.040633
 30
0.0
 11
29.01135
 21
34.040633
 31
0.0
  0
LINE
  5
8BA
100
AcDbEntity
  8
BORDER
  6
CONTINUOUS
 62
     2
100
AcDbLine
 39
96.0
 10
28.5426
 20
34.040633
 30
0.0
 11
28.5426
 21
34.040633
 31
0.0
  0
LINE
  5
8BB
100
AcDbEntity
  8
BORDER
  6
CONTINUOUS
 62
     2
100
AcDbLine
 39
96.0
 10
29.71447
 20
34.509433
 30
0.0
 11
29.71447
 21
34.509433
 31
0.0
  0
LINE
  5
8BC
100
AcDbEntity
  8
BORDER
  6
CONTINUOUS
 62
     2
100
AcDbLine
 39
96.0
 10
29.24572
 20
34.509433
 30
0.0
 11
29.24572
 21
34.509433
 31
0.0
  0
LINE
  5
8BD
100
AcDbEntity
  8
BORDER
  6
CONTINUOUS
 62
     2
100
AcDbLine
 39
96.0
 10
28.77697
 20
34.509433
 30
0.0
 11
28.77697
 21
34.509433
 31
0.0
  0
LINE
  5
8BE
100
AcDbEntity
  8
BORDER
  6
CONTINUOUS
 62
     2
100
AcDbLine
 39
96.0
 10
28.30822
 20
34.509433
 30
0.0
 11
28.30822
 21
34.509433
 31
0.0
  0
LINE
  5
8BF
100
AcDbEntity
  8
BORDER
  6
CONTINUOUS
 62
     2
100
AcDbLine
 39
96.0
 10
29.94885
 20
34.978133
 30
0.0
 11
29.94885
 21
34.978133
 31
0.0
  0
LINE
  5
8C0
100
AcDbEntity
  8
BORDER
  6
CONTINUOUS
 62
     2
100
AcDbLine
 39
96.0
 10
29.4801
 20
34.978133
 30
0.0
 11
29.4801
 21
34.978133
 31
0.0
  0
LINE
  5
8C1
100
AcDbEntity
  8
BORDER
  6
CONTINUOUS
 62
     2
100
AcDbLine
 39
96.0
 10
29.01135
 20
34.978133
 30
0.0
 11
29.01135
 21
34.978133
 31
0.0
  0
LINE
  5
8C2
100
AcDbEntity
  8
BORDER
  6
CONTINUOUS
 62
     2
100
AcDbLine
 39
96.0
 10
28.5426
 20
34.978133
 30
0.0
 11
28.5426
 21
34.978133
 31
0.0
  0
LINE
  5
8C3
100
AcDbEntity
  8
BORDER
  6
CONTINUOUS
 62
     2
100
AcDbLine
 39
96.0
 10
29.71447
 20
35.446933
 30
0.0
 11
29.71447
 21
35.446933
 31
0.0
  0
LINE
  5
8C4
100
AcDbEntity
  8
BORDER
  6
CONTINUOUS
 62
     2
100
AcDbLine
 39
96.0
 10
29.24572
 20
35.446933
 30
0.0
 11
29.24572
 21
35.446933
 31
0.0
  0
LINE
  5
8C5
100
AcDbEntity
  8
BORDER
  6
CONTINUOUS
 62
     2
100
AcDbLine
 39
96.0
 10
28.77697
 20
35.446933
 30
0.0
 11
28.77697
 21
35.446933
 31
0.0
  0
LINE
  5
8C6
100
AcDbEntity
  8
BORDER
  6
CONTINUOUS
 62
     2
100
AcDbLine
 39
96.0
 10
28.30822
 20
35.446933
 30
0.0
 11
28.30822
 21
35.446933
 31
0.0
  0
LINE
  5
8C7
100
AcDbEntity
  8
BORDER
  6
CONTINUOUS
 62
     2
100
AcDbLine
 39
96.0
 10
29.94885
 20
35.915633
 30
0.0
 11
29.94885
 21
35.915633
 31
0.0
  0
LINE
  5
8C8
100
AcDbEntity
  8
BORDER
  6
CONTINUOUS
 62
     2
100
AcDbLine
 39
96.0
 10
29.4801
 20
35.915633
 30
0.0
 11
29.4801
 21
35.915633
 31
0.0
  0
LINE
  5
8C9
100
AcDbEntity
  8
BORDER
  6
CONTINUOUS
 62
     2
100
AcDbLine
 39
96.0
 10
29.01135
 20
35.915633
 30
0.0
 11
29.01135
 21
35.915633
 31
0.0
  0
LINE
  5
8CA
100
AcDbEntity
  8
BORDER
  6
CONTINUOUS
 62
     2
100
AcDbLine
 39
96.0
 10
28.5426
 20
35.915633
 30
0.0
 11
28.5426
 21
35.915633
 31
0.0
  0
LINE
  5
8CB
100
AcDbEntity
  8
BORDER
  6
CONTINUOUS
 62
     2
100
AcDbLine
 39
96.0
 10
29.71447
 20
36.384433
 30
0.0
 11
29.71447
 21
36.384433
 31
0.0
  0
LINE
  5
8CC
100
AcDbEntity
  8
BORDER
  6
CONTINUOUS
 62
     2
100
AcDbLine
 39
96.0
 10
29.24572
 20
36.384433
 30
0.0
 11
29.24572
 21
36.384433
 31
0.0
  0
LINE
  5
8CD
100
AcDbEntity
  8
BORDER
  6
CONTINUOUS
 62
     2
100
AcDbLine
 39
96.0
 10
28.77697
 20
36.384433
 30
0.0
 11
28.77697
 21
36.384433
 31
0.0
  0
LINE
  5
8CE
100
AcDbEntity
  8
BORDER
  6
CONTINUOUS
 62
     2
100
AcDbLine
 39
96.0
 10
28.30822
 20
36.384433
 30
0.0
 11
28.30822
 21
36.384433
 31
0.0
  0
LINE
  5
8CF
100
AcDbEntity
  8
BORDER
  6
CONTINUOUS
 62
     2
100
AcDbLine
 39
96.0
 10
29.94885
 20
36.853133
 30
0.0
 11
29.94885
 21
36.853133
 31
0.0
  0
LINE
  5
8D0
100
AcDbEntity
  8
BORDER
  6
CONTINUOUS
 62
     2
100
AcDbLine
 39
96.0
 10
29.4801
 20
36.853133
 30
0.0
 11
29.4801
 21
36.853133
 31
0.0
  0
LINE
  5
8D1
100
AcDbEntity
  8
BORDER
  6
CONTINUOUS
 62
     2
100
AcDbLine
 39
96.0
 10
29.01135
 20
36.853133
 30
0.0
 11
29.01135
 21
36.853133
 31
0.0
  0
LINE
  5
8D2
100
AcDbEntity
  8
BORDER
  6
CONTINUOUS
 62
     2
100
AcDbLine
 39
96.0
 10
28.5426
 20
36.853133
 30
0.0
 11
28.5426
 21
36.853133
 31
0.0
  0
LINE
  5
8D3
100
AcDbEntity
  8
BORDER
  6
CONTINUOUS
 62
     2
100
AcDbLine
 39
96.0
 10
29.71447
 20
37.321933
 30
0.0
 11
29.71447
 21
37.321933
 31
0.0
  0
LINE
  5
8D4
100
AcDbEntity
  8
BORDER
  6
CONTINUOUS
 62
     2
100
AcDbLine
 39
96.0
 10
29.24572
 20
37.321933
 30
0.0
 11
29.24572
 21
37.321933
 31
0.0
  0
LINE
  5
8D5
100
AcDbEntity
  8
BORDER
  6
CONTINUOUS
 62
     2
100
AcDbLine
 39
96.0
 10
28.77697
 20
37.321933
 30
0.0
 11
28.77697
 21
37.321933
 31
0.0
  0
LINE
  5
8D6
100
AcDbEntity
  8
BORDER
  6
CONTINUOUS
 62
     2
100
AcDbLine
 39
96.0
 10
28.30822
 20
37.321933
 30
0.0
 11
28.30822
 21
37.321933
 31
0.0
  0
LINE
  5
8D7
100
AcDbEntity
  8
BORDER
  6
CONTINUOUS
 62
     2
100
AcDbLine
 39
96.0
 10
29.94885
 20
37.790633
 30
0.0
 11
29.94885
 21
37.790633
 31
0.0
  0
LINE
  5
8D8
100
AcDbEntity
  8
BORDER
  6
CONTINUOUS
 62
     2
100
AcDbLine
 39
96.0
 10
29.4801
 20
37.790633
 30
0.0
 11
29.4801
 21
37.790633
 31
0.0
  0
LINE
  5
8D9
100
AcDbEntity
  8
BORDER
  6
CONTINUOUS
 62
     2
100
AcDbLine
 39
96.0
 10
29.01135
 20
37.790633
 30
0.0
 11
29.01135
 21
37.790633
 31
0.0
  0
LINE
  5
8DA
100
AcDbEntity
  8
BORDER
  6
CONTINUOUS
 62
     2
100
AcDbLine
 39
96.0
 10
28.5426
 20
37.790633
 30
0.0
 11
28.5426
 21
37.790633
 31
0.0
  0
LINE
  5
8DB
100
AcDbEntity
  8
BORDER
  6
CONTINUOUS
 62
     2
100
AcDbLine
 39
96.0
 10
29.71447
 20
38.259433
 30
0.0
 11
29.71447
 21
38.259433
 31
0.0
  0
LINE
  5
8DC
100
AcDbEntity
  8
BORDER
  6
CONTINUOUS
 62
     2
100
AcDbLine
 39
96.0
 10
29.24572
 20
38.259433
 30
0.0
 11
29.24572
 21
38.259433
 31
0.0
  0
LINE
  5
8DD
100
AcDbEntity
  8
BORDER
  6
CONTINUOUS
 62
     2
100
AcDbLine
 39
96.0
 10
28.77697
 20
38.259433
 30
0.0
 11
28.77697
 21
38.259433
 31
0.0
  0
LINE
  5
8DE
100
AcDbEntity
  8
BORDER
  6
CONTINUOUS
 62
     2
100
AcDbLine
 39
96.0
 10
28.30822
 20
38.259433
 30
0.0
 11
28.30822
 21
38.259433
 31
0.0
  0
LINE
  5
8DF
100
AcDbEntity
  8
BORDER
  6
CONTINUOUS
 62
     1
100
AcDbLine
 39
96.0
 10
36.16247
 20
27.708733
 30
0.0
 11
36.17321
 21
27.770333
 31
0.0
  0
LINE
  5
8E0
100
AcDbEntity
  8
BORDER
  6
CONTINUOUS
 62
     1
100
AcDbLine
 39
96.0
 10
35.72839
 20
25.246733
 30
0.0
 11
35.73913
 21
25.308333
 31
0.0
  0
LINE
  5
8E1
100
AcDbEntity
  8
BORDER
  6
CONTINUOUS
 62
     1
100
AcDbLine
 39
96.0
 10
35.0028
 20
35.529033
 30
0.0
 11
35.01354
 21
35.590633
 31
0.0
  0
LINE
  5
8E2
100
AcDbEntity
  8
BORDER
  6
CONTINUOUS
 62
     1
100
AcDbLine
 39
96.0
 10
34.56872
 20
33.066933
 30
0.0
 11
34.57946
 21
33.128533
 31
0.0
  0
LINE
  5
8E3
100
AcDbEntity
  8
BORDER
  6
CONTINUOUS
 62
     1
100
AcDbLine
 39
96.0
 10
34.13464
 20
30.604933
 30
0.0
 11
34.14538
 21
30.666533
 31
0.0
  0
LINE
  5
8E4
100
AcDbEntity
  8
BORDER
  6
CONTINUOUS
 62
     1
100
AcDbLine
 39
96.0
 10
33.70056
 20
28.142933
 30
0.0
 11
33.7113
 21
28.204533
 31
0.0
  0
LINE
  5
8E5
100
AcDbEntity
  8
BORDER
  6
CONTINUOUS
 62
     1
100
AcDbLine
 39
96.0
 10
32.10705
 20
33.501033
 30
0.0
 11
32.11779
 21
33.562633
 31
0.0
  0
LINE
  5
8E6
100
AcDbEntity
  8
BORDER
  6
CONTINUOUS
 62
     1
100
AcDbLine
 39
96.0
 10
31.67297
 20
31.039033
 30
0.0
 11
31.68371
 21
31.100633
 31
0.0
  0
LINE
  5
8E7
100
AcDbEntity
  8
BORDER
  6
CONTINUOUS
 62
     1
100
AcDbLine
 39
96.0
 10
31.23889
 20
28.577033
 30
0.0
 11
31.24963
 21
28.638533
 31
0.0
  0
LINE
  5
8E8
100
AcDbEntity
  8
BORDER
  6
CONTINUOUS
 62
     1
100
AcDbLine
 39
96.0
 10
30.8048
 20
26.114933
 30
0.0
 11
30.81555
 21
26.176533
 31
0.0
  0
LINE
  5
8E9
100
AcDbEntity
  8
BORDER
  6
CONTINUOUS
 62
     1
100
AcDbLine
 39
96.0
 10
30.07922
 20
36.397133
 30
0.0
 11
30.08996
 21
36.458733
 31
0.0
  0
LINE
  5
8EA
100
AcDbEntity
  8
BORDER
  6
CONTINUOUS
 62
     1
100
AcDbLine
 39
96.0
 10
36.0841
 20
26.105233
 30
0.0
 11
36.11999
 21
26.156433
 31
0.0
  0
LINE
  5
8EB
100
AcDbEntity
  8
BORDER
  6
CONTINUOUS
 62
     1
100
AcDbLine
 39
96.0
 10
35.47058
 20
29.586833
 30
0.0
 11
35.50646
 21
29.638033
 31
0.0
  0
LINE
  5
8EC
100
AcDbEntity
  8
BORDER
  6
CONTINUOUS
 62
     1
100
AcDbLine
 39
96.0
 10
34.03649
 20
27.538933
 30
0.0
 11
34.07238
 21
27.590133
 31
0.0
  0
LINE
  5
8ED
100
AcDbEntity
  8
BORDER
  6
CONTINUOUS
 62
     1
100
AcDbLine
 39
96.0
 10
34.85681
 20
33.068633
 30
0.0
 11
34.89269
 21
33.119933
 31
0.0
  0
LINE
  5
8EE
100
AcDbEntity
  8
BORDER
  6
CONTINUOUS
 62
     1
100
AcDbLine
 39
96.0
 10
31.98864
 20
28.972933
 30
0.0
 11
32.02453
 21
29.024033
 31
0.0
  0
LINE
  5
8EF
100
AcDbEntity
  8
BORDER
  6
CONTINUOUS
 62
     1
100
AcDbLine
 39
96.0
 10
30.55456
 20
26.925033
 30
0.0
 11
30.59045
 21
26.976233
 31
0.0
  0
LINE
  5
8F0
100
AcDbEntity
  8
BORDER
  6
CONTINUOUS
 62
     1
100
AcDbLine
 39
96.0
 10
32.80895
 20
34.502533
 30
0.0
 11
32.84484
 21
34.553733
 31
0.0
  0
LINE
  5
8F1
100
AcDbEntity
  8
BORDER
  6
CONTINUOUS
 62
     1
100
AcDbLine
 39
96.0
 10
31.37487
 20
32.454633
 30
0.0
 11
31.41076
 21
32.505833
 31
0.0
  0
LINE
  5
8F2
100
AcDbEntity
  8
BORDER
  6
CONTINUOUS
 62
     1
100
AcDbLine
 39
96.0
 10
30.76086
 20
35.936433
 30
0.0
 11
30.79675
 21
35.987733
 31
0.0
  0
LINE
  5
8F3
100
AcDbEntity
  8
BORDER
  6
CONTINUOUS
 62
     1
100
AcDbLine
 39
96.0
 10
35.41833
 20
25.687633
 30
0.0
 11
35.47717
 21
25.709033
 31
0.0
  0
LINE
  5
8F4
100
AcDbEntity
  8
BORDER
  6
CONTINUOUS
 62
     1
100
AcDbLine
 39
96.0
 10
34.56359
 20
28.036933
 30
0.0
 11
34.62243
 21
28.058233
 31
0.0
  0
LINE
  5
8F5
100
AcDbEntity
  8
BORDER
  6
CONTINUOUS
 62
     1
100
AcDbLine
 39
96.0
 10
32.21423
 20
27.181933
 30
0.0
 11
32.27307
 21
27.203233
 31
0.0
  0
LINE
  5
8F6
100
AcDbEntity
  8
BORDER
  6
CONTINUOUS
 62
     1
100
AcDbLine
 39
96.0
 10
36.05798
 20
31.241133
 30
0.0
 11
36.11682
 21
31.262533
 31
0.0
  0
LINE
  5
8F7
100
AcDbEntity
  8
BORDER
  6
CONTINUOUS
 62
     1
100
AcDbLine
 39
96.0
 10
31.35925
 20
29.531133
 30
0.0
 11
31.41809
 21
29.552433
 31
0.0
  0
LINE
  5
8F8
100
AcDbEntity
  8
BORDER
  6
CONTINUOUS
 62
     1
100
AcDbLine
 39
96.0
 10
35.203
 20
33.590433
 30
0.0
 11
35.26184
 21
33.611733
 31
0.0
  0
LINE
  5
8F9
100
AcDbEntity
  8
BORDER
  6
CONTINUOUS
 62
     1
100
AcDbLine
 39
96.0
 10
32.85363
 20
32.735333
 30
0.0
 11
32.91247
 21
32.756733
 31
0.0
  0
LINE
  5
8FA
100
AcDbEntity
  8
BORDER
  6
CONTINUOUS
 62
     1
100
AcDbLine
 39
96.0
 10
30.50427
 20
31.880333
 30
0.0
 11
30.5631
 21
31.901733
 31
0.0
  0
LINE
  5
8FB
100
AcDbEntity
  8
BORDER
  6
CONTINUOUS
 62
     1
100
AcDbLine
 39
96.0
 10
31.99865
 20
35.084633
 30
0.0
 11
32.05749
 21
35.105933
 31
0.0
  0
LINE
  5
8FC
100
AcDbEntity
  8
BORDER
  6
CONTINUOUS
 62
     3
100
AcDbLine
 39
96.0
 10
36.22082
 20
23.395133
 30
0.0
 11
38.09582
 21
23.395133
 31
0.0
  0
LINE
  5
8FD
100
AcDbEntity
  8
BORDER
  6
CONTINUOUS
 62
     3
100
AcDbLine
 39
96.0
 10
29.97082
 20
38.395133
 30
0.0
 11
28.09582
 21
38.395133
 31
0.0
  0
ARC
  5
8FE
100
AcDbEntity
  8
BORDER
  6
CONTINUOUS
 62
     3
100
AcDbCircle
 39
96.0
 10
33.09582
 20
38.395133
 30
0.0
 40
3.0
100
AcDbArc
 50
180.0
 51
0.0
  0
ARC
  5
8FF
100
AcDbEntity
  8
BORDER
  6
CONTINUOUS
 62
     3
100
AcDbCircle
 39
96.0
 10
33.09582
 20
23.395133
 30
0.0
 40
3.0
100
AcDbArc
 50
0.0
 51
180.0
  0
LINE
  5
900
100
AcDbEntity
  8
BORDER
  6
CONTINUOUS
 62
     3
100
AcDbLine
 39
96.0
 10
36.22082
 20
23.395133
 30
0.0
 11
36.22082
 21
38.395133
 31
0.0
  0
LINE
  5
901
100
AcDbEntity
  8
BORDER
  6
CONTINUOUS
 62
     3
100
AcDbLine
 39
96.0
 10
29.97082
 20
38.395133
 30
0.0
 11
29.97082
 21
23.395133
 31
0.0
  0
LINE
  5
902
100
AcDbEntity
  8
BORDER
  6
CONTINUOUS
 62
     3
100
AcDbLine
 39
96.0
 10
28.09582
 20
38.395133
 30
0.0
 11
28.09582
 21
23.395133
 31
0.0
  0
LINE
  5
903
100
AcDbEntity
  8
BORDER
  6
CONTINUOUS
 62
     3
100
AcDbLine
 39
96.0
 10
38.09582
 20
38.395133
 30
0.0
 11
36.22082
 21
38.395133
 31
0.0
  0
LINE
  5
904
100
AcDbEntity
  8
BORDER
  6
CONTINUOUS
 62
     3
100
AcDbLine
 39
96.0
 10
38.09582
 20
23.395133
 30
0.0
 11
38.09582
 21
38.395133
 31
0.0
  0
LINE
  5
905
100
AcDbEntity
  8
BORDER
  6
CONTINUOUS
 62
     3
100
AcDbLine
 39
96.0
 10
28.09582
 20
23.395133
 30
0.0
 11
29.97082
 21
23.395133
 31
0.0
  0
LINE
  5
906
100
AcDbEntity
  8
BORDER
  6
CONTINUOUS
 62
     3
100
AcDbLine
 39
96.0
 10
29.97082
 20
23.395133
 30
0.0
 11
28.09582
 21
23.395133
 31
0.0
  0
LINE
  5
907
100
AcDbEntity
  8
BORDER
  6
CONTINUOUS
 62
     3
100
AcDbLine
 39
96.0
 10
38.09582
 20
23.395133
 30
0.0
 11
36.22082
 21
23.395133
 31
0.0
  0
LINE
  5
908
100
AcDbEntity
  8
BORDER
  6
CONTINUOUS
 62
     1
100
AcDbLine
 39
96.0
 10
33.42272
 20
39.346733
 30
0.0
 11
33.45861
 21
39.397933
 31
0.0
  0
LINE
  5
909
100
AcDbEntity
  8
BORDER
  6
CONTINUOUS
 62
     1
100
AcDbLine
 39
96.0
 10
34.13464
 20
38.930833
 30
0.0
 11
34.14538
 21
38.992433
 31
0.0
  0
LINE
  5
90A
100
AcDbEntity
  8
BORDER
  6
CONTINUOUS
 62
     1
100
AcDbLine
 39
96.0
 10
33.70861
 20
38.712033
 30
0.0
 11
33.76745
 21
38.733433
 31
0.0
  0
LINE
  5
90B
100
AcDbEntity
  8
BORDER
  6
CONTINUOUS
 62
    10
100
AcDbLine
 39
96.0
 10
33.64782
 20
41.343933
 30
0.0
 11
33.63684
 21
41.282433
 31
0.0
  0
LINE
  5
90C
100
AcDbEntity
  8
BORDER
  6
CONTINUOUS
 62
    10
100
AcDbLine
 39
96.0
 10
31.29626
 20
38.282933
 30
0.0
 11
31.25134
 21
38.218933
 31
0.0
  0
LINE
  5
90D
100
AcDbEntity
  8
BORDER
  6
CONTINUOUS
 62
    10
100
AcDbLine
 39
96.0
 10
33.08874
 20
40.842833
 30
0.0
 11
33.04382
 21
40.778833
 31
0.0
  0
LINE
  5
90E
100
AcDbEntity
  8
BORDER
  6
CONTINUOUS
 62
    10
100
AcDbLine
 39
96.0
 10
30.9486
 20
40.327333
 30
0.0
 11
30.87512
 21
40.300533
 31
0.0
  0
LINE
  5
90F
100
AcDbEntity
  8
BORDER
  6
CONTINUOUS
 62
     2
100
AcDbLine
 39
96.0
 10
37.9176
 20
38.728133
 30
0.0
 11
37.9176
 21
38.728133
 31
0.0
  0
LINE
  5
910
100
AcDbEntity
  8
BORDER
  6
CONTINUOUS
 62
     2
100
AcDbLine
 39
96.0
 10
37.44885
 20
38.728133
 30
0.0
 11
37.44885
 21
38.728133
 31
0.0
  0
LINE
  5
911
100
AcDbEntity
  8
BORDER
  6
CONTINUOUS
 62
     2
100
AcDbLine
 39
96.0
 10
36.9801
 20
38.728133
 30
0.0
 11
36.9801
 21
38.728133
 31
0.0
  0
LINE
  5
912
100
AcDbEntity
  8
BORDER
  6
CONTINUOUS
 62
     2
100
AcDbLine
 39
96.0
 10
36.51135
 20
38.728133
 30
0.0
 11
36.51135
 21
38.728133
 31
0.0
  0
LINE
  5
913
100
AcDbEntity
  8
BORDER
  6
CONTINUOUS
 62
     2
100
AcDbLine
 39
96.0
 10
37.68322
 20
39.196933
 30
0.0
 11
37.68322
 21
39.196933
 31
0.0
  0
LINE
  5
914
100
AcDbEntity
  8
BORDER
  6
CONTINUOUS
 62
     2
100
AcDbLine
 39
96.0
 10
37.21447
 20
39.196933
 30
0.0
 11
37.21447
 21
39.196933
 31
0.0
  0
LINE
  5
915
100
AcDbEntity
  8
BORDER
  6
CONTINUOUS
 62
     2
100
AcDbLine
 39
96.0
 10
36.74572
 20
39.196933
 30
0.0
 11
36.74572
 21
39.196933
 31
0.0
  0
LINE
  5
916
100
AcDbEntity
  8
BORDER
  6
CONTINUOUS
 62
     2
100
AcDbLine
 39
96.0
 10
36.27697
 20
39.196933
 30
0.0
 11
36.27697
 21
39.196933
 31
0.0
  0
LINE
  5
917
100
AcDbEntity
  8
BORDER
  6
CONTINUOUS
 62
     2
100
AcDbLine
 39
96.0
 10
37.9176
 20
39.665633
 30
0.0
 11
37.9176
 21
39.665633
 31
0.0
  0
LINE
  5
918
100
AcDbEntity
  8
BORDER
  6
CONTINUOUS
 62
     2
100
AcDbLine
 39
96.0
 10
37.44885
 20
39.665633
 30
0.0
 11
37.44885
 21
39.665633
 31
0.0
  0
LINE
  5
919
100
AcDbEntity
  8
BORDER
  6
CONTINUOUS
 62
     2
100
AcDbLine
 39
96.0
 10
36.9801
 20
39.665633
 30
0.0
 11
36.9801
 21
39.665633
 31
0.0
  0
LINE
  5
91A
100
AcDbEntity
  8
BORDER
  6
CONTINUOUS
 62
     2
100
AcDbLine
 39
96.0
 10
36.51135
 20
39.665633
 30
0.0
 11
36.51135
 21
39.665633
 31
0.0
  0
LINE
  5
91B
100
AcDbEntity
  8
BORDER
  6
CONTINUOUS
 62
     2
100
AcDbLine
 39
96.0
 10
37.68322
 20
40.134433
 30
0.0
 11
37.68322
 21
40.134433
 31
0.0
  0
LINE
  5
91C
100
AcDbEntity
  8
BORDER
  6
CONTINUOUS
 62
     2
100
AcDbLine
 39
96.0
 10
37.21447
 20
40.134433
 30
0.0
 11
37.21447
 21
40.134433
 31
0.0
  0
LINE
  5
91D
100
AcDbEntity
  8
BORDER
  6
CONTINUOUS
 62
     2
100
AcDbLine
 39
96.0
 10
36.74572
 20
40.134433
 30
0.0
 11
36.74572
 21
40.134433
 31
0.0
  0
LINE
  5
91E
100
AcDbEntity
  8
BORDER
  6
CONTINUOUS
 62
     2
100
AcDbLine
 39
96.0
 10
36.27697
 20
40.134433
 30
0.0
 11
36.27697
 21
40.134433
 31
0.0
  0
LINE
  5
91F
100
AcDbEntity
  8
BORDER
  6
CONTINUOUS
 62
     2
100
AcDbLine
 39
96.0
 10
37.9176
 20
40.603133
 30
0.0
 11
37.9176
 21
40.603133
 31
0.0
  0
LINE
  5
920
100
AcDbEntity
  8
BORDER
  6
CONTINUOUS
 62
     2
100
AcDbLine
 39
96.0
 10
37.44885
 20
40.603133
 30
0.0
 11
37.44885
 21
40.603133
 31
0.0
  0
LINE
  5
921
100
AcDbEntity
  8
BORDER
  6
CONTINUOUS
 62
     2
100
AcDbLine
 39
96.0
 10
36.9801
 20
40.603133
 30
0.0
 11
36.9801
 21
40.603133
 31
0.0
  0
LINE
  5
922
100
AcDbEntity
  8
BORDER
  6
CONTINUOUS
 62
     2
100
AcDbLine
 39
96.0
 10
36.51135
 20
40.603133
 30
0.0
 11
36.51135
 21
40.603133
 31
0.0
  0
LINE
  5
923
100
AcDbEntity
  8
BORDER
  6
CONTINUOUS
 62
     2
100
AcDbLine
 39
96.0
 10
37.68322
 20
41.071933
 30
0.0
 11
37.68322
 21
41.071933
 31
0.0
  0
LINE
  5
924
100
AcDbEntity
  8
BORDER
  6
CONTINUOUS
 62
     2
100
AcDbLine
 39
96.0
 10
37.21447
 20
41.071933
 30
0.0
 11
37.21447
 21
41.071933
 31
0.0
  0
LINE
  5
925
100
AcDbEntity
  8
BORDER
  6
CONTINUOUS
 62
     2
100
AcDbLine
 39
96.0
 10
36.74572
 20
41.071933
 30
0.0
 11
36.74572
 21
41.071933
 31
0.0
  0
LINE
  5
926
100
AcDbEntity
  8
BORDER
  6
CONTINUOUS
 62
     2
100
AcDbLine
 39
96.0
 10
36.27697
 20
41.071933
 30
0.0
 11
36.27697
 21
41.071933
 31
0.0
  0
LINE
  5
927
100
AcDbEntity
  8
BORDER
  6
CONTINUOUS
 62
     2
100
AcDbLine
 39
96.0
 10
37.9176
 20
41.540633
 30
0.0
 11
37.9176
 21
41.540633
 31
0.0
  0
LINE
  5
928
100
AcDbEntity
  8
BORDER
  6
CONTINUOUS
 62
     2
100
AcDbLine
 39
96.0
 10
37.44885
 20
41.540633
 30
0.0
 11
37.44885
 21
41.540633
 31
0.0
  0
LINE
  5
929
100
AcDbEntity
  8
BORDER
  6
CONTINUOUS
 62
     2
100
AcDbLine
 39
96.0
 10
36.9801
 20
41.540633
 30
0.0
 11
36.9801
 21
41.540633
 31
0.0
  0
LINE
  5
92A
100
AcDbEntity
  8
BORDER
  6
CONTINUOUS
 62
     2
100
AcDbLine
 39
96.0
 10
36.51135
 20
41.540633
 30
0.0
 11
36.51135
 21
41.540633
 31
0.0
  0
LINE
  5
92B
100
AcDbEntity
  8
BORDER
  6
CONTINUOUS
 62
     2
100
AcDbLine
 39
96.0
 10
37.68322
 20
42.009433
 30
0.0
 11
37.68322
 21
42.009433
 31
0.0
  0
LINE
  5
92C
100
AcDbEntity
  8
BORDER
  6
CONTINUOUS
 62
     2
100
AcDbLine
 39
96.0
 10
37.21447
 20
42.009433
 30
0.0
 11
37.21447
 21
42.009433
 31
0.0
  0
LINE
  5
92D
100
AcDbEntity
  8
BORDER
  6
CONTINUOUS
 62
     2
100
AcDbLine
 39
96.0
 10
36.74572
 20
42.009433
 30
0.0
 11
36.74572
 21
42.009433
 31
0.0
  0
LINE
  5
92E
100
AcDbEntity
  8
BORDER
  6
CONTINUOUS
 62
     2
100
AcDbLine
 39
96.0
 10
36.27697
 20
42.009433
 30
0.0
 11
36.27697
 21
42.009433
 31
0.0
  0
LINE
  5
92F
100
AcDbEntity
  8
BORDER
  6
CONTINUOUS
 62
     2
100
AcDbLine
 39
96.0
 10
37.9176
 20
42.478133
 30
0.0
 11
37.9176
 21
42.478133
 31
0.0
  0
LINE
  5
930
100
AcDbEntity
  8
BORDER
  6
CONTINUOUS
 62
     2
100
AcDbLine
 39
96.0
 10
37.44885
 20
42.478133
 30
0.0
 11
37.44885
 21
42.478133
 31
0.0
  0
LINE
  5
931
100
AcDbEntity
  8
BORDER
  6
CONTINUOUS
 62
     2
100
AcDbLine
 39
96.0
 10
36.9801
 20
42.478133
 30
0.0
 11
36.9801
 21
42.478133
 31
0.0
  0
LINE
  5
932
100
AcDbEntity
  8
BORDER
  6
CONTINUOUS
 62
     2
100
AcDbLine
 39
96.0
 10
36.51135
 20
42.478133
 30
0.0
 11
36.51135
 21
42.478133
 31
0.0
  0
LINE
  5
933
100
AcDbEntity
  8
BORDER
  6
CONTINUOUS
 62
     2
100
AcDbLine
 39
96.0
 10
37.68322
 20
42.946933
 30
0.0
 11
37.68322
 21
42.946933
 31
0.0
  0
LINE
  5
934
100
AcDbEntity
  8
BORDER
  6
CONTINUOUS
 62
     2
100
AcDbLine
 39
96.0
 10
37.21447
 20
42.946933
 30
0.0
 11
37.21447
 21
42.946933
 31
0.0
  0
LINE
  5
935
100
AcDbEntity
  8
BORDER
  6
CONTINUOUS
 62
     2
100
AcDbLine
 39
96.0
 10
36.74572
 20
42.946933
 30
0.0
 11
36.74572
 21
42.946933
 31
0.0
  0
LINE
  5
936
100
AcDbEntity
  8
BORDER
  6
CONTINUOUS
 62
     2
100
AcDbLine
 39
96.0
 10
36.27697
 20
42.946933
 30
0.0
 11
36.27697
 21
42.946933
 31
0.0
  0
LINE
  5
937
100
AcDbEntity
  8
BORDER
  6
CONTINUOUS
 62
     2
100
AcDbLine
 39
96.0
 10
37.9176
 20
43.415633
 30
0.0
 11
37.9176
 21
43.415633
 31
0.0
  0
LINE
  5
938
100
AcDbEntity
  8
BORDER
  6
CONTINUOUS
 62
     2
100
AcDbLine
 39
96.0
 10
37.44885
 20
43.415633
 30
0.0
 11
37.44885
 21
43.415633
 31
0.0
  0
LINE
  5
939
100
AcDbEntity
  8
BORDER
  6
CONTINUOUS
 62
     2
100
AcDbLine
 39
96.0
 10
36.9801
 20
43.415633
 30
0.0
 11
36.9801
 21
43.415633
 31
0.0
  0
LINE
  5
93A
100
AcDbEntity
  8
BORDER
  6
CONTINUOUS
 62
     2
100
AcDbLine
 39
96.0
 10
36.51135
 20
43.415633
 30
0.0
 11
36.51135
 21
43.415633
 31
0.0
  0
LINE
  5
93B
100
AcDbEntity
  8
BORDER
  6
CONTINUOUS
 62
     2
100
AcDbLine
 39
96.0
 10
37.68322
 20
43.884433
 30
0.0
 11
37.68322
 21
43.884433
 31
0.0
  0
LINE
  5
93C
100
AcDbEntity
  8
BORDER
  6
CONTINUOUS
 62
     2
100
AcDbLine
 39
96.0
 10
37.21447
 20
43.884433
 30
0.0
 11
37.21447
 21
43.884433
 31
0.0
  0
LINE
  5
93D
100
AcDbEntity
  8
BORDER
  6
CONTINUOUS
 62
     2
100
AcDbLine
 39
96.0
 10
36.74572
 20
43.884433
 30
0.0
 11
36.74572
 21
43.884433
 31
0.0
  0
LINE
  5
93E
100
AcDbEntity
  8
BORDER
  6
CONTINUOUS
 62
     2
100
AcDbLine
 39
96.0
 10
36.27697
 20
43.884433
 30
0.0
 11
36.27697
 21
43.884433
 31
0.0
  0
LINE
  5
93F
100
AcDbEntity
  8
BORDER
  6
CONTINUOUS
 62
     2
100
AcDbLine
 39
96.0
 10
37.9176
 20
44.353233
 30
0.0
 11
37.9176
 21
44.353233
 31
0.0
  0
LINE
  5
940
100
AcDbEntity
  8
BORDER
  6
CONTINUOUS
 62
     2
100
AcDbLine
 39
96.0
 10
37.44885
 20
44.353233
 30
0.0
 11
37.44885
 21
44.353233
 31
0.0
  0
LINE
  5
941
100
AcDbEntity
  8
BORDER
  6
CONTINUOUS
 62
     2
100
AcDbLine
 39
96.0
 10
36.9801
 20
44.353233
 30
0.0
 11
36.9801
 21
44.353233
 31
0.0
  0
LINE
  5
942
100
AcDbEntity
  8
BORDER
  6
CONTINUOUS
 62
     2
100
AcDbLine
 39
96.0
 10
36.51135
 20
44.353233
 30
0.0
 11
36.51135
 21
44.353233
 31
0.0
  0
LINE
  5
943
100
AcDbEntity
  8
BORDER
  6
CONTINUOUS
 62
     2
100
AcDbLine
 39
96.0
 10
37.68322
 20
44.821933
 30
0.0
 11
37.68322
 21
44.821933
 31
0.0
  0
LINE
  5
944
100
AcDbEntity
  8
BORDER
  6
CONTINUOUS
 62
     2
100
AcDbLine
 39
96.0
 10
37.21447
 20
44.821933
 30
0.0
 11
37.21447
 21
44.821933
 31
0.0
  0
LINE
  5
945
100
AcDbEntity
  8
BORDER
  6
CONTINUOUS
 62
     2
100
AcDbLine
 39
96.0
 10
36.74572
 20
44.821933
 30
0.0
 11
36.74572
 21
44.821933
 31
0.0
  0
LINE
  5
946
100
AcDbEntity
  8
BORDER
  6
CONTINUOUS
 62
     2
100
AcDbLine
 39
96.0
 10
36.27697
 20
44.821933
 30
0.0
 11
36.27697
 21
44.821933
 31
0.0
  0
LINE
  5
947
100
AcDbEntity
  8
BORDER
  6
CONTINUOUS
 62
     2
100
AcDbLine
 39
96.0
 10
37.9176
 20
45.290733
 30
0.0
 11
37.9176
 21
45.290733
 31
0.0
  0
LINE
  5
948
100
AcDbEntity
  8
BORDER
  6
CONTINUOUS
 62
     2
100
AcDbLine
 39
96.0
 10
37.44885
 20
45.290733
 30
0.0
 11
37.44885
 21
45.290733
 31
0.0
  0
LINE
  5
949
100
AcDbEntity
  8
BORDER
  6
CONTINUOUS
 62
     2
100
AcDbLine
 39
96.0
 10
36.9801
 20
45.290733
 30
0.0
 11
36.9801
 21
45.290733
 31
0.0
  0
LINE
  5
94A
100
AcDbEntity
  8
BORDER
  6
CONTINUOUS
 62
     2
100
AcDbLine
 39
96.0
 10
36.51135
 20
45.290733
 30
0.0
 11
36.51135
 21
45.290733
 31
0.0
  0
LINE
  5
94B
100
AcDbEntity
  8
BORDER
  6
CONTINUOUS
 62
     2
100
AcDbLine
 39
96.0
 10
29.94885
 20
38.728133
 30
0.0
 11
29.94885
 21
38.728133
 31
0.0
  0
LINE
  5
94C
100
AcDbEntity
  8
BORDER
  6
CONTINUOUS
 62
     2
100
AcDbLine
 39
96.0
 10
29.4801
 20
38.728133
 30
0.0
 11
29.4801
 21
38.728133
 31
0.0
  0
LINE
  5
94D
100
AcDbEntity
  8
BORDER
  6
CONTINUOUS
 62
     2
100
AcDbLine
 39
96.0
 10
29.01135
 20
38.728133
 30
0.0
 11
29.01135
 21
38.728133
 31
0.0
  0
LINE
  5
94E
100
AcDbEntity
  8
BORDER
  6
CONTINUOUS
 62
     2
100
AcDbLine
 39
96.0
 10
28.5426
 20
38.728133
 30
0.0
 11
28.5426
 21
38.728133
 31
0.0
  0
LINE
  5
94F
100
AcDbEntity
  8
BORDER
  6
CONTINUOUS
 62
     2
100
AcDbLine
 39
96.0
 10
29.71447
 20
39.196933
 30
0.0
 11
29.71447
 21
39.196933
 31
0.0
  0
LINE
  5
950
100
AcDbEntity
  8
BORDER
  6
CONTINUOUS
 62
     2
100
AcDbLine
 39
96.0
 10
29.24572
 20
39.196933
 30
0.0
 11
29.24572
 21
39.196933
 31
0.0
  0
LINE
  5
951
100
AcDbEntity
  8
BORDER
  6
CONTINUOUS
 62
     2
100
AcDbLine
 39
96.0
 10
28.77697
 20
39.196933
 30
0.0
 11
28.77697
 21
39.196933
 31
0.0
  0
LINE
  5
952
100
AcDbEntity
  8
BORDER
  6
CONTINUOUS
 62
     2
100
AcDbLine
 39
96.0
 10
28.30822
 20
39.196933
 30
0.0
 11
28.30822
 21
39.196933
 31
0.0
  0
LINE
  5
953
100
AcDbEntity
  8
BORDER
  6
CONTINUOUS
 62
     2
100
AcDbLine
 39
96.0
 10
29.94885
 20
39.665633
 30
0.0
 11
29.94885
 21
39.665633
 31
0.0
  0
LINE
  5
954
100
AcDbEntity
  8
BORDER
  6
CONTINUOUS
 62
     2
100
AcDbLine
 39
96.0
 10
29.4801
 20
39.665633
 30
0.0
 11
29.4801
 21
39.665633
 31
0.0
  0
LINE
  5
955
100
AcDbEntity
  8
BORDER
  6
CONTINUOUS
 62
     2
100
AcDbLine
 39
96.0
 10
29.01135
 20
39.665633
 30
0.0
 11
29.01135
 21
39.665633
 31
0.0
  0
LINE
  5
956
100
AcDbEntity
  8
BORDER
  6
CONTINUOUS
 62
     2
100
AcDbLine
 39
96.0
 10
28.5426
 20
39.665633
 30
0.0
 11
28.5426
 21
39.665633
 31
0.0
  0
LINE
  5
957
100
AcDbEntity
  8
BORDER
  6
CONTINUOUS
 62
     2
100
AcDbLine
 39
96.0
 10
29.71447
 20
40.134433
 30
0.0
 11
29.71447
 21
40.134433
 31
0.0
  0
LINE
  5
958
100
AcDbEntity
  8
BORDER
  6
CONTINUOUS
 62
     2
100
AcDbLine
 39
96.0
 10
29.24572
 20
40.134433
 30
0.0
 11
29.24572
 21
40.134433
 31
0.0
  0
LINE
  5
959
100
AcDbEntity
  8
BORDER
  6
CONTINUOUS
 62
     2
100
AcDbLine
 39
96.0
 10
28.77697
 20
40.134433
 30
0.0
 11
28.77697
 21
40.134433
 31
0.0
  0
LINE
  5
95A
100
AcDbEntity
  8
BORDER
  6
CONTINUOUS
 62
     2
100
AcDbLine
 39
96.0
 10
28.30822
 20
40.134433
 30
0.0
 11
28.30822
 21
40.134433
 31
0.0
  0
LINE
  5
95B
100
AcDbEntity
  8
BORDER
  6
CONTINUOUS
 62
     2
100
AcDbLine
 39
96.0
 10
29.94885
 20
40.603133
 30
0.0
 11
29.94885
 21
40.603133
 31
0.0
  0
LINE
  5
95C
100
AcDbEntity
  8
BORDER
  6
CONTINUOUS
 62
     2
100
AcDbLine
 39
96.0
 10
29.4801
 20
40.603133
 30
0.0
 11
29.4801
 21
40.603133
 31
0.0
  0
LINE
  5
95D
100
AcDbEntity
  8
BORDER
  6
CONTINUOUS
 62
     2
100
AcDbLine
 39
96.0
 10
29.01135
 20
40.603133
 30
0.0
 11
29.01135
 21
40.603133
 31
0.0
  0
LINE
  5
95E
100
AcDbEntity
  8
BORDER
  6
CONTINUOUS
 62
     2
100
AcDbLine
 39
96.0
 10
28.5426
 20
40.603133
 30
0.0
 11
28.5426
 21
40.603133
 31
0.0
  0
LINE
  5
95F
100
AcDbEntity
  8
BORDER
  6
CONTINUOUS
 62
     2
100
AcDbLine
 39
96.0
 10
29.71447
 20
41.071933
 30
0.0
 11
29.71447
 21
41.071933
 31
0.0
  0
LINE
  5
960
100
AcDbEntity
  8
BORDER
  6
CONTINUOUS
 62
     2
100
AcDbLine
 39
96.0
 10
29.24572
 20
41.071933
 30
0.0
 11
29.24572
 21
41.071933
 31
0.0
  0
LINE
  5
961
100
AcDbEntity
  8
BORDER
  6
CONTINUOUS
 62
     2
100
AcDbLine
 39
96.0
 10
28.77697
 20
41.071933
 30
0.0
 11
28.77697
 21
41.071933
 31
0.0
  0
LINE
  5
962
100
AcDbEntity
  8
BORDER
  6
CONTINUOUS
 62
     2
100
AcDbLine
 39
96.0
 10
28.30822
 20
41.071933
 30
0.0
 11
28.30822
 21
41.071933
 31
0.0
  0
LINE
  5
963
100
AcDbEntity
  8
BORDER
  6
CONTINUOUS
 62
     2
100
AcDbLine
 39
96.0
 10
29.94885
 20
41.540633
 30
0.0
 11
29.94885
 21
41.540633
 31
0.0
  0
LINE
  5
964
100
AcDbEntity
  8
BORDER
  6
CONTINUOUS
 62
     2
100
AcDbLine
 39
96.0
 10
29.4801
 20
41.540633
 30
0.0
 11
29.4801
 21
41.540633
 31
0.0
  0
LINE
  5
965
100
AcDbEntity
  8
BORDER
  6
CONTINUOUS
 62
     2
100
AcDbLine
 39
96.0
 10
29.01135
 20
41.540633
 30
0.0
 11
29.01135
 21
41.540633
 31
0.0
  0
LINE
  5
966
100
AcDbEntity
  8
BORDER
  6
CONTINUOUS
 62
     2
100
AcDbLine
 39
96.0
 10
28.5426
 20
41.540633
 30
0.0
 11
28.5426
 21
41.540633
 31
0.0
  0
LINE
  5
967
100
AcDbEntity
  8
BORDER
  6
CONTINUOUS
 62
     2
100
AcDbLine
 39
96.0
 10
29.71447
 20
42.009433
 30
0.0
 11
29.71447
 21
42.009433
 31
0.0
  0
LINE
  5
968
100
AcDbEntity
  8
BORDER
  6
CONTINUOUS
 62
     2
100
AcDbLine
 39
96.0
 10
29.24572
 20
42.009433
 30
0.0
 11
29.24572
 21
42.009433
 31
0.0
  0
LINE
  5
969
100
AcDbEntity
  8
BORDER
  6
CONTINUOUS
 62
     2
100
AcDbLine
 39
96.0
 10
28.77697
 20
42.009433
 30
0.0
 11
28.77697
 21
42.009433
 31
0.0
  0
LINE
  5
96A
100
AcDbEntity
  8
BORDER
  6
CONTINUOUS
 62
     2
100
AcDbLine
 39
96.0
 10
28.30822
 20
42.009433
 30
0.0
 11
28.30822
 21
42.009433
 31
0.0
  0
LINE
  5
96B
100
AcDbEntity
  8
BORDER
  6
CONTINUOUS
 62
     2
100
AcDbLine
 39
96.0
 10
29.94885
 20
42.478133
 30
0.0
 11
29.94885
 21
42.478133
 31
0.0
  0
LINE
  5
96C
100
AcDbEntity
  8
BORDER
  6
CONTINUOUS
 62
     2
100
AcDbLine
 39
96.0
 10
29.4801
 20
42.478133
 30
0.0
 11
29.4801
 21
42.478133
 31
0.0
  0
LINE
  5
96D
100
AcDbEntity
  8
BORDER
  6
CONTINUOUS
 62
     2
100
AcDbLine
 39
96.0
 10
29.01135
 20
42.478133
 30
0.0
 11
29.01135
 21
42.478133
 31
0.0
  0
LINE
  5
96E
100
AcDbEntity
  8
BORDER
  6
CONTINUOUS
 62
     2
100
AcDbLine
 39
96.0
 10
28.5426
 20
42.478133
 30
0.0
 11
28.5426
 21
42.478133
 31
0.0
  0
LINE
  5
96F
100
AcDbEntity
  8
BORDER
  6
CONTINUOUS
 62
     2
100
AcDbLine
 39
96.0
 10
29.71447
 20
42.946933
 30
0.0
 11
29.71447
 21
42.946933
 31
0.0
  0
LINE
  5
970
100
AcDbEntity
  8
BORDER
  6
CONTINUOUS
 62
     2
100
AcDbLine
 39
96.0
 10
29.24572
 20
42.946933
 30
0.0
 11
29.24572
 21
42.946933
 31
0.0
  0
LINE
  5
971
100
AcDbEntity
  8
BORDER
  6
CONTINUOUS
 62
     2
100
AcDbLine
 39
96.0
 10
28.77697
 20
42.946933
 30
0.0
 11
28.77697
 21
42.946933
 31
0.0
  0
LINE
  5
972
100
AcDbEntity
  8
BORDER
  6
CONTINUOUS
 62
     2
100
AcDbLine
 39
96.0
 10
28.30822
 20
42.946933
 30
0.0
 11
28.30822
 21
42.946933
 31
0.0
  0
LINE
  5
973
100
AcDbEntity
  8
BORDER
  6
CONTINUOUS
 62
     2
100
AcDbLine
 39
96.0
 10
29.94885
 20
43.415633
 30
0.0
 11
29.94885
 21
43.415633
 31
0.0
  0
LINE
  5
974
100
AcDbEntity
  8
BORDER
  6
CONTINUOUS
 62
     2
100
AcDbLine
 39
96.0
 10
29.4801
 20
43.415633
 30
0.0
 11
29.4801
 21
43.415633
 31
0.0
  0
LINE
  5
975
100
AcDbEntity
  8
BORDER
  6
CONTINUOUS
 62
     2
100
AcDbLine
 39
96.0
 10
29.01135
 20
43.415633
 30
0.0
 11
29.01135
 21
43.415633
 31
0.0
  0
LINE
  5
976
100
AcDbEntity
  8
BORDER
  6
CONTINUOUS
 62
     2
100
AcDbLine
 39
96.0
 10
28.5426
 20
43.415633
 30
0.0
 11
28.5426
 21
43.415633
 31
0.0
  0
LINE
  5
977
100
AcDbEntity
  8
BORDER
  6
CONTINUOUS
 62
     2
100
AcDbLine
 39
96.0
 10
29.71447
 20
43.884433
 30
0.0
 11
29.71447
 21
43.884433
 31
0.0
  0
LINE
  5
978
100
AcDbEntity
  8
BORDER
  6
CONTINUOUS
 62
     2
100
AcDbLine
 39
96.0
 10
29.24572
 20
43.884433
 30
0.0
 11
29.24572
 21
43.884433
 31
0.0
  0
LINE
  5
979
100
AcDbEntity
  8
BORDER
  6
CONTINUOUS
 62
     2
100
AcDbLine
 39
96.0
 10
28.77697
 20
43.884433
 30
0.0
 11
28.77697
 21
43.884433
 31
0.0
  0
LINE
  5
97A
100
AcDbEntity
  8
BORDER
  6
CONTINUOUS
 62
     2
100
AcDbLine
 39
96.0
 10
28.30822
 20
43.884433
 30
0.0
 11
28.30822
 21
43.884433
 31
0.0
  0
LINE
  5
97B
100
AcDbEntity
  8
BORDER
  6
CONTINUOUS
 62
     2
100
AcDbLine
 39
96.0
 10
29.94885
 20
44.353233
 30
0.0
 11
29.94885
 21
44.353233
 31
0.0
  0
LINE
  5
97C
100
AcDbEntity
  8
BORDER
  6
CONTINUOUS
 62
     2
100
AcDbLine
 39
96.0
 10
29.4801
 20
44.353233
 30
0.0
 11
29.4801
 21
44.353233
 31
0.0
  0
LINE
  5
97D
100
AcDbEntity
  8
BORDER
  6
CONTINUOUS
 62
     2
100
AcDbLine
 39
96.0
 10
29.01135
 20
44.353233
 30
0.0
 11
29.01135
 21
44.353233
 31
0.0
  0
LINE
  5
97E
100
AcDbEntity
  8
BORDER
  6
CONTINUOUS
 62
     2
100
AcDbLine
 39
96.0
 10
28.5426
 20
44.353233
 30
0.0
 11
28.5426
 21
44.353233
 31
0.0
  0
LINE
  5
97F
100
AcDbEntity
  8
BORDER
  6
CONTINUOUS
 62
     2
100
AcDbLine
 39
96.0
 10
29.71447
 20
44.821933
 30
0.0
 11
29.71447
 21
44.821933
 31
0.0
  0
LINE
  5
980
100
AcDbEntity
  8
BORDER
  6
CONTINUOUS
 62
     2
100
AcDbLine
 39
96.0
 10
29.24572
 20
44.821933
 30
0.0
 11
29.24572
 21
44.821933
 31
0.0
  0
LINE
  5
981
100
AcDbEntity
  8
BORDER
  6
CONTINUOUS
 62
     2
100
AcDbLine
 39
96.0
 10
28.77697
 20
44.821933
 30
0.0
 11
28.77697
 21
44.821933
 31
0.0
  0
LINE
  5
982
100
AcDbEntity
  8
BORDER
  6
CONTINUOUS
 62
     2
100
AcDbLine
 39
96.0
 10
28.30822
 20
44.821933
 30
0.0
 11
28.30822
 21
44.821933
 31
0.0
  0
LINE
  5
983
100
AcDbEntity
  8
BORDER
  6
CONTINUOUS
 62
     2
100
AcDbLine
 39
96.0
 10
29.94885
 20
45.290733
 30
0.0
 11
29.94885
 21
45.290733
 31
0.0
  0
LINE
  5
984
100
AcDbEntity
  8
BORDER
  6
CONTINUOUS
 62
     2
100
AcDbLine
 39
96.0
 10
29.4801
 20
45.290733
 30
0.0
 11
29.4801
 21
45.290733
 31
0.0
  0
LINE
  5
985
100
AcDbEntity
  8
BORDER
  6
CONTINUOUS
 62
     2
100
AcDbLine
 39
96.0
 10
29.01135
 20
45.290733
 30
0.0
 11
29.01135
 21
45.290733
 31
0.0
  0
LINE
  5
986
100
AcDbEntity
  8
BORDER
  6
CONTINUOUS
 62
     2
100
AcDbLine
 39
96.0
 10
28.5426
 20
45.290733
 30
0.0
 11
28.5426
 21
45.290733
 31
0.0
  0
LINE
  5
987
100
AcDbEntity
  8
BORDER
  6
CONTINUOUS
 62
     1
100
AcDbLine
 39
96.0
 10
36.16247
 20
42.708733
 30
0.0
 11
36.17321
 21
42.770333
 31
0.0
  0
LINE
  5
988
100
AcDbEntity
  8
BORDER
  6
CONTINUOUS
 62
     1
100
AcDbLine
 39
96.0
 10
35.72839
 20
40.246733
 30
0.0
 11
35.73913
 21
40.308333
 31
0.0
  0
LINE
  5
989
100
AcDbEntity
  8
BORDER
  6
CONTINUOUS
 62
     1
100
AcDbLine
 39
96.0
 10
35.10021
 20
44.523233
 30
0.0
 11
35.11096
 21
44.584833
 31
0.0
  0
LINE
  5
98A
100
AcDbEntity
  8
BORDER
  6
CONTINUOUS
 62
     1
100
AcDbLine
 39
96.0
 10
34.13464
 20
45.604933
 30
0.0
 11
34.14538
 21
45.666533
 31
0.0
  0
LINE
  5
98B
100
AcDbEntity
  8
BORDER
  6
CONTINUOUS
 62
     1
100
AcDbLine
 39
96.0
 10
33.70056
 20
43.142933
 30
0.0
 11
33.7113
 21
43.204533
 31
0.0
  0
LINE
  5
98C
100
AcDbEntity
  8
BORDER
  6
CONTINUOUS
 62
     1
100
AcDbLine
 39
96.0
 10
31.23889
 20
43.577033
 30
0.0
 11
31.24963
 21
43.638533
 31
0.0
  0
LINE
  5
98D
100
AcDbEntity
  8
BORDER
  6
CONTINUOUS
 62
     1
100
AcDbLine
 39
96.0
 10
30.8048
 20
41.114933
 30
0.0
 11
30.81555
 21
41.176533
 31
0.0
  0
LINE
  5
98E
100
AcDbEntity
  8
BORDER
  6
CONTINUOUS
 62
     1
100
AcDbLine
 39
96.0
 10
36.0841
 20
41.105233
 30
0.0
 11
36.11999
 21
41.156433
 31
0.0
  0
LINE
  5
98F
100
AcDbEntity
  8
BORDER
  6
CONTINUOUS
 62
     1
100
AcDbLine
 39
96.0
 10
35.47058
 20
44.586833
 30
0.0
 11
35.50646
 21
44.638133
 31
0.0
  0
LINE
  5
990
100
AcDbEntity
  8
BORDER
  6
CONTINUOUS
 62
     1
100
AcDbLine
 39
96.0
 10
34.03649
 20
42.538933
 30
0.0
 11
34.07238
 21
42.590133
 31
0.0
  0
LINE
  5
991
100
AcDbEntity
  8
BORDER
  6
CONTINUOUS
 62
     1
100
AcDbLine
 39
96.0
 10
35.3883
 20
44.524933
 30
0.0
 11
35.42419
 21
44.576133
 31
0.0
  0
LINE
  5
992
100
AcDbEntity
  8
BORDER
  6
CONTINUOUS
 62
     1
100
AcDbLine
 39
96.0
 10
31.98864
 20
43.972933
 30
0.0
 11
32.02453
 21
44.024033
 31
0.0
  0
LINE
  5
993
100
AcDbEntity
  8
BORDER
  6
CONTINUOUS
 62
     1
100
AcDbLine
 39
96.0
 10
30.55456
 20
41.925033
 30
0.0
 11
30.59045
 21
41.976233
 31
0.0
  0
LINE
  5
994
100
AcDbEntity
  8
BORDER
  6
CONTINUOUS
 62
     1
100
AcDbLine
 39
96.0
 10
35.41833
 20
40.687633
 30
0.0
 11
35.47717
 21
40.709033
 31
0.0
  0
LINE
  5
995
100
AcDbEntity
  8
BORDER
  6
CONTINUOUS
 62
     1
100
AcDbLine
 39
96.0
 10
34.56359
 20
43.036933
 30
0.0
 11
34.62243
 21
43.058233
 31
0.0
  0
LINE
  5
996
100
AcDbEntity
  8
BORDER
  6
CONTINUOUS
 62
     1
100
AcDbLine
 39
96.0
 10
32.21423
 20
42.181933
 30
0.0
 11
32.27307
 21
42.203233
 31
0.0
  0
LINE
  5
997
100
AcDbEntity
  8
BORDER
  6
CONTINUOUS
 62
     1
100
AcDbLine
 39
96.0
 10
33.70861
 20
45.386133
 30
0.0
 11
33.76745
 21
45.407533
 31
0.0
  0
LINE
  5
998
100
AcDbEntity
  8
BORDER
  6
CONTINUOUS
 62
     1
100
AcDbLine
 39
96.0
 10
31.35925
 20
44.531133
 30
0.0
 11
31.41809
 21
44.552433
 31
0.0
  0
LINE
  5
999
100
AcDbEntity
  8
BORDER
  6
CONTINUOUS
 62
     1
100
AcDbLine
 39
96.0
 10
33.38513
 20
44.191633
 30
0.0
 11
33.44396
 21
44.213033
 31
0.0
  0
LINE
  5
99A
100
AcDbEntity
  8
BORDER
  6
CONTINUOUS
 62
     3
100
AcDbLine
 39
96.0
 10
36.22082
 20
38.395133
 30
0.0
 11
38.09582
 21
38.395133
 31
0.0
  0
ARC
  5
99B
100
AcDbEntity
  8
BORDER
  6
CONTINUOUS
 62
     3
100
AcDbCircle
 39
96.0
 10
33.09582
 20
38.395133
 30
0.0
 40
3.0
100
AcDbArc
 50
0.0
 51
180.0
  0
LINE
  5
99C
100
AcDbEntity
  8
BORDER
  6
CONTINUOUS
 62
     3
100
AcDbLine
 39
96.0
 10
28.09582
 20
38.395133
 30
0.0
 11
29.97082
 21
38.395133
 31
0.0
  0
LINE
  5
99D
100
AcDbEntity
  8
BORDER
  6
CONTINUOUS
 62
     3
100
AcDbLine
 39
96.0
 10
29.97082
 20
38.395133
 30
0.0
 11
28.09582
 21
38.395133
 31
0.0
  0
LINE
  5
99E
100
AcDbEntity
  8
BORDER
  6
CONTINUOUS
 62
     3
100
AcDbLine
 39
96.0
 10
38.09582
 20
38.395133
 30
0.0
 11
36.22082
 21
38.395133
 31
0.0
  0
LINE
  5
99F
100
AcDbEntity
  8
BORDER
  6
CONTINUOUS
 62
     1
100
AcDbLine
 39
90.0
 10
34.00695
 20
43.023433
 30
0.0
 11
34.04064
 21
43.071433
 31
0.0
  0
LINE
  5
9A0
100
AcDbEntity
  8
BORDER
  6
CONTINUOUS
 62
     1
100
AcDbLine
 39
90.0
 10
33.69274
 20
44.367633
 30
0.0
 11
33.72668
 21
44.415633
 31
0.0
  0
LINE
  5
9A1
100
AcDbEntity
  8
BORDER
  6
CONTINUOUS
 62
     7
100
AcDbLine
 39
89.99775
 10
34.11486
 20
44.95224
 30
0.0
 11
35.30383
 21
44.95224
 31
0.0
  0
LINE
  5
9A2
100
AcDbEntity
  8
BORDER
  6
CONTINUOUS
 62
     7
100
AcDbLine
 39
89.99775
 10
35.30383
 20
45.65534
 30
0.0
 11
35.30383
 21
44.95224
 31
0.0
  0
LINE
  5
9A3
100
AcDbEntity
  8
BORDER
  6
CONTINUOUS
 62
     7
100
AcDbLine
 39
89.99775
 10
34.46643
 20
45.65534
 30
0.0
 11
35.30383
 21
45.65534
 31
0.0
  0
ARC
  5
9A4
100
AcDbEntity
  8
BORDER
  6
CONTINUOUS
 62
     7
100
AcDbCircle
 39
89.99775
 10
34.11486
 20
45.65534
 30
0.0
 40
0.703107
100
AcDbArc
 50
180.0
 51
270.0
  0
TEXT
  5
9A5
100
AcDbEntity
  8
DIM_TEXT
100
AcDbText
 10
10.702184
 20
37.571873
 30
0.0
 40
1.125
  1
RASTRA WALL
 51
15.0
  7
INFO
100
AcDbText
  0
LINE
  5
9A6
100
AcDbEntity
  8
BORDER
  6
CONTINUOUS
 62
     6
100
AcDbLine
 10
22.845809
 20
38.153273
 30
0.0
 11
27.395859
 21
34.563473
 31
0.0
  0
LINE
  5
9A7
100
AcDbEntity
  8
BORDER
  6
CONTINUOUS
 62
     6
100
AcDbLine
 10
22.070419
 20
38.153273
 30
0.0
 11
22.845809
 21
38.153273
 31
0.0
  0
LINE
  5
9A8
100
AcDbEntity
  8
BORDER
  6
CONTINUOUS
 62
     6
100
AcDbLine
 10
28.279159
 20
33.866673
 30
0.0
 11
27.163679
 21
34.269073
 31
0.0
  0
LINE
  5
9A9
100
AcDbEntity
  8
BORDER
  6
CONTINUOUS
 62
     6
100
AcDbLine
 10
28.279159
 20
33.866673
 30
0.0
 11
27.628029
 21
34.857973
 31
0.0
  0
LINE
  5
9AA
100
AcDbEntity
  8
BORDER
  6
CONTINUOUS
 62
     6
100
AcDbLine
 10
27.628029
 20
34.857973
 30
0.0
 11
27.163679
 21
34.269073
 31
0.0
  0
LINE
  5
9AB
100
AcDbEntity
  8
BORDER
  6
CONTINUOUS
 62
     7
100
AcDbLine
 39
96.0
 10
35.15515
 20
55.42574
 30
0.0
 11
32.15515
 21
55.42574
 31
0.0
  0
LINE
  5
9AC
100
AcDbEntity
  8
BORDER
  6
CONTINUOUS
 62
     7
100
AcDbLine
 39
96.0
 10
35.15515
 20
59.92574
 30
0.0
 11
35.15515
 21
54.92574
 31
0.0
  0
LINE
  5
9AD
100
AcDbEntity
  8
BORDER
  6
CONTINUOUS
 62
     7
100
AcDbLine
 39
96.0
 10
32.15515
 20
59.92574
 30
0.0
 11
35.15515
 21
59.92574
 31
0.0
  0
LINE
  5
9AE
100
AcDbEntity
  8
BORDER
  6
CONTINUOUS
 62
     7
100
AcDbLine
 39
96.0
 10
32.15515
 20
54.92574
 30
0.0
 11
32.15515
 21
59.92574
 31
0.0
  0
LINE
  5
9AF
100
AcDbEntity
  8
BORDER
  6
CONTINUOUS
 62
     7
100
AcDbLine
 39
96.0
 10
33.97082
 20
56.88404
 30
0.0
 11
33.97082
 21
57.38404
 31
0.0
  0
LINE
  5
9B0
100
AcDbEntity
  8
BORDER
  6
CONTINUOUS
 62
     7
100
AcDbLine
 39
96.0
 10
33.47082
 20
57.38404
 30
0.0
 11
33.47082
 21
56.88404
 31
0.0
  0
ARC
  5
9B1
100
AcDbEntity
  8
BORDER
  6
CONTINUOUS
 62
     7
100
AcDbCircle
 39
96.0
 10
33.72082
 20
57.38404
 30
0.0
 40
0.25
100
AcDbArc
 50
0.0
 51
180.0
  0
ARC
  5
9B2
100
AcDbEntity
  8
BORDER
  6
CONTINUOUS
 62
     7
100
AcDbCircle
 39
96.0
 10
33.72082
 20
56.88404
 30
0.0
 40
0.25
100
AcDbArc
 50
180.0
 51
0.0
  0
LINE
  5
9B3
100
AcDbEntity
  8
BORDER
  6
CONTINUOUS
 62
     7
100
AcDbLine
 39
96.0
 10
30.23936
 20
54.90904
 30
0.0
 11
30.23936
 21
53.40904
 31
0.0
  0
LINE
  5
9B4
100
AcDbEntity
  8
BORDER
  6
CONTINUOUS
 62
     3
100
AcDbLine
 39
96.0
 10
31.90319
 20
55.06664
 30
0.0
 11
31.90319
 21
56.66134
 31
0.0
  0
LINE
  5
9B5
100
AcDbEntity
  8
BORDER
  6
CONTINUOUS
 62
     3
100
AcDbLine
 39
96.0
 10
31.90319
 20
55.06664
 30
0.0
 11
33.43884
 21
55.06664
 31
0.0
  0
CIRCLE
  5
9B6
100
AcDbEntity
  8
BORDER
  6
CONTINUOUS
 62
     7
100
AcDbCircle
 39
96.0
 10
32.6444
 20
52.32901
 30
0.0
 40
0.375
  0
LINE
  5
9B7
100
AcDbEntity
  8
BORDER
  6
CONTINUOUS
 62
     7
100
AcDbLine
 39
96.0
 10
35.73936
 20
54.90904
 30
0.0
 11
30.23936
 21
53.40904
 31
0.0
  0
LINE
  5
9B8
100
AcDbEntity
  8
BORDER
  6
CONTINUOUS
 62
     7
100
AcDbLine
 39
96.0
 10
30.23936
 20
54.90904
 30
0.0
 11
35.73936
 21
53.40904
 31
0.0
  0
LINE
  5
9B9
100
AcDbEntity
  8
BORDER
  6
CONTINUOUS
 62
     7
100
AcDbLine
 39
96.0
 10
35.73936
 20
53.40904
 30
0.0
 11
35.73936
 21
54.90904
 31
0.0
  0
LINE
  5
9BA
100
AcDbEntity
  8
BORDER
  6
CONTINUOUS
 62
    15
100
AcDbLine
 39
96.0
 10
30.23936
 20
53.40904
 30
0.0
 11
35.73936
 21
53.40904
 31
0.0
  0
LINE
  5
9BB
100
AcDbEntity
  8
BORDER
  6
CONTINUOUS
 62
    15
100
AcDbLine
 39
96.0
 10
37.48936
 20
54.90904
 30
0.0
 11
30.23936
 21
54.90904
 31
0.0
  0
LINE
  5
9BC
100
AcDbEntity
  8
BORDER
  6
CONTINUOUS
 62
    10
100
AcDbLine
 39
96.0
 10
32.20104
 20
51.134533
 30
0.0
 11
32.18737
 21
51.057633
 31
0.0
  0
LINE
  5
9BD
100
AcDbEntity
  8
BORDER
  6
CONTINUOUS
 62
     3
100
AcDbLine
 39
96.0
 10
36.22082
 20
53.395233
 30
0.0
 11
38.09582
 21
53.395233
 31
0.0
  0
LINE
  5
9BE
100
AcDbEntity
  8
BORDER
  6
CONTINUOUS
 62
     3
100
AcDbLine
 39
96.0
 10
28.09582
 20
53.395233
 30
0.0
 11
29.97082
 21
53.395233
 31
0.0
  0
LINE
  5
9BF
100
AcDbEntity
  8
BORDER
  6
CONTINUOUS
 62
     2
100
AcDbLine
 39
96.0
 10
37.68322
 20
45.759433
 30
0.0
 11
37.68322
 21
45.759433
 31
0.0
  0
LINE
  5
9C0
100
AcDbEntity
  8
BORDER
  6
CONTINUOUS
 62
     2
100
AcDbLine
 39
96.0
 10
37.21447
 20
45.759433
 30
0.0
 11
37.21447
 21
45.759433
 31
0.0
  0
LINE
  5
9C1
100
AcDbEntity
  8
BORDER
  6
CONTINUOUS
 62
     2
100
AcDbLine
 39
96.0
 10
36.74572
 20
45.759433
 30
0.0
 11
36.74572
 21
45.759433
 31
0.0
  0
LINE
  5
9C2
100
AcDbEntity
  8
BORDER
  6
CONTINUOUS
 62
     2
100
AcDbLine
 39
96.0
 10
36.27697
 20
45.759433
 30
0.0
 11
36.27697
 21
45.759433
 31
0.0
  0
LINE
  5
9C3
100
AcDbEntity
  8
BORDER
  6
CONTINUOUS
 62
     2
100
AcDbLine
 39
96.0
 10
37.9176
 20
46.228233
 30
0.0
 11
37.9176
 21
46.228233
 31
0.0
  0
LINE
  5
9C4
100
AcDbEntity
  8
BORDER
  6
CONTINUOUS
 62
     2
100
AcDbLine
 39
96.0
 10
37.44885
 20
46.228233
 30
0.0
 11
37.44885
 21
46.228233
 31
0.0
  0
LINE
  5
9C5
100
AcDbEntity
  8
BORDER
  6
CONTINUOUS
 62
     2
100
AcDbLine
 39
96.0
 10
36.9801
 20
46.228233
 30
0.0
 11
36.9801
 21
46.228233
 31
0.0
  0
LINE
  5
9C6
100
AcDbEntity
  8
BORDER
  6
CONTINUOUS
 62
     2
100
AcDbLine
 39
96.0
 10
36.51135
 20
46.228233
 30
0.0
 11
36.51135
 21
46.228233
 31
0.0
  0
LINE
  5
9C7
100
AcDbEntity
  8
BORDER
  6
CONTINUOUS
 62
     2
100
AcDbLine
 39
96.0
 10
37.68322
 20
46.696933
 30
0.0
 11
37.68322
 21
46.696933
 31
0.0
  0
LINE
  5
9C8
100
AcDbEntity
  8
BORDER
  6
CONTINUOUS
 62
     2
100
AcDbLine
 39
96.0
 10
37.21447
 20
46.696933
 30
0.0
 11
37.21447
 21
46.696933
 31
0.0
  0
LINE
  5
9C9
100
AcDbEntity
  8
BORDER
  6
CONTINUOUS
 62
     2
100
AcDbLine
 39
96.0
 10
36.74572
 20
46.696933
 30
0.0
 11
36.74572
 21
46.696933
 31
0.0
  0
LINE
  5
9CA
100
AcDbEntity
  8
BORDER
  6
CONTINUOUS
 62
     2
100
AcDbLine
 39
96.0
 10
36.27697
 20
46.696933
 30
0.0
 11
36.27697
 21
46.696933
 31
0.0
  0
LINE
  5
9CB
100
AcDbEntity
  8
BORDER
  6
CONTINUOUS
 62
     2
100
AcDbLine
 39
96.0
 10
37.9176
 20
47.165733
 30
0.0
 11
37.9176
 21
47.165733
 31
0.0
  0
LINE
  5
9CC
100
AcDbEntity
  8
BORDER
  6
CONTINUOUS
 62
     2
100
AcDbLine
 39
96.0
 10
37.44885
 20
47.165733
 30
0.0
 11
37.44885
 21
47.165733
 31
0.0
  0
LINE
  5
9CD
100
AcDbEntity
  8
BORDER
  6
CONTINUOUS
 62
     2
100
AcDbLine
 39
96.0
 10
36.9801
 20
47.165733
 30
0.0
 11
36.9801
 21
47.165733
 31
0.0
  0
LINE
  5
9CE
100
AcDbEntity
  8
BORDER
  6
CONTINUOUS
 62
     2
100
AcDbLine
 39
96.0
 10
36.51135
 20
47.165733
 30
0.0
 11
36.51135
 21
47.165733
 31
0.0
  0
LINE
  5
9CF
100
AcDbEntity
  8
BORDER
  6
CONTINUOUS
 62
     2
100
AcDbLine
 39
96.0
 10
37.68322
 20
47.634433
 30
0.0
 11
37.68322
 21
47.634433
 31
0.0
  0
LINE
  5
9D0
100
AcDbEntity
  8
BORDER
  6
CONTINUOUS
 62
     2
100
AcDbLine
 39
96.0
 10
37.21447
 20
47.634433
 30
0.0
 11
37.21447
 21
47.634433
 31
0.0
  0
LINE
  5
9D1
100
AcDbEntity
  8
BORDER
  6
CONTINUOUS
 62
     2
100
AcDbLine
 39
96.0
 10
36.74572
 20
47.634433
 30
0.0
 11
36.74572
 21
47.634433
 31
0.0
  0
LINE
  5
9D2
100
AcDbEntity
  8
BORDER
  6
CONTINUOUS
 62
     2
100
AcDbLine
 39
96.0
 10
36.27697
 20
47.634433
 30
0.0
 11
36.27697
 21
47.634433
 31
0.0
  0
LINE
  5
9D3
100
AcDbEntity
  8
BORDER
  6
CONTINUOUS
 62
     2
100
AcDbLine
 39
96.0
 10
37.9176
 20
48.103233
 30
0.0
 11
37.9176
 21
48.103233
 31
0.0
  0
LINE
  5
9D4
100
AcDbEntity
  8
BORDER
  6
CONTINUOUS
 62
     2
100
AcDbLine
 39
96.0
 10
37.44885
 20
48.103233
 30
0.0
 11
37.44885
 21
48.103233
 31
0.0
  0
LINE
  5
9D5
100
AcDbEntity
  8
BORDER
  6
CONTINUOUS
 62
     2
100
AcDbLine
 39
96.0
 10
36.9801
 20
48.103233
 30
0.0
 11
36.9801
 21
48.103233
 31
0.0
  0
LINE
  5
9D6
100
AcDbEntity
  8
BORDER
  6
CONTINUOUS
 62
     2
100
AcDbLine
 39
96.0
 10
36.51135
 20
48.103233
 30
0.0
 11
36.51135
 21
48.103233
 31
0.0
  0
LINE
  5
9D7
100
AcDbEntity
  8
BORDER
  6
CONTINUOUS
 62
     2
100
AcDbLine
 39
96.0
 10
37.68322
 20
48.571933
 30
0.0
 11
37.68322
 21
48.571933
 31
0.0
  0
LINE
  5
9D8
100
AcDbEntity
  8
BORDER
  6
CONTINUOUS
 62
     2
100
AcDbLine
 39
96.0
 10
37.21447
 20
48.571933
 30
0.0
 11
37.21447
 21
48.571933
 31
0.0
  0
LINE
  5
9D9
100
AcDbEntity
  8
BORDER
  6
CONTINUOUS
 62
     2
100
AcDbLine
 39
96.0
 10
36.74572
 20
48.571933
 30
0.0
 11
36.74572
 21
48.571933
 31
0.0
  0
LINE
  5
9DA
100
AcDbEntity
  8
BORDER
  6
CONTINUOUS
 62
     2
100
AcDbLine
 39
96.0
 10
36.27697
 20
48.571933
 30
0.0
 11
36.27697
 21
48.571933
 31
0.0
  0
LINE
  5
9DB
100
AcDbEntity
  8
BORDER
  6
CONTINUOUS
 62
     2
100
AcDbLine
 39
96.0
 10
37.9176
 20
49.040733
 30
0.0
 11
37.9176
 21
49.040733
 31
0.0
  0
LINE
  5
9DC
100
AcDbEntity
  8
BORDER
  6
CONTINUOUS
 62
     2
100
AcDbLine
 39
96.0
 10
37.44885
 20
49.040733
 30
0.0
 11
37.44885
 21
49.040733
 31
0.0
  0
LINE
  5
9DD
100
AcDbEntity
  8
BORDER
  6
CONTINUOUS
 62
     2
100
AcDbLine
 39
96.0
 10
36.9801
 20
49.040733
 30
0.0
 11
36.9801
 21
49.040733
 31
0.0
  0
LINE
  5
9DE
100
AcDbEntity
  8
BORDER
  6
CONTINUOUS
 62
     2
100
AcDbLine
 39
96.0
 10
36.51135
 20
49.040733
 30
0.0
 11
36.51135
 21
49.040733
 31
0.0
  0
LINE
  5
9DF
100
AcDbEntity
  8
BORDER
  6
CONTINUOUS
 62
     2
100
AcDbLine
 39
96.0
 10
37.68322
 20
49.509433
 30
0.0
 11
37.68322
 21
49.509433
 31
0.0
  0
LINE
  5
9E0
100
AcDbEntity
  8
BORDER
  6
CONTINUOUS
 62
     2
100
AcDbLine
 39
96.0
 10
37.21447
 20
49.509433
 30
0.0
 11
37.21447
 21
49.509433
 31
0.0
  0
LINE
  5
9E1
100
AcDbEntity
  8
BORDER
  6
CONTINUOUS
 62
     2
100
AcDbLine
 39
96.0
 10
36.74572
 20
49.509433
 30
0.0
 11
36.74572
 21
49.509433
 31
0.0
  0
LINE
  5
9E2
100
AcDbEntity
  8
BORDER
  6
CONTINUOUS
 62
     2
100
AcDbLine
 39
96.0
 10
36.27697
 20
49.509433
 30
0.0
 11
36.27697
 21
49.509433
 31
0.0
  0
LINE
  5
9E3
100
AcDbEntity
  8
BORDER
  6
CONTINUOUS
 62
     2
100
AcDbLine
 39
96.0
 10
37.9176
 20
49.978233
 30
0.0
 11
37.9176
 21
49.978233
 31
0.0
  0
LINE
  5
9E4
100
AcDbEntity
  8
BORDER
  6
CONTINUOUS
 62
     2
100
AcDbLine
 39
96.0
 10
37.44885
 20
49.978233
 30
0.0
 11
37.44885
 21
49.978233
 31
0.0
  0
LINE
  5
9E5
100
AcDbEntity
  8
BORDER
  6
CONTINUOUS
 62
     2
100
AcDbLine
 39
96.0
 10
36.9801
 20
49.978233
 30
0.0
 11
36.9801
 21
49.978233
 31
0.0
  0
LINE
  5
9E6
100
AcDbEntity
  8
BORDER
  6
CONTINUOUS
 62
     2
100
AcDbLine
 39
96.0
 10
36.51135
 20
49.978233
 30
0.0
 11
36.51135
 21
49.978233
 31
0.0
  0
LINE
  5
9E7
100
AcDbEntity
  8
BORDER
  6
CONTINUOUS
 62
     2
100
AcDbLine
 39
96.0
 10
37.68322
 20
50.446933
 30
0.0
 11
37.68322
 21
50.446933
 31
0.0
  0
LINE
  5
9E8
100
AcDbEntity
  8
BORDER
  6
CONTINUOUS
 62
     2
100
AcDbLine
 39
96.0
 10
37.21447
 20
50.446933
 30
0.0
 11
37.21447
 21
50.446933
 31
0.0
  0
LINE
  5
9E9
100
AcDbEntity
  8
BORDER
  6
CONTINUOUS
 62
     2
100
AcDbLine
 39
96.0
 10
36.74572
 20
50.446933
 30
0.0
 11
36.74572
 21
50.446933
 31
0.0
  0
LINE
  5
9EA
100
AcDbEntity
  8
BORDER
  6
CONTINUOUS
 62
     2
100
AcDbLine
 39
96.0
 10
36.27697
 20
50.446933
 30
0.0
 11
36.27697
 21
50.446933
 31
0.0
  0
LINE
  5
9EB
100
AcDbEntity
  8
BORDER
  6
CONTINUOUS
 62
     2
100
AcDbLine
 39
96.0
 10
37.9176
 20
50.915733
 30
0.0
 11
37.9176
 21
50.915733
 31
0.0
  0
LINE
  5
9EC
100
AcDbEntity
  8
BORDER
  6
CONTINUOUS
 62
     2
100
AcDbLine
 39
96.0
 10
37.44885
 20
50.915733
 30
0.0
 11
37.44885
 21
50.915733
 31
0.0
  0
LINE
  5
9ED
100
AcDbEntity
  8
BORDER
  6
CONTINUOUS
 62
     2
100
AcDbLine
 39
96.0
 10
36.9801
 20
50.915733
 30
0.0
 11
36.9801
 21
50.915733
 31
0.0
  0
LINE
  5
9EE
100
AcDbEntity
  8
BORDER
  6
CONTINUOUS
 62
     2
100
AcDbLine
 39
96.0
 10
36.51135
 20
50.915733
 30
0.0
 11
36.51135
 21
50.915733
 31
0.0
  0
LINE
  5
9EF
100
AcDbEntity
  8
BORDER
  6
CONTINUOUS
 62
     2
100
AcDbLine
 39
96.0
 10
37.68322
 20
51.384433
 30
0.0
 11
37.68322
 21
51.384433
 31
0.0
  0
LINE
  5
9F0
100
AcDbEntity
  8
BORDER
  6
CONTINUOUS
 62
     2
100
AcDbLine
 39
96.0
 10
37.21447
 20
51.384433
 30
0.0
 11
37.21447
 21
51.384433
 31
0.0
  0
LINE
  5
9F1
100
AcDbEntity
  8
BORDER
  6
CONTINUOUS
 62
     2
100
AcDbLine
 39
96.0
 10
36.74572
 20
51.384433
 30
0.0
 11
36.74572
 21
51.384433
 31
0.0
  0
LINE
  5
9F2
100
AcDbEntity
  8
BORDER
  6
CONTINUOUS
 62
     2
100
AcDbLine
 39
96.0
 10
36.27697
 20
51.384433
 30
0.0
 11
36.27697
 21
51.384433
 31
0.0
  0
LINE
  5
9F3
100
AcDbEntity
  8
BORDER
  6
CONTINUOUS
 62
     2
100
AcDbLine
 39
96.0
 10
37.9176
 20
51.853233
 30
0.0
 11
37.9176
 21
51.853233
 31
0.0
  0
LINE
  5
9F4
100
AcDbEntity
  8
BORDER
  6
CONTINUOUS
 62
     2
100
AcDbLine
 39
96.0
 10
37.44885
 20
51.853233
 30
0.0
 11
37.44885
 21
51.853233
 31
0.0
  0
LINE
  5
9F5
100
AcDbEntity
  8
BORDER
  6
CONTINUOUS
 62
     2
100
AcDbLine
 39
96.0
 10
36.9801
 20
51.853233
 30
0.0
 11
36.9801
 21
51.853233
 31
0.0
  0
LINE
  5
9F6
100
AcDbEntity
  8
BORDER
  6
CONTINUOUS
 62
     2
100
AcDbLine
 39
96.0
 10
36.51135
 20
51.853233
 30
0.0
 11
36.51135
 21
51.853233
 31
0.0
  0
LINE
  5
9F7
100
AcDbEntity
  8
BORDER
  6
CONTINUOUS
 62
     2
100
AcDbLine
 39
96.0
 10
37.68322
 20
52.321933
 30
0.0
 11
37.68322
 21
52.321933
 31
0.0
  0
LINE
  5
9F8
100
AcDbEntity
  8
BORDER
  6
CONTINUOUS
 62
     2
100
AcDbLine
 39
96.0
 10
37.21447
 20
52.321933
 30
0.0
 11
37.21447
 21
52.321933
 31
0.0
  0
LINE
  5
9F9
100
AcDbEntity
  8
BORDER
  6
CONTINUOUS
 62
     2
100
AcDbLine
 39
96.0
 10
36.74572
 20
52.321933
 30
0.0
 11
36.74572
 21
52.321933
 31
0.0
  0
LINE
  5
9FA
100
AcDbEntity
  8
BORDER
  6
CONTINUOUS
 62
     2
100
AcDbLine
 39
96.0
 10
36.27697
 20
52.321933
 30
0.0
 11
36.27697
 21
52.321933
 31
0.0
  0
LINE
  5
9FB
100
AcDbEntity
  8
BORDER
  6
CONTINUOUS
 62
     2
100
AcDbLine
 39
96.0
 10
37.9176
 20
52.790733
 30
0.0
 11
37.9176
 21
52.790733
 31
0.0
  0
LINE
  5
9FC
100
AcDbEntity
  8
BORDER
  6
CONTINUOUS
 62
     2
100
AcDbLine
 39
96.0
 10
37.44885
 20
52.790733
 30
0.0
 11
37.44885
 21
52.790733
 31
0.0
  0
LINE
  5
9FD
100
AcDbEntity
  8
BORDER
  6
CONTINUOUS
 62
     2
100
AcDbLine
 39
96.0
 10
36.9801
 20
52.790733
 30
0.0
 11
36.9801
 21
52.790733
 31
0.0
  0
LINE
  5
9FE
100
AcDbEntity
  8
BORDER
  6
CONTINUOUS
 62
     2
100
AcDbLine
 39
96.0
 10
36.51135
 20
52.790733
 30
0.0
 11
36.51135
 21
52.790733
 31
0.0
  0
LINE
  5
9FF
100
AcDbEntity
  8
BORDER
  6
CONTINUOUS
 62
     2
100
AcDbLine
 39
96.0
 10
37.68322
 20
53.259433
 30
0.0
 11
37.68322
 21
53.259433
 31
0.0
  0
LINE
  5
A00
100
AcDbEntity
  8
BORDER
  6
CONTINUOUS
 62
     2
100
AcDbLine
 39
96.0
 10
37.21447
 20
53.259433
 30
0.0
 11
37.21447
 21
53.259433
 31
0.0
  0
LINE
  5
A01
100
AcDbEntity
  8
BORDER
  6
CONTINUOUS
 62
     2
100
AcDbLine
 39
96.0
 10
36.74572
 20
53.259433
 30
0.0
 11
36.74572
 21
53.259433
 31
0.0
  0
LINE
  5
A02
100
AcDbEntity
  8
BORDER
  6
CONTINUOUS
 62
     2
100
AcDbLine
 39
96.0
 10
36.27697
 20
53.259433
 30
0.0
 11
36.27697
 21
53.259433
 31
0.0
  0
LINE
  5
A03
100
AcDbEntity
  8
BORDER
  6
CONTINUOUS
 62
     2
100
AcDbLine
 39
96.0
 10
29.71447
 20
45.759433
 30
0.0
 11
29.71447
 21
45.759433
 31
0.0
  0
LINE
  5
A04
100
AcDbEntity
  8
BORDER
  6
CONTINUOUS
 62
     2
100
AcDbLine
 39
96.0
 10
29.24572
 20
45.759433
 30
0.0
 11
29.24572
 21
45.759433
 31
0.0
  0
LINE
  5
A05
100
AcDbEntity
  8
BORDER
  6
CONTINUOUS
 62
     2
100
AcDbLine
 39
96.0
 10
28.77697
 20
45.759433
 30
0.0
 11
28.77697
 21
45.759433
 31
0.0
  0
LINE
  5
A06
100
AcDbEntity
  8
BORDER
  6
CONTINUOUS
 62
     2
100
AcDbLine
 39
96.0
 10
28.30822
 20
45.759433
 30
0.0
 11
28.30822
 21
45.759433
 31
0.0
  0
LINE
  5
A07
100
AcDbEntity
  8
BORDER
  6
CONTINUOUS
 62
     2
100
AcDbLine
 39
96.0
 10
29.94885
 20
46.228233
 30
0.0
 11
29.94885
 21
46.228233
 31
0.0
  0
LINE
  5
A08
100
AcDbEntity
  8
BORDER
  6
CONTINUOUS
 62
     2
100
AcDbLine
 39
96.0
 10
29.4801
 20
46.228233
 30
0.0
 11
29.4801
 21
46.228233
 31
0.0
  0
LINE
  5
A09
100
AcDbEntity
  8
BORDER
  6
CONTINUOUS
 62
     2
100
AcDbLine
 39
96.0
 10
29.01135
 20
46.228233
 30
0.0
 11
29.01135
 21
46.228233
 31
0.0
  0
LINE
  5
A0A
100
AcDbEntity
  8
BORDER
  6
CONTINUOUS
 62
     2
100
AcDbLine
 39
96.0
 10
28.5426
 20
46.228233
 30
0.0
 11
28.5426
 21
46.228233
 31
0.0
  0
LINE
  5
A0B
100
AcDbEntity
  8
BORDER
  6
CONTINUOUS
 62
     2
100
AcDbLine
 39
96.0
 10
29.71447
 20
46.696933
 30
0.0
 11
29.71447
 21
46.696933
 31
0.0
  0
LINE
  5
A0C
100
AcDbEntity
  8
BORDER
  6
CONTINUOUS
 62
     2
100
AcDbLine
 39
96.0
 10
29.24572
 20
46.696933
 30
0.0
 11
29.24572
 21
46.696933
 31
0.0
  0
LINE
  5
A0D
100
AcDbEntity
  8
BORDER
  6
CONTINUOUS
 62
     2
100
AcDbLine
 39
96.0
 10
28.77697
 20
46.696933
 30
0.0
 11
28.77697
 21
46.696933
 31
0.0
  0
LINE
  5
A0E
100
AcDbEntity
  8
BORDER
  6
CONTINUOUS
 62
     2
100
AcDbLine
 39
96.0
 10
28.30822
 20
46.696933
 30
0.0
 11
28.30822
 21
46.696933
 31
0.0
  0
LINE
  5
A0F
100
AcDbEntity
  8
BORDER
  6
CONTINUOUS
 62
     2
100
AcDbLine
 39
96.0
 10
29.94885
 20
47.165733
 30
0.0
 11
29.94885
 21
47.165733
 31
0.0
  0
LINE
  5
A10
100
AcDbEntity
  8
BORDER
  6
CONTINUOUS
 62
     2
100
AcDbLine
 39
96.0
 10
29.4801
 20
47.165733
 30
0.0
 11
29.4801
 21
47.165733
 31
0.0
  0
LINE
  5
A11
100
AcDbEntity
  8
BORDER
  6
CONTINUOUS
 62
     2
100
AcDbLine
 39
96.0
 10
29.01135
 20
47.165733
 30
0.0
 11
29.01135
 21
47.165733
 31
0.0
  0
LINE
  5
A12
100
AcDbEntity
  8
BORDER
  6
CONTINUOUS
 62
     2
100
AcDbLine
 39
96.0
 10
28.5426
 20
47.165733
 30
0.0
 11
28.5426
 21
47.165733
 31
0.0
  0
LINE
  5
A13
100
AcDbEntity
  8
BORDER
  6
CONTINUOUS
 62
     2
100
AcDbLine
 39
96.0
 10
29.71447
 20
47.634433
 30
0.0
 11
29.71447
 21
47.634433
 31
0.0
  0
LINE
  5
A14
100
AcDbEntity
  8
BORDER
  6
CONTINUOUS
 62
     2
100
AcDbLine
 39
96.0
 10
29.24572
 20
47.634433
 30
0.0
 11
29.24572
 21
47.634433
 31
0.0
  0
LINE
  5
A15
100
AcDbEntity
  8
BORDER
  6
CONTINUOUS
 62
     2
100
AcDbLine
 39
96.0
 10
28.77697
 20
47.634433
 30
0.0
 11
28.77697
 21
47.634433
 31
0.0
  0
LINE
  5
A16
100
AcDbEntity
  8
BORDER
  6
CONTINUOUS
 62
     2
100
AcDbLine
 39
96.0
 10
28.30822
 20
47.634433
 30
0.0
 11
28.30822
 21
47.634433
 31
0.0
  0
LINE
  5
A17
100
AcDbEntity
  8
BORDER
  6
CONTINUOUS
 62
     2
100
AcDbLine
 39
96.0
 10
29.94885
 20
48.103233
 30
0.0
 11
29.94885
 21
48.103233
 31
0.0
  0
LINE
  5
A18
100
AcDbEntity
  8
BORDER
  6
CONTINUOUS
 62
     2
100
AcDbLine
 39
96.0
 10
29.4801
 20
48.103233
 30
0.0
 11
29.4801
 21
48.103233
 31
0.0
  0
LINE
  5
A19
100
AcDbEntity
  8
BORDER
  6
CONTINUOUS
 62
     2
100
AcDbLine
 39
96.0
 10
29.01135
 20
48.103233
 30
0.0
 11
29.01135
 21
48.103233
 31
0.0
  0
LINE
  5
A1A
100
AcDbEntity
  8
BORDER
  6
CONTINUOUS
 62
     2
100
AcDbLine
 39
96.0
 10
28.5426
 20
48.103233
 30
0.0
 11
28.5426
 21
48.103233
 31
0.0
  0
LINE
  5
A1B
100
AcDbEntity
  8
BORDER
  6
CONTINUOUS
 62
     2
100
AcDbLine
 39
96.0
 10
29.71447
 20
48.571933
 30
0.0
 11
29.71447
 21
48.571933
 31
0.0
  0
LINE
  5
A1C
100
AcDbEntity
  8
BORDER
  6
CONTINUOUS
 62
     2
100
AcDbLine
 39
96.0
 10
29.24572
 20
48.571933
 30
0.0
 11
29.24572
 21
48.571933
 31
0.0
  0
LINE
  5
A1D
100
AcDbEntity
  8
BORDER
  6
CONTINUOUS
 62
     2
100
AcDbLine
 39
96.0
 10
28.77697
 20
48.571933
 30
0.0
 11
28.77697
 21
48.571933
 31
0.0
  0
LINE
  5
A1E
100
AcDbEntity
  8
BORDER
  6
CONTINUOUS
 62
     2
100
AcDbLine
 39
96.0
 10
28.30822
 20
48.571933
 30
0.0
 11
28.30822
 21
48.571933
 31
0.0
  0
LINE
  5
A1F
100
AcDbEntity
  8
BORDER
  6
CONTINUOUS
 62
     2
100
AcDbLine
 39
96.0
 10
29.94885
 20
49.040733
 30
0.0
 11
29.94885
 21
49.040733
 31
0.0
  0
LINE
  5
A20
100
AcDbEntity
  8
BORDER
  6
CONTINUOUS
 62
     2
100
AcDbLine
 39
96.0
 10
29.4801
 20
49.040733
 30
0.0
 11
29.4801
 21
49.040733
 31
0.0
  0
LINE
  5
A21
100
AcDbEntity
  8
BORDER
  6
CONTINUOUS
 62
     2
100
AcDbLine
 39
96.0
 10
29.01135
 20
49.040733
 30
0.0
 11
29.01135
 21
49.040733
 31
0.0
  0
LINE
  5
A22
100
AcDbEntity
  8
BORDER
  6
CONTINUOUS
 62
     2
100
AcDbLine
 39
96.0
 10
28.5426
 20
49.040733
 30
0.0
 11
28.5426
 21
49.040733
 31
0.0
  0
LINE
  5
A23
100
AcDbEntity
  8
BORDER
  6
CONTINUOUS
 62
     2
100
AcDbLine
 39
96.0
 10
29.71447
 20
49.509433
 30
0.0
 11
29.71447
 21
49.509433
 31
0.0
  0
LINE
  5
A24
100
AcDbEntity
  8
BORDER
  6
CONTINUOUS
 62
     2
100
AcDbLine
 39
96.0
 10
29.24572
 20
49.509433
 30
0.0
 11
29.24572
 21
49.509433
 31
0.0
  0
LINE
  5
A25
100
AcDbEntity
  8
BORDER
  6
CONTINUOUS
 62
     2
100
AcDbLine
 39
96.0
 10
28.77697
 20
49.509433
 30
0.0
 11
28.77697
 21
49.509433
 31
0.0
  0
LINE
  5
A26
100
AcDbEntity
  8
BORDER
  6
CONTINUOUS
 62
     2
100
AcDbLine
 39
96.0
 10
28.30822
 20
49.509433
 30
0.0
 11
28.30822
 21
49.509433
 31
0.0
  0
LINE
  5
A27
100
AcDbEntity
  8
BORDER
  6
CONTINUOUS
 62
     2
100
AcDbLine
 39
96.0
 10
29.94885
 20
49.978233
 30
0.0
 11
29.94885
 21
49.978233
 31
0.0
  0
LINE
  5
A28
100
AcDbEntity
  8
BORDER
  6
CONTINUOUS
 62
     2
100
AcDbLine
 39
96.0
 10
29.4801
 20
49.978233
 30
0.0
 11
29.4801
 21
49.978233
 31
0.0
  0
LINE
  5
A29
100
AcDbEntity
  8
BORDER
  6
CONTINUOUS
 62
     2
100
AcDbLine
 39
96.0
 10
29.01135
 20
49.978233
 30
0.0
 11
29.01135
 21
49.978233
 31
0.0
  0
LINE
  5
A2A
100
AcDbEntity
  8
BORDER
  6
CONTINUOUS
 62
     2
100
AcDbLine
 39
96.0
 10
28.5426
 20
49.978233
 30
0.0
 11
28.5426
 21
49.978233
 31
0.0
  0
LINE
  5
A2B
100
AcDbEntity
  8
BORDER
  6
CONTINUOUS
 62
     2
100
AcDbLine
 39
96.0
 10
29.71447
 20
50.446933
 30
0.0
 11
29.71447
 21
50.446933
 31
0.0
  0
LINE
  5
A2C
100
AcDbEntity
  8
BORDER
  6
CONTINUOUS
 62
     2
100
AcDbLine
 39
96.0
 10
29.24572
 20
50.446933
 30
0.0
 11
29.24572
 21
50.446933
 31
0.0
  0
LINE
  5
A2D
100
AcDbEntity
  8
BORDER
  6
CONTINUOUS
 62
     2
100
AcDbLine
 39
96.0
 10
28.77697
 20
50.446933
 30
0.0
 11
28.77697
 21
50.446933
 31
0.0
  0
LINE
  5
A2E
100
AcDbEntity
  8
BORDER
  6
CONTINUOUS
 62
     2
100
AcDbLine
 39
96.0
 10
28.30822
 20
50.446933
 30
0.0
 11
28.30822
 21
50.446933
 31
0.0
  0
LINE
  5
A2F
100
AcDbEntity
  8
BORDER
  6
CONTINUOUS
 62
     2
100
AcDbLine
 39
96.0
 10
29.94885
 20
50.915733
 30
0.0
 11
29.94885
 21
50.915733
 31
0.0
  0
LINE
  5
A30
100
AcDbEntity
  8
BORDER
  6
CONTINUOUS
 62
     2
100
AcDbLine
 39
96.0
 10
29.4801
 20
50.915733
 30
0.0
 11
29.4801
 21
50.915733
 31
0.0
  0
LINE
  5
A31
100
AcDbEntity
  8
BORDER
  6
CONTINUOUS
 62
     2
100
AcDbLine
 39
96.0
 10
29.01135
 20
50.915733
 30
0.0
 11
29.01135
 21
50.915733
 31
0.0
  0
LINE
  5
A32
100
AcDbEntity
  8
BORDER
  6
CONTINUOUS
 62
     2
100
AcDbLine
 39
96.0
 10
28.5426
 20
50.915733
 30
0.0
 11
28.5426
 21
50.915733
 31
0.0
  0
LINE
  5
A33
100
AcDbEntity
  8
BORDER
  6
CONTINUOUS
 62
     2
100
AcDbLine
 39
96.0
 10
29.71447
 20
51.384433
 30
0.0
 11
29.71447
 21
51.384433
 31
0.0
  0
LINE
  5
A34
100
AcDbEntity
  8
BORDER
  6
CONTINUOUS
 62
     2
100
AcDbLine
 39
96.0
 10
29.24572
 20
51.384433
 30
0.0
 11
29.24572
 21
51.384433
 31
0.0
  0
LINE
  5
A35
100
AcDbEntity
  8
BORDER
  6
CONTINUOUS
 62
     2
100
AcDbLine
 39
96.0
 10
28.77697
 20
51.384433
 30
0.0
 11
28.77697
 21
51.384433
 31
0.0
  0
LINE
  5
A36
100
AcDbEntity
  8
BORDER
  6
CONTINUOUS
 62
     2
100
AcDbLine
 39
96.0
 10
28.30822
 20
51.384433
 30
0.0
 11
28.30822
 21
51.384433
 31
0.0
  0
LINE
  5
A37
100
AcDbEntity
  8
BORDER
  6
CONTINUOUS
 62
     2
100
AcDbLine
 39
96.0
 10
29.94885
 20
51.853233
 30
0.0
 11
29.94885
 21
51.853233
 31
0.0
  0
LINE
  5
A38
100
AcDbEntity
  8
BORDER
  6
CONTINUOUS
 62
     2
100
AcDbLine
 39
96.0
 10
29.4801
 20
51.853233
 30
0.0
 11
29.4801
 21
51.853233
 31
0.0
  0
LINE
  5
A39
100
AcDbEntity
  8
BORDER
  6
CONTINUOUS
 62
     2
100
AcDbLine
 39
96.0
 10
29.01135
 20
51.853233
 30
0.0
 11
29.01135
 21
51.853233
 31
0.0
  0
LINE
  5
A3A
100
AcDbEntity
  8
BORDER
  6
CONTINUOUS
 62
     2
100
AcDbLine
 39
96.0
 10
28.5426
 20
51.853233
 30
0.0
 11
28.5426
 21
51.853233
 31
0.0
  0
LINE
  5
A3B
100
AcDbEntity
  8
BORDER
  6
CONTINUOUS
 62
     2
100
AcDbLine
 39
96.0
 10
29.71447
 20
52.321933
 30
0.0
 11
29.71447
 21
52.321933
 31
0.0
  0
LINE
  5
A3C
100
AcDbEntity
  8
BORDER
  6
CONTINUOUS
 62
     2
100
AcDbLine
 39
96.0
 10
29.24572
 20
52.321933
 30
0.0
 11
29.24572
 21
52.321933
 31
0.0
  0
LINE
  5
A3D
100
AcDbEntity
  8
BORDER
  6
CONTINUOUS
 62
     2
100
AcDbLine
 39
96.0
 10
28.77697
 20
52.321933
 30
0.0
 11
28.77697
 21
52.321933
 31
0.0
  0
LINE
  5
A3E
100
AcDbEntity
  8
BORDER
  6
CONTINUOUS
 62
     2
100
AcDbLine
 39
96.0
 10
28.30822
 20
52.321933
 30
0.0
 11
28.30822
 21
52.321933
 31
0.0
  0
LINE
  5
A3F
100
AcDbEntity
  8
BORDER
  6
CONTINUOUS
 62
     2
100
AcDbLine
 39
96.0
 10
29.94885
 20
52.790733
 30
0.0
 11
29.94885
 21
52.790733
 31
0.0
  0
LINE
  5
A40
100
AcDbEntity
  8
BORDER
  6
CONTINUOUS
 62
     2
100
AcDbLine
 39
96.0
 10
29.4801
 20
52.790733
 30
0.0
 11
29.4801
 21
52.790733
 31
0.0
  0
LINE
  5
A41
100
AcDbEntity
  8
BORDER
  6
CONTINUOUS
 62
     2
100
AcDbLine
 39
96.0
 10
29.01135
 20
52.790733
 30
0.0
 11
29.01135
 21
52.790733
 31
0.0
  0
LINE
  5
A42
100
AcDbEntity
  8
BORDER
  6
CONTINUOUS
 62
     2
100
AcDbLine
 39
96.0
 10
28.5426
 20
52.790733
 30
0.0
 11
28.5426
 21
52.790733
 31
0.0
  0
LINE
  5
A43
100
AcDbEntity
  8
BORDER
  6
CONTINUOUS
 62
     2
100
AcDbLine
 39
96.0
 10
29.71447
 20
53.259433
 30
0.0
 11
29.71447
 21
53.259433
 31
0.0
  0
LINE
  5
A44
100
AcDbEntity
  8
BORDER
  6
CONTINUOUS
 62
     2
100
AcDbLine
 39
96.0
 10
29.24572
 20
53.259433
 30
0.0
 11
29.24572
 21
53.259433
 31
0.0
  0
LINE
  5
A45
100
AcDbEntity
  8
BORDER
  6
CONTINUOUS
 62
     1
100
AcDbLine
 39
96.0
 10
35.0028
 20
50.529033
 30
0.0
 11
35.01354
 21
50.590633
 31
0.0
  0
LINE
  5
A46
100
AcDbEntity
  8
BORDER
  6
CONTINUOUS
 62
     1
100
AcDbLine
 39
96.0
 10
32.10705
 20
48.501133
 30
0.0
 11
32.11779
 21
48.562633
 31
0.0
  0
LINE
  5
A47
100
AcDbEntity
  8
BORDER
  6
CONTINUOUS
 62
     1
100
AcDbLine
 39
96.0
 10
31.67297
 20
46.039033
 30
0.0
 11
31.68371
 21
46.100633
 31
0.0
  0
LINE
  5
A48
100
AcDbEntity
  8
BORDER
  6
CONTINUOUS
 62
     1
100
AcDbLine
 39
96.0
 10
30.07922
 20
51.397133
 30
0.0
 11
30.08996
 21
51.458733
 31
0.0
  0
LINE
  5
A49
100
AcDbEntity
  8
BORDER
  6
CONTINUOUS
 62
     1
100
AcDbLine
 39
96.0
 10
33.42272
 20
46.020833
 30
0.0
 11
33.45861
 21
46.072033
 31
0.0
  0
LINE
  5
A4A
100
AcDbEntity
  8
BORDER
  6
CONTINUOUS
 62
     1
100
AcDbLine
 39
96.0
 10
32.80895
 20
49.502533
 30
0.0
 11
32.84484
 21
49.553733
 31
0.0
  0
LINE
  5
A4B
100
AcDbEntity
  8
BORDER
  6
CONTINUOUS
 62
     1
100
AcDbLine
 39
96.0
 10
31.37487
 20
47.454633
 30
0.0
 11
31.41076
 21
47.505933
 31
0.0
  0
LINE
  5
A4C
100
AcDbEntity
  8
BORDER
  6
CONTINUOUS
 62
     1
100
AcDbLine
 39
96.0
 10
30.76086
 20
50.936533
 30
0.0
 11
30.79675
 21
50.987733
 31
0.0
  0
LINE
  5
A4D
100
AcDbEntity
  8
BORDER
  6
CONTINUOUS
 62
     1
100
AcDbLine
 39
96.0
 10
36.05798
 20
46.241233
 30
0.0
 11
36.11682
 21
46.262533
 31
0.0
  0
LINE
  5
A4E
100
AcDbEntity
  8
BORDER
  6
CONTINUOUS
 62
     1
100
AcDbLine
 39
96.0
 10
35.73449
 20
48.590433
 30
0.0
 11
35.79333
 21
48.611833
 31
0.0
  0
LINE
  5
A4F
100
AcDbEntity
  8
BORDER
  6
CONTINUOUS
 62
     1
100
AcDbLine
 39
96.0
 10
30.50427
 20
46.880333
 30
0.0
 11
30.5631
 21
46.901733
 31
0.0
  0
LINE
  5
A50
100
AcDbEntity
  8
BORDER
  6
CONTINUOUS
 62
     1
100
AcDbLine
 39
96.0
 10
31.99865
 20
50.084633
 30
0.0
 11
32.05749
 21
50.106033
 31
0.0
  0
LINE
  5
A51
100
AcDbEntity
  8
BORDER
  6
CONTINUOUS
 62
     3
100
AcDbLine
 39
96.0
 10
36.362381
 20
53.395233
 30
0.0
 11
29.41438
 21
53.395233
 31
0.0
  0
ARC
  5
A52
100
AcDbEntity
  8
BORDER
  6
CONTINUOUS
 62
     3
100
AcDbCircle
 39
96.0
 10
33.09582
 20
53.395233
 30
0.0
 40
3.0
100
AcDbArc
 50
180.0
 51
0.0
  0
LINE
  5
A53
100
AcDbEntity
  8
BORDER
  6
CONTINUOUS
 62
     3
100
AcDbLine
 39
96.0
 10
38.09582
 20
53.395233
 30
0.0
 11
36.22082
 21
53.395233
 31
0.0
  0
LINE
  5
A54
100
AcDbEntity
  8
BORDER
  6
CONTINUOUS
 62
    15
100
AcDbLine
 39
96.0
 10
30.90832
 20
62.60394
 30
0.0
 11
30.90832
 21
59.61444
 31
0.0
  0
LINE
  5
A55
100
AcDbEntity
  8
BORDER
  6
CONTINUOUS
 62
     7
100
AcDbLine
 39
96.0
 10
30.2174
 20
54.92624
 30
0.0
 11
31.70495
 21
61.73644
 31
0.0
  0
LINE
  5
A56
100
AcDbEntity
  8
BORDER
  6
CONTINUOUS
 62
     7
100
AcDbLine
 39
96.0
 10
30.2174
 20
61.24054
 30
0.0
 11
30.2174
 21
54.92624
 31
0.0
  0
LINE
  5
A57
100
AcDbEntity
  8
BORDER
  6
CONTINUOUS
 62
     7
100
AcDbLine
 39
96.0
 10
31.7174
 20
54.92624
 30
0.0
 11
31.7174
 21
61.74054
 31
0.0
  0
LINE
  5
A58
100
AcDbEntity
  8
BORDER
  6
CONTINUOUS
 62
     1
100
AcDbLine
 39
90.0
 10
34.83776
 20
54.52984
 30
0.0
 11
34.84509
 21
54.57304
 31
0.0
  0
LINE
  5
A59
100
AcDbEntity
  8
BORDER
  6
CONTINUOUS
 62
     1
100
AcDbLine
 39
90.0
 10
30.88073
 20
54.47164
 30
0.0
 11
30.90588
 21
54.50744
 31
0.0
  0
LINE
  5
A5A
100
AcDbEntity
  8
BORDER
  6
CONTINUOUS
 62
     1
100
AcDbLine
 39
90.0
 10
31.83483
 20
46.584233
 30
0.0
 11
31.84484
 21
46.641933
 31
0.0
  0
LINE
  5
A5B
100
AcDbEntity
  8
BORDER
  6
CONTINUOUS
 62
     1
100
AcDbLine
 39
90.0
 10
30.73937
 20
47.372933
 30
0.0
 11
30.79479
 21
47.393033
 31
0.0
  0
LINE
  5
A5C
100
AcDbEntity
  8
BORDER
  6
CONTINUOUS
 62
     3
100
AcDbLine
 39
90.0
 10
13.25134
 20
46.44454
 30
0.0
 11
11.84509
 21
55.11644
 31
0.0
  0
LINE
  5
A5D
100
AcDbEntity
  8
BORDER
  6
CONTINUOUS
 62
     3
100
AcDbLine
 39
90.0
 10
13.25134
 20
55.58514
 30
0.0
 11
11.84509
 21
46.44454
 31
0.0
  0
LINE
  5
A5E
100
AcDbEntity
  8
BORDER
  6
CONTINUOUS
 62
     7
100
AcDbLine
 39
90.0
 10
11.84509
 20
46.44454
 30
0.0
 11
13.25134
 21
46.44454
 31
0.0
  0
LINE
  5
A5F
100
AcDbEntity
  8
BORDER
  6
CONTINUOUS
 62
     7
100
AcDbLine
 39
90.0
 10
13.25134
 20
55.58514
 30
0.0
 11
13.25134
 21
46.44454
 31
0.0
  0
LINE
  5
A60
100
AcDbEntity
  8
BORDER
  6
CONTINUOUS
 62
     7
100
AcDbLine
 39
90.0
 10
11.84509
 20
55.85764
 30
0.0
 11
11.84509
 21
46.44454
 31
0.0
  0
LINE
  5
A61
100
AcDbEntity
  8
BORDER
  6
CONTINUOUS
 62
     3
100
AcDbLine
 39
90.0
 10
38.24987
 20
63.91804
 30
0.0
 11
39.36169
 21
65.02984
 31
0.0
  0
LINE
  5
A62
100
AcDbEntity
  8
BORDER
  6
CONTINUOUS
 62
     3
100
AcDbLine
 39
90.0
 10
35.45349
 20
62.98594
 30
0.0
 11
36.5653
 21
64.09774
 31
0.0
  0
LINE
  5
A63
100
AcDbEntity
  8
BORDER
  6
CONTINUOUS
 62
     3
100
AcDbLine
 39
90.0
 10
32.65685
 20
62.05364
 30
0.0
 11
33.76843
 21
63.16554
 31
0.0
  0
LINE
  5
A64
100
AcDbEntity
  8
BORDER
  6
CONTINUOUS
 62
     3
100
AcDbLine
 39
90.0
 10
29.85998
 20
61.12154
 30
0.0
 11
30.9718
 21
62.23324
 31
0.0
  0
LINE
  5
A65
100
AcDbEntity
  8
BORDER
  6
CONTINUOUS
 62
     3
100
AcDbLine
 39
90.0
 10
27.06359
 20
60.18924
 30
0.0
 11
28.17541
 21
61.30114
 31
0.0
  0
LINE
  5
A66
100
AcDbEntity
  8
BORDER
  6
CONTINUOUS
 62
     3
100
AcDbLine
 39
90.0
 10
24.26696
 20
59.25704
 30
0.0
 11
25.37853
 21
60.36884
 31
0.0
  0
LINE
  5
A67
100
AcDbEntity
  8
BORDER
  6
CONTINUOUS
 62
     3
100
AcDbLine
 39
90.0
 10
21.47009
 20
58.32494
 30
0.0
 11
22.5819
 21
59.43664
 31
0.0
  0
LINE
  5
A68
100
AcDbEntity
  8
BORDER
  6
CONTINUOUS
 62
     3
100
AcDbLine
 39
90.0
 10
18.6737
 20
57.39264
 30
0.0
 11
19.78552
 21
58.50454
 31
0.0
  0
LINE
  5
A69
100
AcDbEntity
  8
BORDER
  6
CONTINUOUS
 62
     3
100
AcDbLine
 39
90.0
 10
15.87707
 20
56.46044
 30
0.0
 11
16.98864
 21
57.57224
 31
0.0
  0
LINE
  5
A6A
100
AcDbEntity
  8
BORDER
  6
CONTINUOUS
 62
     3
100
AcDbLine
 39
90.0
 10
13.08019
 20
55.52834
 30
0.0
 11
14.19201
 21
56.64014
 31
0.0
  0
LINE
  5
A6B
100
AcDbEntity
  8
BORDER
  6
CONTINUOUS
 62
     7
100
AcDbLine
 39
89.99775
 10
34.11486
 20
55.42574
 30
0.0
 11
34.11486
 21
46.00694
 31
0.0
  0
TEXT
  5
A6C
100
AcDbEntity
  8
DIM_TEXT
100
AcDbText
 10
6.477167
 20
59.14804
 30
0.0
 40
1.125
  1
2 X BLOCK'G
 51
15.0
  7
INFO
100
AcDbText
  0
TEXT
  5
A6D
100
AcDbEntity
  8
DIM_TEXT
100
AcDbText
 10
9.22351
 20
64.51464
 30
0.0
 40
1.125
  1
BOUND. NAIL
 51
15.0
  7
INFO
100
AcDbText
  0
LINE
  5
A6E
100
AcDbEntity
  8
BORDER
  6
CONTINUOUS
 62
     1
100
AcDbLine
 39
47.9988
 10
34.06115
 20
55.76954
 30
0.0
 11
34.06115
 21
55.42574
 31
0.0
  0
LINE
  5
A6F
100
AcDbEntity
  8
BORDER
  6
CONTINUOUS
 62
     1
100
AcDbLine
 39
47.9988
 10
33.24914
 20
55.76954
 30
0.0
 11
34.06115
 21
55.76954
 31
0.0
  0
LINE
  5
A70
100
AcDbEntity
  8
BORDER
  6
CONTINUOUS
 62
     1
100
AcDbLine
 39
47.9988
 10
33.40515
 20
56.11544
 30
0.0
 11
33.40515
 21
55.76954
 31
0.0
  0
LINE
  5
A71
100
AcDbEntity
  8
BORDER
  6
CONTINUOUS
 62
     1
100
AcDbLine
 39
47.9988
 10
33.90515
 20
56.11544
 30
0.0
 11
33.40515
 21
56.11544
 31
0.0
  0
LINE
  5
A72
100
AcDbEntity
  8
BORDER
  6
CONTINUOUS
 62
     1
100
AcDbLine
 39
47.9988
 10
33.90515
 20
55.76954
 30
0.0
 11
33.90515
 21
56.11544
 31
0.0
  0
LINE
  5
A73
100
AcDbEntity
  8
BORDER
  6
CONTINUOUS
 62
     1
100
AcDbLine
 39
47.9988
 10
33.89147
 20
55.67674
 30
0.0
 11
33.96203
 21
55.76954
 31
0.0
  0
LINE
  5
A74
100
AcDbEntity
  8
BORDER
  6
CONTINUOUS
 62
     1
100
AcDbLine
 39
47.9988
 10
33.89147
 20
55.67674
 30
0.0
 11
33.82092
 21
55.76954
 31
0.0
  0
LINE
  5
A75
100
AcDbEntity
  8
BORDER
  6
CONTINUOUS
 62
     1
100
AcDbLine
 39
47.9988
 10
33.41174
 20
55.67674
 30
0.0
 11
33.48205
 21
55.76954
 31
0.0
  0
LINE
  5
A76
100
AcDbEntity
  8
BORDER
  6
CONTINUOUS
 62
     1
100
AcDbLine
 39
47.9988
 10
33.41174
 20
55.67674
 30
0.0
 11
33.34094
 21
55.76954
 31
0.0
  0
LINE
  5
A77
100
AcDbEntity
  8
BORDER
  6
CONTINUOUS
 62
     1
100
AcDbLine
 39
47.9988
 10
33.89147
 20
55.42574
 30
0.0
 11
33.89147
 21
55.67674
 31
0.0
  0
LINE
  5
A78
100
AcDbEntity
  8
BORDER
  6
CONTINUOUS
 62
     1
100
AcDbLine
 39
47.9988
 10
33.41174
 20
55.42574
 30
0.0
 11
33.41174
 21
55.67674
 31
0.0
  0
LINE
  5
A79
100
AcDbEntity
  8
BORDER
  6
CONTINUOUS
 62
     1
100
AcDbLine
 39
47.9988
 10
33.24914
 20
55.42574
 30
0.0
 11
33.24914
 21
55.76954
 31
0.0
  0
TEXT
  5
A7A
100
AcDbEntity
  8
DIM_TEXT
100
AcDbText
 10
19.185239
 20
66.96774
 30
0.0
 40
1.125
  1
SHEAR TRANSFER
 51
15.0
  7
INFO
100
AcDbText
  0
LINE
  5
A7B
100
AcDbEntity
  8
BORDER
  6
CONTINUOUS
 62
     6
100
AcDbLine
 10
18.9154
 20
59.61444
 30
0.0
 11
29.0614
 21
57.69714
 31
0.0
  0
LINE
  5
A7C
100
AcDbEntity
  8
BORDER
  6
CONTINUOUS
 62
     6
100
AcDbLine
 10
21.83898
 20
64.93014
 30
0.0
 11
29.88415
 21
62.58684
 31
0.0
  0
TEXT
  5
A7D
100
AcDbEntity
  8
DIM_TEXT
100
AcDbText
 10
21.78991
 20
69.76924
 30
0.0
 40
1.125
  1
ROOF SHEATHING
 51
15.0
  7
INFO
100
AcDbText
  0
LINE
  5
A7E
100
AcDbEntity
  8
BORDER
  6
CONTINUOUS
 62
     6
100
AcDbLine
 10
17.94079
 20
59.70304
 30
0.0
 11
18.9154
 21
59.61444
 31
0.0
  0
LINE
  5
A7F
100
AcDbEntity
  8
BORDER
  6
CONTINUOUS
 62
     6
100
AcDbLine
 10
20.4215
 20
64.93014
 30
0.0
 11
21.83898
 21
64.93014
 31
0.0
  0
LINE
  5
A80
100
AcDbEntity
  8
BORDER
  6
CONTINUOUS
 62
     6
100
AcDbLine
 10
36.14074
 20
67.55834
 30
0.0
 11
32.28869
 21
57.44684
 31
0.0
  0
LINE
  5
A81
100
AcDbEntity
  8
BORDER
  6
CONTINUOUS
 62
     6
100
AcDbLine
 10
30.16686
 20
57.48824
 30
0.0
 11
29.13098
 21
58.06564
 31
0.0
  0
LINE
  5
A82
100
AcDbEntity
  8
BORDER
  6
CONTINUOUS
 62
     6
100
AcDbLine
 10
30.16686
 20
57.48824
 30
0.0
 11
28.99182
 21
57.32864
 31
0.0
  0
LINE
  5
A83
100
AcDbEntity
  8
BORDER
  6
CONTINUOUS
 62
     6
100
AcDbLine
 10
30.96423
 20
62.27224
 30
0.0
 11
29.98913
 21
62.94684
 31
0.0
  0
LINE
  5
A84
100
AcDbEntity
  8
BORDER
  6
CONTINUOUS
 62
     6
100
AcDbLine
 10
30.96423
 20
62.27224
 30
0.0
 11
29.77917
 21
62.22674
 31
0.0
  0
LINE
  5
A85
100
AcDbEntity
  8
BORDER
  6
CONTINUOUS
 62
     6
100
AcDbLine
 10
28.99182
 20
57.32864
 30
0.0
 11
29.13098
 21
58.06564
 31
0.0
  0
LINE
  5
A86
100
AcDbEntity
  8
BORDER
  6
CONTINUOUS
 62
     6
100
AcDbLine
 10
29.77917
 20
62.22674
 30
0.0
 11
29.98913
 21
62.94684
 31
0.0
  0
LINE
  5
A87
100
AcDbEntity
  8
BORDER
  6
CONTINUOUS
 62
     6
100
AcDbLine
 10
31.8883
 20
56.39544
 30
0.0
 11
32.63903
 21
57.31334
 31
0.0
  0
LINE
  5
A88
100
AcDbEntity
  8
BORDER
  6
CONTINUOUS
 62
     6
100
AcDbLine
 10
31.8883
 20
56.39544
 30
0.0
 11
31.93835
 21
57.58034
 31
0.0
  0
LINE
  5
A89
100
AcDbEntity
  8
BORDER
  6
CONTINUOUS
 62
     6
100
AcDbLine
 10
31.93835
 20
57.58034
 30
0.0
 11
32.63903
 21
57.31334
 31
0.0
  0
LINE
  5
A8A
100
AcDbEntity
  8
BORDER
  6
CONTINUOUS
 62
     6
100
AcDbLine
 10
36.91418
 20
69.79694
 30
0.0
 11
38.51989
 21
69.74164
 31
0.0
  0
LINE
  5
A8B
100
AcDbEntity
  8
BORDER
  6
CONTINUOUS
 62
     6
100
AcDbLine
 10
33.66027
 20
67.55834
 30
0.0
 11
36.14074
 21
67.55834
 31
0.0
  0
TEXT
  5
A8C
100
AcDbEntity
  8
DIM_TEXT
100
AcDbText
 10
43.748297
 20
43.634186
 30
0.0
 40
1.125
  1
2 X 6 PL. WITH ANCHOR BOLTS
 51
15.0
  7
INFO
100
AcDbText
  0
TEXT
  5
A8D
100
AcDbEntity
  8
DIM_TEXT
100
AcDbText
 10
43.748297
 20
41.831737
 30
0.0
 40
1.125
  1
(MIN.-5/8"%%C A.B. @ 45" O.C.)
 51
15.0
  7
INFO
100
AcDbText
  0
TEXT
  5
A8E
100
AcDbEntity
  8
DIM_TEXT
100
AcDbText
 10
43.802781
 20
32.045728
 30
0.0
 40
1.125
  1
HORIZ. REINF.(MIN. #4 @ 30" O.C.)
 51
15.0
  7
INFO
100
AcDbText
  0
TEXT
  5
A8F
100
AcDbEntity
  8
DIM_TEXT
100
AcDbText
 10
43.966938
 20
22.519388
 30
0.0
 40
1.125
  1
VERT. REINF.(MIN. #4 @ 30" O.C.)
 51
15.0
  7
INFO
100
AcDbText
  0
TEXT
  5
A90
100
AcDbEntity
  8
DIM_TEXT
100
AcDbText
 10
43.541318
 20
30.16819
 30
0.0
 40
1.124955
  1
REQUIRED, PER DESIGN)
 51
15.0
  7
INFO
100
AcDbText
  0
TEXT
  5
A91
100
AcDbEntity
  8
DIM_TEXT
100
AcDbText
 10
43.725178
 20
20.783529
 30
0.0
 40
1.124955
  1
REQUIRED, PER DESIGN)
 51
15.0
  7
INFO
100
AcDbText
  0
LINE
  5
A92
100
AcDbEntity
  8
BORDER
  6
CONTINUOUS
 62
     7
100
AcDbLine
 39
90.0
 10
41.43029
 20
58.96644
 30
0.0
 11
66.53747
 21
59.03964
 31
0.0
  0
LINE
  5
A93
100
AcDbEntity
  8
BORDER
  6
CONTINUOUS
 62
     3
100
AcDbLine
 39
90.0
 10
66.21642
 20
73.24024
 30
0.0
 11
66.53747
 21
73.56154
 31
0.0
  0
LINE
  5
A94
100
AcDbEntity
  8
BORDER
  6
CONTINUOUS
 62
     3
100
AcDbLine
 39
90.0
 10
63.41955
 20
72.30794
 30
0.0
 11
64.53087
 21
73.41964
 31
0.0
  0
LINE
  5
A95
100
AcDbEntity
  8
BORDER
  6
CONTINUOUS
 62
     3
100
AcDbLine
 39
90.0
 10
60.62267
 20
71.37574
 30
0.0
 11
61.73498
 21
72.48754
 31
0.0
  0
LINE
  5
A96
100
AcDbEntity
  8
BORDER
  6
CONTINUOUS
 62
     3
100
AcDbLine
 39
90.0
 10
57.82653
 20
70.44354
 30
0.0
 11
58.9381
 21
71.55544
 31
0.0
  0
LINE
  5
A97
100
AcDbEntity
  8
BORDER
  6
CONTINUOUS
 62
     3
100
AcDbLine
 39
90.0
 10
55.02966
 20
69.51134
 30
0.0
 11
56.14099
 21
70.62314
 31
0.0
  0
LINE
  5
A98
100
AcDbEntity
  8
BORDER
  6
CONTINUOUS
 62
     3
100
AcDbLine
 39
90.0
 10
52.23278
 20
68.57924
 30
0.0
 11
53.34509
 21
69.69094
 31
0.0
  0
LINE
  5
A99
100
AcDbEntity
  8
BORDER
  6
CONTINUOUS
 62
     3
100
AcDbLine
 39
90.0
 10
49.43664
 20
67.64694
 30
0.0
 11
50.54821
 21
68.75874
 31
0.0
  0
LINE
  5
A9A
100
AcDbEntity
  8
BORDER
  6
CONTINUOUS
 62
     3
100
AcDbLine
 39
90.0
 10
46.63976
 20
66.71474
 30
0.0
 11
47.75109
 21
67.82654
 31
0.0
  0
LINE
  5
A9B
100
AcDbEntity
  8
BORDER
  6
CONTINUOUS
 62
     3
100
AcDbLine
 39
90.0
 10
43.84338
 20
65.78254
 30
0.0
 11
44.95519
 21
66.89424
 31
0.0
  0
LINE
  5
A9C
100
AcDbEntity
  8
BORDER
  6
CONTINUOUS
 62
     3
100
AcDbLine
 39
90.0
 10
41.04675
 20
64.85034
 30
0.0
 11
42.15832
 21
65.96214
 31
0.0
  0
LINE
  5
A9D
100
AcDbEntity
  8
BORDER
  6
CONTINUOUS
 62
     3
100
AcDbLine
 39
90.0
 10
63.90758
 20
61.70044
 30
0.0
 11
66.53747
 21
60.84064
 31
0.0
  0
LINE
  5
A9E
100
AcDbEntity
  8
BORDER
  6
CONTINUOUS
 62
     3
100
AcDbLine
 39
90.0
 10
68.7799
 20
65.74254
 30
0.0
 11
63.90758
 21
61.70044
 31
0.0
  0
LINE
  5
A9F
100
AcDbEntity
  8
BORDER
  6
CONTINUOUS
 62
     3
100
AcDbLine
 39
90.0
 10
66.67614
 20
66.57314
 30
0.0
 11
68.7799
 21
65.74254
 31
0.0
  0
LINE
  5
AA0
100
AcDbEntity
  8
BORDER
  6
CONTINUOUS
 62
     3
100
AcDbLine
 39
90.0
 10
66.53747
 20
66.57314
 30
0.0
 11
66.53747
 21
74.94114
 31
0.0
  0
LINE
  5
AA1
100
AcDbEntity
  8
BORDER
  6
CONTINUOUS
 62
     3
100
AcDbLine
 39
90.0
 10
66.53747
 20
54.15114
 30
0.0
 11
66.53747
 21
60.84064
 31
0.0
  0
TEXT
  5
AA2
100
AcDbEntity
  8
DIM_TEXT
100
AcDbText
 10
44.63463
 20
48.565633
 30
0.0
 40
1.125
  1
WALL/ROOF ANCHORAGE
 51
15.0
  7
INFO
100
AcDbText
  0
LINE
  5
AA3
100
AcDbEntity
  8
BORDER
  6
CONTINUOUS
 62
     6
100
AcDbLine
 10
43.94616
 20
72.61604
 30
0.0
 11
50.79357
 21
68.89964
 31
0.0
  0
LINE
  5
AA4
100
AcDbEntity
  8
BORDER
  6
CONTINUOUS
 62
     6
100
AcDbLine
 10
42.8944
 20
66.19784
 30
0.0
 11
42.29553
 21
67.13494
 31
0.0
  0
LINE
  5
AA5
100
AcDbEntity
  8
BORDER
  6
CONTINUOUS
 62
     6
100
AcDbLine
 10
42.8944
 20
66.19784
 30
0.0
 11
41.85339
 21
66.58864
 31
0.0
  0
LINE
  5
AA6
100
AcDbEntity
  8
BORDER
  6
CONTINUOUS
 62
     6
100
AcDbLine
 10
41.85339
 20
66.58864
 30
0.0
 11
42.29553
 21
67.13494
 31
0.0
  0
LINE
  5
AA7
100
AcDbEntity
  8
BORDER
  6
CONTINUOUS
 62
     6
100
AcDbLine
 10
42.45129
 20
72.61604
 30
0.0
 11
43.94616
 21
72.61604
 31
0.0
  0
LINE
  5
AA8
100
AcDbEntity
  8
BORDER
  6
CONTINUOUS
 62
     6
100
AcDbLine
 10
51.75353
 20
68.46324
 30
0.0
 11
50.93859
 21
69.21974
 31
0.0
  0
LINE
  5
AA9
100
AcDbEntity
  8
BORDER
  6
CONTINUOUS
 62
     6
100
AcDbLine
 10
51.75353
 20
68.46324
 30
0.0
 11
50.64782
 21
68.57954
 31
0.0
  0
LINE
  5
AAA
100
AcDbEntity
  8
BORDER
  6
CONTINUOUS
 62
     6
100
AcDbLine
 10
50.64782
 20
68.57954
 30
0.0
 11
50.93859
 21
69.21974
 31
0.0
  0
ENDSEC
  0
SECTION
  2
OBJECTS
  0
DICTIONARY
  5
C
100
AcDbDictionary
  3
ACAD_GROUP
350
D
  3
ACAD_MLINESTYLE
350
1A
  3
ACDBVARIABLEDICTIONARY
350
29
  0
DICTIONARY
  5
D
102
{ACAD_REACTORS
330
C
102
}
100
AcDbDictionary
  0
DICTIONARY
  5
1A
102
{ACAD_REACTORS
330
C
102
}
100
AcDbDictionary
  3
STANDARD
350
1B
  0
DICTIONARY
  5
29
102
{ACAD_REACTORS
330
C
102
}
100
AcDbDictionary
  3
DIMADEC
350
2A
  0
MLINESTYLE
  5
1B
102
{ACAD_REACTORS
330
1A
102
}
100
AcDbMlineStyle
  2
STANDARD
 70
     0
  3

 62
   256
 51
90.0
 52
90.0
 71
     2
 49
0.5
 62
   256
  6
BYLAYER
 49
-0.5
 62
   256
  6
BYLAYER
  0
DICTIONARYVAR
  5
2A
102
{ACAD_REACTORS
330
29
102
}
100
DictionaryVariables
280
     0
  1
0
  0
ENDSEC
  0
EOF
