  0
SECTION
  2
HEADER
  9
$ACADVER
  1
AC1014
  9
$ACADMAINTVER
 70
     8
  9
$DWGCODEPAGE
  3
ANSI_1252
  9
$INSBASE
 10
0.0
 20
0.0
 30
0.0
  9
$EXTMIN
 10
-1.347581
 20
5.086431
 30
0.0
  9
$EXTMAX
 10
84.719869
 20
66.094152
 30
96.0
  9
$LIMMIN
 10
0.0
 20
0.0
  9
$LIMMAX
 10
85.0
 20
110.0
  9
$ORTHOMODE
 70
     1
  9
$REGENMODE
 70
     1
  9
$FILLMODE
 70
     1
  9
$QTEXTMODE
 70
     0
  9
$MIRRTEXT
 70
     1
  9
$DRAGMODE
 70
     2
  9
$LTSCALE
 40
3.0
  9
$OSMODE
 70
    37
  9
$ATTMODE
 70
     1
  9
$TEXTSIZE
 40
0.2
  9
$TRACEWID
 40
0.05
  9
$TEXTSTYLE
  7
STANDARD
  9
$CLAYER
  8
0
  9
$CELTYPE
  6
BYLAYER
  9
$CECOLOR
 62
   256
  9
$CELTSCALE
 40
1.0
  9
$DELOBJ
 70
     1
  9
$DISPSILH
 70
     0
  9
$DIMSCALE
 40
1.0
  9
$DIMASZ
 40
0.0
  9
$DIMEXO
 40
0.5
  9
$DIMDLI
 40
1.0
  9
$DIMRND
 40
0.0
  9
$DIMDLE
 40
0.0
  9
$DIMEXE
 40
0.5
  9
$DIMTP
 40
0.0
  9
$DIMTM
 40
0.0
  9
$DIMTXT
 40
1.125
  9
$DIMCEN
 40
0.0625
  9
$DIMTSZ
 40
0.5
  9
$DIMTOL
 70
     0
  9
$DIMLIM
 70
     0
  9
$DIMTIH
 70
     1
  9
$DIMTOH
 70
     1
  9
$DIMSE1
 70
     0
  9
$DIMSE2
 70
     0
  9
$DIMTAD
 70
     0
  9
$DIMZIN
 70
     0
  9
$DIMBLK
  1

  9
$DIMASO
 70
     1
  9
$DIMSHO
 70
     1
  9
$DIMPOST
  1

  9
$DIMAPOST
  1

  9
$DIMALT
 70
     0
  9
$DIMALTD
 70
     2
  9
$DIMALTF
 40
25.4
  9
$DIMLFAC
 40
1.0
  9
$DIMTOFL
 70
     0
  9
$DIMTVP
 40
0.0
  9
$DIMTIX
 70
     0
  9
$DIMSOXD
 70
     0
  9
$DIMSAH
 70
     0
  9
$DIMBLK1
  1

  9
$DIMBLK2
  1

  9
$DIMSTYLE
  2
STANDARD
  9
$DIMCLRD
 70
     0
  9
$DIMCLRE
 70
     0
  9
$DIMCLRT
 70
     0
  9
$DIMTFAC
 40
0.666667
  9
$DIMGAP
 40
0.5
  9
$DIMJUST
 70
     0
  9
$DIMSD1
 70
     0
  9
$DIMSD2
 70
     0
  9
$DIMTOLJ
 70
     1
  9
$DIMTZIN
 70
     0
  9
$DIMALTZ
 70
     0
  9
$DIMALTTZ
 70
     0
  9
$DIMFIT
 70
     5
  9
$DIMUPT
 70
     0
  9
$DIMUNIT
 70
     4
  9
$DIMDEC
 70
     4
  9
$DIMTDEC
 70
     4
  9
$DIMALTU
 70
     4
  9
$DIMALTTD
 70
     2
  9
$DIMTXSTY
  7
STANDARD
  9
$DIMAUNIT
 70
     2
  9
$LUNITS
 70
     4
  9
$LUPREC
 70
     4
  9
$SKETCHINC
 40
0.1
  9
$FILLETRAD
 40
0.0
  9
$AUNITS
 70
     2
  9
$AUPREC
 70
     0
  9
$MENU
  1
acad
  9
$ELEVATION
 40
0.0
  9
$PELEVATION
 40
0.0
  9
$THICKNESS
 40
0.0
  9
$LIMCHECK
 70
     0
  9
$BLIPMODE
 70
     1
  9
$CHAMFERA
 40
0.0
  9
$CHAMFERB
 40
0.0
  9
$CHAMFERC
 40
0.0
  9
$CHAMFERD
 40
0.0
  9
$SKPOLY
 70
     0
  9
$TDCREATE
 40
2451170.820222569
  9
$TDUPDATE
 40
2452248.681400231
  9
$TDINDWG
 40
0.0290773148
  9
$TDUSRTIMER
 40
0.0290773148
  9
$USRTIMER
 70
     1
  9
$ANGBASE
 50
0.0
  9
$ANGDIR
 70
     0
  9
$PDMODE
 70
     0
  9
$PDSIZE
 40
0.0
  9
$PLINEWID
 40
0.0
  9
$COORDS
 70
     1
  9
$SPLFRAME
 70
     0
  9
$SPLINETYPE
 70
     6
  9
$SPLINESEGS
 70
     8
  9
$ATTDIA
 70
     0
  9
$ATTREQ
 70
     1
  9
$HANDLING
 70
     1
  9
$HANDSEED
  5
97C
  9
$SURFTAB1
 70
     6
  9
$SURFTAB2
 70
     6
  9
$SURFTYPE
 70
     6
  9
$SURFU
 70
     6
  9
$SURFV
 70
     6
  9
$UCSNAME
  2

  9
$UCSORG
 10
0.0
 20
0.0
 30
0.0
  9
$UCSXDIR
 10
1.0
 20
0.0
 30
0.0
  9
$UCSYDIR
 10
0.0
 20
1.0
 30
0.0
  9
$PUCSNAME
  2

  9
$PUCSORG
 10
0.0
 20
0.0
 30
0.0
  9
$PUCSXDIR
 10
1.0
 20
0.0
 30
0.0
  9
$PUCSYDIR
 10
0.0
 20
1.0
 30
0.0
  9
$USERI1
 70
     0
  9
$USERI2
 70
     0
  9
$USERI3
 70
     0
  9
$USERI4
 70
     0
  9
$USERI5
 70
     0
  9
$USERR1
 40
0.0
  9
$USERR2
 40
0.0
  9
$USERR3
 40
0.0
  9
$USERR4
 40
0.0
  9
$USERR5
 40
0.0
  9
$WORLDVIEW
 70
     1
  9
$SHADEDGE
 70
     3
  9
$SHADEDIF
 70
    70
  9
$TILEMODE
 70
     1
  9
$MAXACTVP
 70
    16
  9
$PINSBASE
 10
0.0
 20
0.0
 30
0.0
  9
$PLIMCHECK
 70
     0
  9
$PEXTMIN
 10
1.000000E+20
 20
1.000000E+20
 30
1.000000E+20
  9
$PEXTMAX
 10
-1.000000E+20
 20
-1.000000E+20
 30
-1.000000E+20
  9
$PLIMMIN
 10
0.0
 20
0.0
  9
$PLIMMAX
 10
12.0
 20
9.0
  9
$UNITMODE
 70
     0
  9
$VISRETAIN
 70
     0
  9
$PLINEGEN
 70
     0
  9
$PSLTSCALE
 70
     1
  9
$TREEDEPTH
 70
  3020
  9
$PICKSTYLE
 70
     1
  9
$CMLSTYLE
  2
STANDARD
  9
$CMLJUST
 70
     0
  9
$CMLSCALE
 40
1.0
  9
$PROXYGRAPHICS
 70
     1
  9
$MEASUREMENT
 70
     0
  0
ENDSEC
  0
SECTION
  2
CLASSES
  0
CLASS
  1
DICTIONARYVAR
  2
AcDbDictionaryVar
  3
"AutoCAD"
 90
        0
280
     0
281
     0
  0
ENDSEC
  0
SECTION
  2
TABLES
  0
TABLE
  2
VPORT
  5
8
100
AcDbSymbolTable
 70
     1
  0
VPORT
  5
975
100
AcDbSymbolTableRecord
100
AcDbViewportTableRecord
  2
*ACTIVE
 70
     0
 10
0.0
 20
0.0
 11
1.0
 21
1.0
 12
42.089329
 22
34.607504
 13
0.0
 23
0.0
 14
1.0
 24
1.0
 15
1.0
 25
1.0
 16
0.0
 26
0.0
 36
1.0
 17
0.0
 27
0.0
 37
0.0
 40
66.379424
 41
1.474388
 42
50.0
 43
0.0
 44
0.0
 50
0.0
 51
0.0
 71
     0
 72
   100
 73
     1
 74
     1
 75
     0
 76
     0
 77
     0
 78
     0
  0
ENDTAB
  0
TABLE
  2
LTYPE
  5
5
100
AcDbSymbolTable
 70
     2
  0
LTYPE
  5
11
100
AcDbSymbolTableRecord
100
AcDbLinetypeTableRecord
  2
BYBLOCK
 70
     0
  3

 72
    65
 73
     0
 40
0.0
  0
LTYPE
  5
12
100
AcDbSymbolTableRecord
100
AcDbLinetypeTableRecord
  2
BYLAYER
 70
     0
  3

 72
    65
 73
     0
 40
0.0
  0
LTYPE
  5
13
100
AcDbSymbolTableRecord
100
AcDbLinetypeTableRecord
  2
CONTINUOUS
 70
     0
  3
Solid line
 72
    65
 73
     0
 40
0.0
  0
LTYPE
  5
1D6
100
AcDbSymbolTableRecord
100
AcDbLinetypeTableRecord
  2
HIDDEN
 70
     0
  3
Hidden __ __ __ __ __ __ __ __ __ __ __ __ __ _
 72
    65
 73
     2
 40
0.375
 49
0.25
 74
     0
 49
-0.125
 74
     0
  0
ENDTAB
  0
TABLE
  2
LAYER
  5
2
100
AcDbSymbolTable
 70
     6
  0
LAYER
  5
E
100
AcDbSymbolTableRecord
100
AcDbLayerTableRecord
  2
0
 70
     0
 62
     7
  6
CONTINUOUS
  0
LAYER
  5
22
100
AcDbSymbolTableRecord
100
AcDbLayerTableRecord
  2
DRAWING
 70
     0
 62
     7
  6
CONTINUOUS
  0
LAYER
  5
23
100
AcDbSymbolTableRecord
100
AcDbLayerTableRecord
  2
HATCH
 70
     0
 62
     3
  6
CONTINUOUS
  0
LAYER
  5
24
100
AcDbSymbolTableRecord
100
AcDbLayerTableRecord
  2
DIM_TEXT
 70
     0
 62
     6
  6
CONTINUOUS
  0
LAYER
  5
1D7
100
AcDbSymbolTableRecord
100
AcDbLayerTableRecord
  2
BORDER
 70
     0
 62
    14
  6
CONTINUOUS
  0
LAYER
  5
1D8
100
AcDbSymbolTableRecord
100
AcDbLayerTableRecord
  2
RF-SW
 70
     0
 62
     9
  6
CONTINUOUS
  0
ENDTAB
  0
TABLE
  2
STYLE
  5
3
100
AcDbSymbolTable
 70
     5
  0
STYLE
  5
F
100
AcDbSymbolTableRecord
100
AcDbTextStyleTableRecord
  2
STANDARD
 70
     0
 40
0.0
 41
1.0
 50
0.0
 71
     0
 42
0.2
  3
txt
  4

  0
STYLE
  5
1C
100
AcDbSymbolTableRecord
100
AcDbTextStyleTableRecord
  2
INFO
 70
     0
 40
0.0
 41
1.0
 50
15.0
 71
     0
 42
1.08
  3
C:\ACADWIN\FONTS\ROMANS.SHX
  4

  0
STYLE
  5
1D
100
AcDbSymbolTableRecord
100
AcDbTextStyleTableRecord
  2
TITLE
 70
     0
 40
0.0
 41
1.0
 50
0.0
 71
     0
 42
2.8
  3
C:\ACADWIN\FONTS\ROMANC.SHX
  4

  0
STYLE
  5
1D9
100
AcDbSymbolTableRecord
100
AcDbTextStyleTableRecord
  2
ROMAN
 70
     0
 40
0.0
 41
1.0
 50
0.0
 71
     0
 42
2.25
  3
romans.shx
  4

  0
STYLE
  5
1DA
100
AcDbSymbolTableRecord
100
AcDbTextStyleTableRecord
  2
ROMANS
 70
     0
 40
0.0
 41
1.0
 50
0.0
 71
     0
 42
2.25
  3
romans
  4

  0
ENDTAB
  0
TABLE
  2
VIEW
  5
6
100
AcDbSymbolTable
 70
     0
  0
ENDTAB
  0
TABLE
  2
UCS
  5
7
100
AcDbSymbolTable
 70
     0
  0
ENDTAB
  0
TABLE
  2
APPID
  5
9
100
AcDbSymbolTable
 70
     2
  0
APPID
  5
10
100
AcDbSymbolTableRecord
100
AcDbRegAppTableRecord
  2
ACAD
 70
     0
  0
APPID
  5
21
100
AcDbSymbolTableRecord
100
AcDbRegAppTableRecord
  2
ZIMM
 70
     0
  0
ENDTAB
  0
TABLE
  2
DIMSTYLE
  5
A
100
AcDbSymbolTable
 70
     2
  0
DIMSTYLE
105
1CD
100
AcDbSymbolTableRecord
100
AcDbDimStyleTableRecord
  2
STANDARD
 70
     0
  3

  4

  5

  6

  7

 40
1.0
 41
0.18
 42
0.0625
 43
0.38
 44
0.18
 45
0.0
 46
0.0
 47
0.0
 48
0.0
140
0.18
141
0.09
142
0.0
143
25.4
144
1.0
145
0.0
146
1.0
147
0.09
 71
     0
 72
     0
 73
     1
 74
     1
 75
     0
 76
     0
 77
     0
 78
     0
170
     0
171
     2
172
     0
173
     0
174
     0
175
     0
176
     0
177
     0
178
     0
270
     2
271
     4
272
     4
273
     2
274
     2
340
F
275
     0
280
     0
281
     0
282
     0
283
     1
284
     0
285
     0
286
     0
287
     3
288
     0
  0
DIMSTYLE
105
1DB
100
AcDbSymbolTableRecord
100
AcDbDimStyleTableRecord
  2
ARCHITECTURAL
 70
     0
  3

  4

  5

  6

  7

 40
1.0
 41
0.125
 42
0.0
 43
0.375
 44
0.0
 45
0.0
 46
0.0
 47
0.0
 48
0.0
140
0.09375
141
0.0625
142
0.0
143
25.4
144
1.0
145
0.0
146
1.0
147
0.0
 71
     0
 72
     0
 73
     0
 74
     0
 75
     0
 76
     0
 77
     1
 78
    13
170
     0
171
     2
172
     0
173
     0
174
     0
175
     0
176
    13
177
    13
178
     7
270
     6
271
     4
272
     4
273
     2
274
     2
340
1DA
275
     1
280
     0
281
     0
282
     0
283
     1
284
    13
285
     0
286
     0
287
     3
288
     0
  0
ENDTAB
  0
TABLE
  2
BLOCK_RECORD
  5
1
100
AcDbSymbolTable
 70
     2
  0
BLOCK_RECORD
  5
17
100
AcDbSymbolTableRecord
100
AcDbBlockTableRecord
  2
*MODEL_SPACE
  0
BLOCK_RECORD
  5
14
100
AcDbSymbolTableRecord
100
AcDbBlockTableRecord
  2
*PAPER_SPACE
  0
BLOCK_RECORD
  5
1D0
100
AcDbSymbolTableRecord
100
AcDbBlockTableRecord
  2
_CLOSEDBLANK
  0
BLOCK_RECORD
  5
1DC
100
AcDbSymbolTableRecord
100
AcDbBlockTableRecord
  2
A$C389D624E
  0
ENDTAB
  0
ENDSEC
  0
SECTION
  2
BLOCKS
  0
BLOCK
  5
27
100
AcDbEntity
  8
0
100
AcDbBlockBegin
  2
*MODEL_SPACE
 70
     0
 10
0.0
 20
0.0
 30
0.0
  3
*MODEL_SPACE
  1

  0
ENDBLK
  5
28
100
AcDbEntity
  8
0
100
AcDbBlockEnd
  0
BLOCK
  5
25
100
AcDbEntity
 67
     1
  8
0
100
AcDbBlockBegin
  2
*PAPER_SPACE
 70
     0
 10
0.0
 20
0.0
 30
0.0
  3
*PAPER_SPACE
  1

  0
ENDBLK
  5
26
100
AcDbEntity
 67
     1
  8
0
100
AcDbBlockEnd
  0
BLOCK
  5
1D4
100
AcDbEntity
  8
0
100
AcDbBlockBegin
  2
_CLOSEDBLANK
 70
     0
 10
0.0
 20
0.0
 30
0.0
  3
_CLOSEDBLANK
  1

  0
LINE
  5
1D1
100
AcDbEntity
  8
0
  6
BYBLOCK
 62
     0
100
AcDbLine
 10
-1.0
 20
0.166667
 30
0.0
 11
0.0
 21
0.0
 31
0.0
  0
LINE
  5
1D2
100
AcDbEntity
  8
0
  6
BYBLOCK
 62
     0
100
AcDbLine
 10
0.0
 20
0.0
 30
0.0
 11
-1.0
 21
-0.166667
 31
0.0
  0
LINE
  5
1D3
100
AcDbEntity
  8
0
  6
BYBLOCK
 62
     0
100
AcDbLine
 10
-1.0
 20
0.166667
 30
0.0
 11
-1.0
 21
-0.166667
 31
0.0
  0
ENDBLK
  5
1D5
100
AcDbEntity
  8
0
100
AcDbBlockEnd
  0
BLOCK
  5
5A6
100
AcDbEntity
  8
0
100
AcDbBlockBegin
  2
A$C389D624E
 70
     0
 10
0.0
 20
0.0
 30
0.0
  3
A$C389D624E
  1

  0
LINE
  5
1DD
100
AcDbEntity
  8
BORDER
  6
CONTINUOUS
 62
    14
100
AcDbLine
 39
96.0
 10
57.96926
 20
33.43443
 30
0.0
 11
68.221828
 21
33.43443
 31
0.0
  0
LINE
  5
1DE
100
AcDbEntity
  8
0
  6
CONTINUOUS
100
AcDbLine
 39
96.0
 10
54.117035
 20
34.149082
 30
0.0
 11
53.330688
 21
33.363216
 31
0.0
  0
LINE
  5
1DF
100
AcDbEntity
  8
0
  6
CONTINUOUS
100
AcDbLine
 39
96.0
 10
53.330688
 20
33.363216
 30
0.0
 11
54.859697
 21
33.363216
 31
0.0
  0
LINE
  5
1E0
100
AcDbEntity
  8
0
  6
CONTINUOUS
100
AcDbLine
 39
96.0
 10
58.040517
 20
33.363216
 30
0.0
 11
56.511509
 21
33.363216
 31
0.0
  0
LINE
  5
1E1
100
AcDbEntity
  8
0
  6
CONTINUOUS
100
AcDbLine
 39
96.0
 10
57.25417
 20
34.149082
 30
0.0
 11
58.040517
 21
33.363216
 31
0.0
  0
LINE
  5
1E2
100
AcDbEntity
  8
0
  6
CONTINUOUS
100
AcDbLine
 39
96.0
 10
57.25417
 20
43.099224
 30
0.0
 11
57.25417
 21
34.149082
 31
0.0
  0
LINE
  5
1E3
100
AcDbEntity
  8
0
  6
CONTINUOUS
100
AcDbLine
 39
96.0
 10
56.511509
 20
33.363216
 30
0.0
 11
56.511509
 21
44.059727
 31
0.0
  0
LINE
  5
1E4
100
AcDbEntity
  8
0
  6
CONTINUOUS
100
AcDbLine
 39
96.0
 10
56.511509
 20
43.864818
 30
0.0
 11
57.25417
 21
43.099224
 31
0.0
  0
LINE
  5
1E5
100
AcDbEntity
  8
0
  6
CONTINUOUS
100
AcDbLine
 39
96.0
 10
56.511509
 20
44.059727
 30
0.0
 11
55.725162
 21
44.059727
 31
0.0
  0
LINE
  5
1E6
100
AcDbEntity
  8
0
  6
CONTINUOUS
100
AcDbLine
 39
96.0
 10
54.859697
 20
44.059727
 30
0.0
 11
55.646044
 21
44.059727
 31
0.0
  0
LINE
  5
1E7
100
AcDbEntity
  8
0
  6
CONTINUOUS
100
AcDbLine
 39
96.0
 10
54.117035
 20
43.099224
 30
0.0
 11
54.117035
 21
34.149082
 31
0.0
  0
LINE
  5
1E8
100
AcDbEntity
  8
0
  6
CONTINUOUS
100
AcDbLine
 39
96.0
 10
54.859697
 20
33.363216
 30
0.0
 11
54.859697
 21
44.059727
 31
0.0
  0
LINE
  5
1E9
100
AcDbEntity
  8
0
  6
CONTINUOUS
100
AcDbLine
 39
96.0
 10
54.859697
 20
43.864818
 30
0.0
 11
54.117035
 21
43.099224
 31
0.0
  0
ARC
  5
1EA
100
AcDbEntity
  8
BORDER
  6
CONTINUOUS
 62
     3
100
AcDbCircle
 39
96.0
 10
34.377328
 20
39.703458
 30
0.0
 40
3.0
100
AcDbArc
 50
180.0
 51
0.0
  0
ARC
  5
1EB
100
AcDbEntity
  8
BORDER
  6
CONTINUOUS
 62
     3
100
AcDbCircle
 39
96.0
 10
34.377328
 20
24.68439
 30
0.0
 40
3.0
100
AcDbArc
 50
0.0
 51
180.0
  0
LINE
  5
1EC
100
AcDbEntity
  8
BORDER
  6
CONTINUOUS
 62
     2
100
AcDbLine
 39
96.0
 10
29.589728
 20
44.243615
 30
0.0
 11
29.589728
 21
44.243615
 31
0.0
  0
LINE
  5
1ED
100
AcDbEntity
  8
BORDER
  6
CONTINUOUS
 62
     2
100
AcDbLine
 39
96.0
 10
30.058478
 20
44.243615
 30
0.0
 11
30.058478
 21
44.243615
 31
0.0
  0
LINE
  5
1EE
100
AcDbEntity
  8
BORDER
  6
CONTINUOUS
 62
     2
100
AcDbLine
 39
96.0
 10
30.527228
 20
44.243615
 30
0.0
 11
30.527228
 21
44.243615
 31
0.0
  0
LINE
  5
1EF
100
AcDbEntity
  8
BORDER
  6
CONTINUOUS
 62
     2
100
AcDbLine
 39
96.0
 10
30.995978
 20
44.243615
 30
0.0
 11
30.995978
 21
44.243615
 31
0.0
  0
LINE
  5
1F0
100
AcDbEntity
  8
BORDER
  6
CONTINUOUS
 62
     2
100
AcDbLine
 39
96.0
 10
29.824098
 20
43.774815
 30
0.0
 11
29.824098
 21
43.774815
 31
0.0
  0
LINE
  5
1F1
100
AcDbEntity
  8
BORDER
  6
CONTINUOUS
 62
     2
100
AcDbLine
 39
96.0
 10
30.292848
 20
43.774815
 30
0.0
 11
30.292848
 21
43.774815
 31
0.0
  0
LINE
  5
1F2
100
AcDbEntity
  8
BORDER
  6
CONTINUOUS
 62
     2
100
AcDbLine
 39
96.0
 10
30.761598
 20
43.774815
 30
0.0
 11
30.761598
 21
43.774815
 31
0.0
  0
LINE
  5
1F3
100
AcDbEntity
  8
BORDER
  6
CONTINUOUS
 62
     2
100
AcDbLine
 39
96.0
 10
31.230348
 20
43.774815
 30
0.0
 11
31.230348
 21
43.774815
 31
0.0
  0
LINE
  5
1F4
100
AcDbEntity
  8
BORDER
  6
CONTINUOUS
 62
     2
100
AcDbLine
 39
96.0
 10
29.589728
 20
43.306115
 30
0.0
 11
29.589728
 21
43.306115
 31
0.0
  0
LINE
  5
1F5
100
AcDbEntity
  8
BORDER
  6
CONTINUOUS
 62
     2
100
AcDbLine
 39
96.0
 10
30.058478
 20
43.306115
 30
0.0
 11
30.058478
 21
43.306115
 31
0.0
  0
LINE
  5
1F6
100
AcDbEntity
  8
BORDER
  6
CONTINUOUS
 62
     2
100
AcDbLine
 39
96.0
 10
30.527228
 20
43.306115
 30
0.0
 11
30.527228
 21
43.306115
 31
0.0
  0
LINE
  5
1F7
100
AcDbEntity
  8
BORDER
  6
CONTINUOUS
 62
     2
100
AcDbLine
 39
96.0
 10
30.995978
 20
43.306115
 30
0.0
 11
30.995978
 21
43.306115
 31
0.0
  0
LINE
  5
1F8
100
AcDbEntity
  8
BORDER
  6
CONTINUOUS
 62
     2
100
AcDbLine
 39
96.0
 10
29.824098
 20
42.837315
 30
0.0
 11
29.824098
 21
42.837315
 31
0.0
  0
LINE
  5
1F9
100
AcDbEntity
  8
BORDER
  6
CONTINUOUS
 62
     2
100
AcDbLine
 39
96.0
 10
30.292848
 20
42.837315
 30
0.0
 11
30.292848
 21
42.837315
 31
0.0
  0
LINE
  5
1FA
100
AcDbEntity
  8
BORDER
  6
CONTINUOUS
 62
     2
100
AcDbLine
 39
96.0
 10
30.761598
 20
42.837315
 30
0.0
 11
30.761598
 21
42.837315
 31
0.0
  0
LINE
  5
1FB
100
AcDbEntity
  8
BORDER
  6
CONTINUOUS
 62
     2
100
AcDbLine
 39
96.0
 10
31.230348
 20
42.837315
 30
0.0
 11
31.230348
 21
42.837315
 31
0.0
  0
LINE
  5
1FC
100
AcDbEntity
  8
BORDER
  6
CONTINUOUS
 62
     2
100
AcDbLine
 39
96.0
 10
29.589728
 20
42.368615
 30
0.0
 11
29.589728
 21
42.368615
 31
0.0
  0
LINE
  5
1FD
100
AcDbEntity
  8
BORDER
  6
CONTINUOUS
 62
     2
100
AcDbLine
 39
96.0
 10
30.058478
 20
42.368615
 30
0.0
 11
30.058478
 21
42.368615
 31
0.0
  0
LINE
  5
1FE
100
AcDbEntity
  8
BORDER
  6
CONTINUOUS
 62
     2
100
AcDbLine
 39
96.0
 10
30.527228
 20
42.368615
 30
0.0
 11
30.527228
 21
42.368615
 31
0.0
  0
LINE
  5
1FF
100
AcDbEntity
  8
BORDER
  6
CONTINUOUS
 62
     2
100
AcDbLine
 39
96.0
 10
30.995978
 20
42.368615
 30
0.0
 11
30.995978
 21
42.368615
 31
0.0
  0
LINE
  5
200
100
AcDbEntity
  8
BORDER
  6
CONTINUOUS
 62
     2
100
AcDbLine
 39
96.0
 10
29.824098
 20
41.899815
 30
0.0
 11
29.824098
 21
41.899815
 31
0.0
  0
LINE
  5
201
100
AcDbEntity
  8
BORDER
  6
CONTINUOUS
 62
     2
100
AcDbLine
 39
96.0
 10
30.292848
 20
41.899815
 30
0.0
 11
30.292848
 21
41.899815
 31
0.0
  0
LINE
  5
202
100
AcDbEntity
  8
BORDER
  6
CONTINUOUS
 62
     2
100
AcDbLine
 39
96.0
 10
30.761598
 20
41.899815
 30
0.0
 11
30.761598
 21
41.899815
 31
0.0
  0
LINE
  5
203
100
AcDbEntity
  8
BORDER
  6
CONTINUOUS
 62
     2
100
AcDbLine
 39
96.0
 10
31.230348
 20
41.899815
 30
0.0
 11
31.230348
 21
41.899815
 31
0.0
  0
LINE
  5
204
100
AcDbEntity
  8
BORDER
  6
CONTINUOUS
 62
     2
100
AcDbLine
 39
96.0
 10
29.589728
 20
41.431115
 30
0.0
 11
29.589728
 21
41.431115
 31
0.0
  0
LINE
  5
205
100
AcDbEntity
  8
BORDER
  6
CONTINUOUS
 62
     2
100
AcDbLine
 39
96.0
 10
30.058478
 20
41.431115
 30
0.0
 11
30.058478
 21
41.431115
 31
0.0
  0
LINE
  5
206
100
AcDbEntity
  8
BORDER
  6
CONTINUOUS
 62
     2
100
AcDbLine
 39
96.0
 10
30.527228
 20
41.431115
 30
0.0
 11
30.527228
 21
41.431115
 31
0.0
  0
LINE
  5
207
100
AcDbEntity
  8
BORDER
  6
CONTINUOUS
 62
     2
100
AcDbLine
 39
96.0
 10
30.995978
 20
41.431115
 30
0.0
 11
30.995978
 21
41.431115
 31
0.0
  0
LINE
  5
208
100
AcDbEntity
  8
BORDER
  6
CONTINUOUS
 62
     2
100
AcDbLine
 39
96.0
 10
29.824098
 20
40.962315
 30
0.0
 11
29.824098
 21
40.962315
 31
0.0
  0
LINE
  5
209
100
AcDbEntity
  8
BORDER
  6
CONTINUOUS
 62
     2
100
AcDbLine
 39
96.0
 10
30.292848
 20
40.962315
 30
0.0
 11
30.292848
 21
40.962315
 31
0.0
  0
LINE
  5
20A
100
AcDbEntity
  8
BORDER
  6
CONTINUOUS
 62
     2
100
AcDbLine
 39
96.0
 10
30.761598
 20
40.962315
 30
0.0
 11
30.761598
 21
40.962315
 31
0.0
  0
LINE
  5
20B
100
AcDbEntity
  8
BORDER
  6
CONTINUOUS
 62
     2
100
AcDbLine
 39
96.0
 10
31.230348
 20
40.962315
 30
0.0
 11
31.230348
 21
40.962315
 31
0.0
  0
LINE
  5
20C
100
AcDbEntity
  8
BORDER
  6
CONTINUOUS
 62
     2
100
AcDbLine
 39
96.0
 10
29.589728
 20
40.493615
 30
0.0
 11
29.589728
 21
40.493615
 31
0.0
  0
LINE
  5
20D
100
AcDbEntity
  8
BORDER
  6
CONTINUOUS
 62
     2
100
AcDbLine
 39
96.0
 10
30.058478
 20
40.493615
 30
0.0
 11
30.058478
 21
40.493615
 31
0.0
  0
LINE
  5
20E
100
AcDbEntity
  8
BORDER
  6
CONTINUOUS
 62
     2
100
AcDbLine
 39
96.0
 10
30.527228
 20
40.493615
 30
0.0
 11
30.527228
 21
40.493615
 31
0.0
  0
LINE
  5
20F
100
AcDbEntity
  8
BORDER
  6
CONTINUOUS
 62
     2
100
AcDbLine
 39
96.0
 10
30.995978
 20
40.493615
 30
0.0
 11
30.995978
 21
40.493615
 31
0.0
  0
LINE
  5
210
100
AcDbEntity
  8
BORDER
  6
CONTINUOUS
 62
     2
100
AcDbLine
 39
96.0
 10
29.824098
 20
40.024815
 30
0.0
 11
29.824098
 21
40.024815
 31
0.0
  0
LINE
  5
211
100
AcDbEntity
  8
BORDER
  6
CONTINUOUS
 62
     2
100
AcDbLine
 39
96.0
 10
30.292848
 20
40.024815
 30
0.0
 11
30.292848
 21
40.024815
 31
0.0
  0
LINE
  5
212
100
AcDbEntity
  8
BORDER
  6
CONTINUOUS
 62
     2
100
AcDbLine
 39
96.0
 10
30.761598
 20
40.024815
 30
0.0
 11
30.761598
 21
40.024815
 31
0.0
  0
LINE
  5
213
100
AcDbEntity
  8
BORDER
  6
CONTINUOUS
 62
     2
100
AcDbLine
 39
96.0
 10
31.230348
 20
40.024815
 30
0.0
 11
31.230348
 21
40.024815
 31
0.0
  0
LINE
  5
214
100
AcDbEntity
  8
BORDER
  6
CONTINUOUS
 62
     2
100
AcDbLine
 39
96.0
 10
29.589728
 20
39.556115
 30
0.0
 11
29.589728
 21
39.556115
 31
0.0
  0
LINE
  5
215
100
AcDbEntity
  8
BORDER
  6
CONTINUOUS
 62
     2
100
AcDbLine
 39
96.0
 10
30.058478
 20
39.556115
 30
0.0
 11
30.058478
 21
39.556115
 31
0.0
  0
LINE
  5
216
100
AcDbEntity
  8
BORDER
  6
CONTINUOUS
 62
     2
100
AcDbLine
 39
96.0
 10
30.527228
 20
39.556115
 30
0.0
 11
30.527228
 21
39.556115
 31
0.0
  0
LINE
  5
217
100
AcDbEntity
  8
BORDER
  6
CONTINUOUS
 62
     2
100
AcDbLine
 39
96.0
 10
30.995978
 20
39.556115
 30
0.0
 11
30.995978
 21
39.556115
 31
0.0
  0
LINE
  5
218
100
AcDbEntity
  8
BORDER
  6
CONTINUOUS
 62
     3
100
AcDbLine
 39
96.0
 10
29.377328
 20
44.668642
 30
0.0
 11
31.356469
 21
44.675627
 31
0.0
  0
LINE
  5
219
100
AcDbEntity
  8
BORDER
  6
CONTINUOUS
 62
     3
100
AcDbLine
 39
96.0
 10
29.377328
 20
39.68443
 30
0.0
 11
29.377328
 21
44.668642
 31
0.0
  0
LINE
  5
21A
100
AcDbEntity
  8
BORDER
  6
CONTINUOUS
 62
    11
100
AcDbLine
 39
96.0
 10
31.489997
 20
43.925627
 30
0.0
 11
32.239997
 21
44.675627
 31
0.0
  0
LINE
  5
21B
100
AcDbEntity
  8
0
  6
CONTINUOUS
 62
    13
100
AcDbLine
 39
96.0
 10
33.006368
 20
33.889686
 30
0.0
 11
36.426267
 21
33.889686
 31
0.0
  0
CIRCLE
  5
21C
100
AcDbEntity
  8
BORDER
  6
CONTINUOUS
 62
    15
100
AcDbCircle
 39
96.0
 10
35.635529
 20
33.87523
 30
0.0
 40
0.375
  0
LINE
  5
21D
100
AcDbEntity
  8
BORDER
  6
CONTINUOUS
 62
    14
100
AcDbLine
 39
96.0
 10
40.421113
 20
34.160377
 30
0.0
 11
39.377328
 21
33.43443
 31
0.0
  0
LINE
  5
21E
100
AcDbEntity
  8
BORDER
  6
CONTINUOUS
 62
     3
100
AcDbLine
 39
96.0
 10
37.502328
 20
34.43798
 30
0.0
 11
37.502328
 21
39.68443
 31
0.0
  0
LINE
  5
21F
100
AcDbEntity
  8
BORDER
  6
CONTINUOUS
 62
     3
100
AcDbLine
 39
96.0
 10
37.502328
 20
31.426042
 30
0.0
 11
39.377328
 21
31.426042
 31
0.0
  0
LINE
  5
220
100
AcDbEntity
  8
BORDER
  6
CONTINUOUS
 62
     3
100
AcDbLine
 39
96.0
 10
37.502328
 20
34.43798
 30
0.0
 11
39.377328
 21
34.43798
 31
0.0
  0
LINE
  5
221
100
AcDbEntity
  8
BORDER
  6
CONTINUOUS
 62
    14
100
AcDbLine
 39
96.0
 10
40.729459
 20
33.43443
 30
0.0
 11
53.401946
 21
33.43443
 31
0.0
  0
LINE
  5
222
100
AcDbEntity
  8
BORDER
  6
CONTINUOUS
 62
    11
100
AcDbLine
 39
96.0
 10
32.765899
 20
42.387827
 30
0.0
 11
36.265899
 21
43.887827
 31
0.0
  0
LINE
  5
223
100
AcDbEntity
  8
BORDER
  6
CONTINUOUS
 62
    11
100
AcDbLine
 39
96.0
 10
32.765899
 20
42.387827
 30
0.0
 11
36.265899
 21
42.387827
 31
0.0
  0
LINE
  5
224
100
AcDbEntity
  8
BORDER
  6
CONTINUOUS
 62
    11
100
AcDbLine
 39
96.0
 10
32.765899
 20
43.887827
 30
0.0
 11
32.765899
 21
42.387827
 31
0.0
  0
LINE
  5
225
100
AcDbEntity
  8
BORDER
  6
CONTINUOUS
 62
    11
100
AcDbLine
 39
96.0
 10
36.265899
 20
43.887827
 30
0.0
 11
32.765899
 21
43.887827
 31
0.0
  0
LINE
  5
226
100
AcDbEntity
  8
BORDER
  6
CONTINUOUS
 62
    11
100
AcDbLine
 39
96.0
 10
36.265899
 20
42.387827
 30
0.0
 11
36.265899
 21
43.887827
 31
0.0
  0
CIRCLE
  5
227
100
AcDbEntity
  8
BORDER
  6
CONTINUOUS
 62
    15
100
AcDbCircle
 39
96.0
 10
33.506138
 20
33.87523
 30
0.0
 40
0.375
  0
CIRCLE
  5
228
100
AcDbEntity
  8
BORDER
  6
CONTINUOUS
 62
    15
100
AcDbCircle
 39
96.0
 10
33.978638
 20
22.61993
 30
0.0
 40
0.375
  0
CIRCLE
  5
229
100
AcDbEntity
  8
BORDER
  6
CONTINUOUS
 62
    15
100
AcDbCircle
 39
96.0
 10
33.978638
 20
7.61993
 30
0.0
 40
0.375
  0
LINE
  5
22A
100
AcDbEntity
  8
BORDER
  6
CONTINUOUS
 62
    15
100
AcDbLine
 39
96.0
 10
34.589728
 20
38.99393
 30
0.0
 11
34.589728
 21
1.40655
 31
0.0
  0
LINE
  5
22B
100
AcDbEntity
  8
BORDER
  6
CONTINUOUS
 62
     3
100
AcDbLine
 39
96.0
 10
34.662327
 20
32.392127
 30
0.0
 11
36.113257
 21
32.392127
 31
0.0
  0
LINE
  5
22C
100
AcDbEntity
  8
BORDER
  6
CONTINUOUS
 62
     3
100
AcDbLine
 39
96.0
 10
32.766728
 20
33.13283
 30
0.0
 11
32.766728
 21
34.47763
 31
0.0
  0
LINE
  5
22D
100
AcDbEntity
  8
BORDER
  6
CONTINUOUS
 62
    15
100
AcDbLine
 39
96.0
 10
35.430788
 20
0.0
 30
0.0
 11
36.080688
 21
1.65375
 31
0.0
  0
LINE
  5
22E
100
AcDbEntity
  8
BORDER
  6
CONTINUOUS
 62
    15
100
AcDbLine
 39
96.0
 10
33.481818
 20
3.30749
 30
0.0
 11
35.430788
 21
0.0
 31
0.0
  0
LINE
  5
22F
100
AcDbEntity
  8
BORDER
  6
CONTINUOUS
 62
    15
100
AcDbLine
 39
96.0
 10
32.654908
 20
1.65375
 30
0.0
 11
33.481818
 21
3.30749
 31
0.0
  0
LINE
  5
230
100
AcDbEntity
  8
BORDER
  6
CONTINUOUS
 62
    15
100
AcDbLine
 39
96.0
 10
32.654908
 20
1.65375
 30
0.0
 11
28.225228
 21
1.65375
 31
0.0
  0
LINE
  5
231
100
AcDbEntity
  8
BORDER
  6
CONTINUOUS
 62
    15
100
AcDbLine
 39
96.0
 10
40.510378
 20
1.65375
 30
0.0
 11
36.080688
 21
1.65375
 31
0.0
  0
LINE
  5
232
100
AcDbEntity
  8
BORDER
  6
CONTINUOUS
 62
    10
100
AcDbLine
 39
96.0
 10
33.482548
 20
7.42377
 30
0.0
 11
33.468878
 21
7.3468
 31
0.0
  0
LINE
  5
233
100
AcDbEntity
  8
BORDER
  6
CONTINUOUS
 62
    10
100
AcDbLine
 39
96.0
 10
34.627808
 20
8.39654
 30
0.0
 11
34.582888
 21
8.33252
 31
0.0
  0
LINE
  5
234
100
AcDbEntity
  8
BORDER
  6
CONTINUOUS
 62
    10
100
AcDbLine
 39
96.0
 10
34.896608
 20
7.56378
 30
0.0
 11
34.823128
 21
7.53705
 31
0.0
  0
LINE
  5
235
100
AcDbEntity
  8
BORDER
  6
CONTINUOUS
 62
     3
100
AcDbLine
 39
96.0
 10
37.502328
 20
9.68439
 30
0.0
 11
39.377328
 21
9.68439
 31
0.0
  0
LINE
  5
236
100
AcDbEntity
  8
BORDER
  6
CONTINUOUS
 62
     3
100
AcDbLine
 39
96.0
 10
29.377328
 20
9.68439
 30
0.0
 11
31.252328
 21
9.68439
 31
0.0
  0
LINE
  5
237
100
AcDbEntity
  8
BORDER
  6
CONTINUOUS
 62
     2
100
AcDbLine
 39
96.0
 10
38.964728
 20
2.04864
 30
0.0
 11
38.964728
 21
2.04864
 31
0.0
  0
LINE
  5
238
100
AcDbEntity
  8
BORDER
  6
CONTINUOUS
 62
     2
100
AcDbLine
 39
96.0
 10
38.495978
 20
2.04864
 30
0.0
 11
38.495978
 21
2.04864
 31
0.0
  0
LINE
  5
239
100
AcDbEntity
  8
BORDER
  6
CONTINUOUS
 62
     2
100
AcDbLine
 39
96.0
 10
38.027228
 20
2.04864
 30
0.0
 11
38.027228
 21
2.04864
 31
0.0
  0
LINE
  5
23A
100
AcDbEntity
  8
BORDER
  6
CONTINUOUS
 62
     2
100
AcDbLine
 39
96.0
 10
37.558478
 20
2.04864
 30
0.0
 11
37.558478
 21
2.04864
 31
0.0
  0
LINE
  5
23B
100
AcDbEntity
  8
BORDER
  6
CONTINUOUS
 62
     2
100
AcDbLine
 39
96.0
 10
39.199098
 20
2.51739
 30
0.0
 11
39.199098
 21
2.51739
 31
0.0
  0
LINE
  5
23C
100
AcDbEntity
  8
BORDER
  6
CONTINUOUS
 62
     2
100
AcDbLine
 39
96.0
 10
38.730348
 20
2.51739
 30
0.0
 11
38.730348
 21
2.51739
 31
0.0
  0
LINE
  5
23D
100
AcDbEntity
  8
BORDER
  6
CONTINUOUS
 62
     2
100
AcDbLine
 39
96.0
 10
38.261598
 20
2.51739
 30
0.0
 11
38.261598
 21
2.51739
 31
0.0
  0
LINE
  5
23E
100
AcDbEntity
  8
BORDER
  6
CONTINUOUS
 62
     2
100
AcDbLine
 39
96.0
 10
37.792848
 20
2.51739
 30
0.0
 11
37.792848
 21
2.51739
 31
0.0
  0
LINE
  5
23F
100
AcDbEntity
  8
BORDER
  6
CONTINUOUS
 62
     2
100
AcDbLine
 39
96.0
 10
38.964728
 20
2.98614
 30
0.0
 11
38.964728
 21
2.98614
 31
0.0
  0
LINE
  5
240
100
AcDbEntity
  8
BORDER
  6
CONTINUOUS
 62
     2
100
AcDbLine
 39
96.0
 10
38.495978
 20
2.98614
 30
0.0
 11
38.495978
 21
2.98614
 31
0.0
  0
LINE
  5
241
100
AcDbEntity
  8
BORDER
  6
CONTINUOUS
 62
     2
100
AcDbLine
 39
96.0
 10
38.027228
 20
2.98614
 30
0.0
 11
38.027228
 21
2.98614
 31
0.0
  0
LINE
  5
242
100
AcDbEntity
  8
BORDER
  6
CONTINUOUS
 62
     2
100
AcDbLine
 39
96.0
 10
37.558478
 20
2.98614
 30
0.0
 11
37.558478
 21
2.98614
 31
0.0
  0
LINE
  5
243
100
AcDbEntity
  8
BORDER
  6
CONTINUOUS
 62
     2
100
AcDbLine
 39
96.0
 10
39.199098
 20
3.45489
 30
0.0
 11
39.199098
 21
3.45489
 31
0.0
  0
LINE
  5
244
100
AcDbEntity
  8
BORDER
  6
CONTINUOUS
 62
     2
100
AcDbLine
 39
96.0
 10
38.730348
 20
3.45489
 30
0.0
 11
38.730348
 21
3.45489
 31
0.0
  0
LINE
  5
245
100
AcDbEntity
  8
BORDER
  6
CONTINUOUS
 62
     2
100
AcDbLine
 39
96.0
 10
38.261598
 20
3.45489
 30
0.0
 11
38.261598
 21
3.45489
 31
0.0
  0
LINE
  5
246
100
AcDbEntity
  8
BORDER
  6
CONTINUOUS
 62
     2
100
AcDbLine
 39
96.0
 10
37.792848
 20
3.45489
 30
0.0
 11
37.792848
 21
3.45489
 31
0.0
  0
LINE
  5
247
100
AcDbEntity
  8
BORDER
  6
CONTINUOUS
 62
     2
100
AcDbLine
 39
96.0
 10
38.964728
 20
3.92364
 30
0.0
 11
38.964728
 21
3.92364
 31
0.0
  0
LINE
  5
248
100
AcDbEntity
  8
BORDER
  6
CONTINUOUS
 62
     2
100
AcDbLine
 39
96.0
 10
38.495978
 20
3.92364
 30
0.0
 11
38.495978
 21
3.92364
 31
0.0
  0
LINE
  5
249
100
AcDbEntity
  8
BORDER
  6
CONTINUOUS
 62
     2
100
AcDbLine
 39
96.0
 10
38.027228
 20
3.92364
 30
0.0
 11
38.027228
 21
3.92364
 31
0.0
  0
LINE
  5
24A
100
AcDbEntity
  8
BORDER
  6
CONTINUOUS
 62
     2
100
AcDbLine
 39
96.0
 10
37.558478
 20
3.92364
 30
0.0
 11
37.558478
 21
3.92364
 31
0.0
  0
LINE
  5
24B
100
AcDbEntity
  8
BORDER
  6
CONTINUOUS
 62
     2
100
AcDbLine
 39
96.0
 10
39.199098
 20
4.39239
 30
0.0
 11
39.199098
 21
4.39239
 31
0.0
  0
LINE
  5
24C
100
AcDbEntity
  8
BORDER
  6
CONTINUOUS
 62
     2
100
AcDbLine
 39
96.0
 10
38.730348
 20
4.39239
 30
0.0
 11
38.730348
 21
4.39239
 31
0.0
  0
LINE
  5
24D
100
AcDbEntity
  8
BORDER
  6
CONTINUOUS
 62
     2
100
AcDbLine
 39
96.0
 10
38.261598
 20
4.39239
 30
0.0
 11
38.261598
 21
4.39239
 31
0.0
  0
LINE
  5
24E
100
AcDbEntity
  8
BORDER
  6
CONTINUOUS
 62
     2
100
AcDbLine
 39
96.0
 10
37.792848
 20
4.39239
 30
0.0
 11
37.792848
 21
4.39239
 31
0.0
  0
LINE
  5
24F
100
AcDbEntity
  8
BORDER
  6
CONTINUOUS
 62
     2
100
AcDbLine
 39
96.0
 10
38.964728
 20
4.86114
 30
0.0
 11
38.964728
 21
4.86114
 31
0.0
  0
LINE
  5
250
100
AcDbEntity
  8
BORDER
  6
CONTINUOUS
 62
     2
100
AcDbLine
 39
96.0
 10
38.495978
 20
4.86114
 30
0.0
 11
38.495978
 21
4.86114
 31
0.0
  0
LINE
  5
251
100
AcDbEntity
  8
BORDER
  6
CONTINUOUS
 62
     2
100
AcDbLine
 39
96.0
 10
38.027228
 20
4.86114
 30
0.0
 11
38.027228
 21
4.86114
 31
0.0
  0
LINE
  5
252
100
AcDbEntity
  8
BORDER
  6
CONTINUOUS
 62
     2
100
AcDbLine
 39
96.0
 10
37.558478
 20
4.86114
 30
0.0
 11
37.558478
 21
4.86114
 31
0.0
  0
LINE
  5
253
100
AcDbEntity
  8
BORDER
  6
CONTINUOUS
 62
     2
100
AcDbLine
 39
96.0
 10
39.199098
 20
5.32989
 30
0.0
 11
39.199098
 21
5.32989
 31
0.0
  0
LINE
  5
254
100
AcDbEntity
  8
BORDER
  6
CONTINUOUS
 62
     2
100
AcDbLine
 39
96.0
 10
38.730348
 20
5.32989
 30
0.0
 11
38.730348
 21
5.32989
 31
0.0
  0
LINE
  5
255
100
AcDbEntity
  8
BORDER
  6
CONTINUOUS
 62
     2
100
AcDbLine
 39
96.0
 10
38.261598
 20
5.32989
 30
0.0
 11
38.261598
 21
5.32989
 31
0.0
  0
LINE
  5
256
100
AcDbEntity
  8
BORDER
  6
CONTINUOUS
 62
     2
100
AcDbLine
 39
96.0
 10
37.792848
 20
5.32989
 30
0.0
 11
37.792848
 21
5.32989
 31
0.0
  0
LINE
  5
257
100
AcDbEntity
  8
BORDER
  6
CONTINUOUS
 62
     2
100
AcDbLine
 39
96.0
 10
38.964728
 20
5.79864
 30
0.0
 11
38.964728
 21
5.79864
 31
0.0
  0
LINE
  5
258
100
AcDbEntity
  8
BORDER
  6
CONTINUOUS
 62
     2
100
AcDbLine
 39
96.0
 10
38.495978
 20
5.79864
 30
0.0
 11
38.495978
 21
5.79864
 31
0.0
  0
LINE
  5
259
100
AcDbEntity
  8
BORDER
  6
CONTINUOUS
 62
     2
100
AcDbLine
 39
96.0
 10
38.027228
 20
5.79864
 30
0.0
 11
38.027228
 21
5.79864
 31
0.0
  0
LINE
  5
25A
100
AcDbEntity
  8
BORDER
  6
CONTINUOUS
 62
     2
100
AcDbLine
 39
96.0
 10
37.558478
 20
5.79864
 30
0.0
 11
37.558478
 21
5.79864
 31
0.0
  0
LINE
  5
25B
100
AcDbEntity
  8
BORDER
  6
CONTINUOUS
 62
     2
100
AcDbLine
 39
96.0
 10
39.199098
 20
6.26739
 30
0.0
 11
39.199098
 21
6.26739
 31
0.0
  0
LINE
  5
25C
100
AcDbEntity
  8
BORDER
  6
CONTINUOUS
 62
     2
100
AcDbLine
 39
96.0
 10
38.730348
 20
6.26739
 30
0.0
 11
38.730348
 21
6.26739
 31
0.0
  0
LINE
  5
25D
100
AcDbEntity
  8
BORDER
  6
CONTINUOUS
 62
     2
100
AcDbLine
 39
96.0
 10
38.261598
 20
6.26739
 30
0.0
 11
38.261598
 21
6.26739
 31
0.0
  0
LINE
  5
25E
100
AcDbEntity
  8
BORDER
  6
CONTINUOUS
 62
     2
100
AcDbLine
 39
96.0
 10
37.792848
 20
6.26739
 30
0.0
 11
37.792848
 21
6.26739
 31
0.0
  0
LINE
  5
25F
100
AcDbEntity
  8
BORDER
  6
CONTINUOUS
 62
     2
100
AcDbLine
 39
96.0
 10
38.964728
 20
6.73614
 30
0.0
 11
38.964728
 21
6.73614
 31
0.0
  0
LINE
  5
260
100
AcDbEntity
  8
BORDER
  6
CONTINUOUS
 62
     2
100
AcDbLine
 39
96.0
 10
38.495978
 20
6.73614
 30
0.0
 11
38.495978
 21
6.73614
 31
0.0
  0
LINE
  5
261
100
AcDbEntity
  8
BORDER
  6
CONTINUOUS
 62
     2
100
AcDbLine
 39
96.0
 10
38.027228
 20
6.73614
 30
0.0
 11
38.027228
 21
6.73614
 31
0.0
  0
LINE
  5
262
100
AcDbEntity
  8
BORDER
  6
CONTINUOUS
 62
     2
100
AcDbLine
 39
96.0
 10
37.558478
 20
6.73614
 30
0.0
 11
37.558478
 21
6.73614
 31
0.0
  0
LINE
  5
263
100
AcDbEntity
  8
BORDER
  6
CONTINUOUS
 62
     2
100
AcDbLine
 39
96.0
 10
39.199098
 20
7.20489
 30
0.0
 11
39.199098
 21
7.20489
 31
0.0
  0
LINE
  5
264
100
AcDbEntity
  8
BORDER
  6
CONTINUOUS
 62
     2
100
AcDbLine
 39
96.0
 10
38.730348
 20
7.20489
 30
0.0
 11
38.730348
 21
7.20489
 31
0.0
  0
LINE
  5
265
100
AcDbEntity
  8
BORDER
  6
CONTINUOUS
 62
     2
100
AcDbLine
 39
96.0
 10
38.261598
 20
7.20489
 30
0.0
 11
38.261598
 21
7.20489
 31
0.0
  0
LINE
  5
266
100
AcDbEntity
  8
BORDER
  6
CONTINUOUS
 62
     2
100
AcDbLine
 39
96.0
 10
37.792848
 20
7.20489
 30
0.0
 11
37.792848
 21
7.20489
 31
0.0
  0
LINE
  5
267
100
AcDbEntity
  8
BORDER
  6
CONTINUOUS
 62
     2
100
AcDbLine
 39
96.0
 10
38.964728
 20
7.67364
 30
0.0
 11
38.964728
 21
7.67364
 31
0.0
  0
LINE
  5
268
100
AcDbEntity
  8
BORDER
  6
CONTINUOUS
 62
     2
100
AcDbLine
 39
96.0
 10
38.495978
 20
7.67364
 30
0.0
 11
38.495978
 21
7.67364
 31
0.0
  0
LINE
  5
269
100
AcDbEntity
  8
BORDER
  6
CONTINUOUS
 62
     2
100
AcDbLine
 39
96.0
 10
38.027228
 20
7.67364
 30
0.0
 11
38.027228
 21
7.67364
 31
0.0
  0
LINE
  5
26A
100
AcDbEntity
  8
BORDER
  6
CONTINUOUS
 62
     2
100
AcDbLine
 39
96.0
 10
37.558478
 20
7.67364
 30
0.0
 11
37.558478
 21
7.67364
 31
0.0
  0
LINE
  5
26B
100
AcDbEntity
  8
BORDER
  6
CONTINUOUS
 62
     2
100
AcDbLine
 39
96.0
 10
39.199098
 20
8.14239
 30
0.0
 11
39.199098
 21
8.14239
 31
0.0
  0
LINE
  5
26C
100
AcDbEntity
  8
BORDER
  6
CONTINUOUS
 62
     2
100
AcDbLine
 39
96.0
 10
38.730348
 20
8.14239
 30
0.0
 11
38.730348
 21
8.14239
 31
0.0
  0
LINE
  5
26D
100
AcDbEntity
  8
BORDER
  6
CONTINUOUS
 62
     2
100
AcDbLine
 39
96.0
 10
38.261598
 20
8.14239
 30
0.0
 11
38.261598
 21
8.14239
 31
0.0
  0
LINE
  5
26E
100
AcDbEntity
  8
BORDER
  6
CONTINUOUS
 62
     2
100
AcDbLine
 39
96.0
 10
37.792848
 20
8.14239
 30
0.0
 11
37.792848
 21
8.14239
 31
0.0
  0
LINE
  5
26F
100
AcDbEntity
  8
BORDER
  6
CONTINUOUS
 62
     2
100
AcDbLine
 39
96.0
 10
38.964728
 20
8.61114
 30
0.0
 11
38.964728
 21
8.61114
 31
0.0
  0
LINE
  5
270
100
AcDbEntity
  8
BORDER
  6
CONTINUOUS
 62
     2
100
AcDbLine
 39
96.0
 10
38.495978
 20
8.61114
 30
0.0
 11
38.495978
 21
8.61114
 31
0.0
  0
LINE
  5
271
100
AcDbEntity
  8
BORDER
  6
CONTINUOUS
 62
     2
100
AcDbLine
 39
96.0
 10
38.027228
 20
8.61114
 30
0.0
 11
38.027228
 21
8.61114
 31
0.0
  0
LINE
  5
272
100
AcDbEntity
  8
BORDER
  6
CONTINUOUS
 62
     2
100
AcDbLine
 39
96.0
 10
37.558478
 20
8.61114
 30
0.0
 11
37.558478
 21
8.61114
 31
0.0
  0
LINE
  5
273
100
AcDbEntity
  8
BORDER
  6
CONTINUOUS
 62
     2
100
AcDbLine
 39
96.0
 10
39.199098
 20
9.07989
 30
0.0
 11
39.199098
 21
9.07989
 31
0.0
  0
LINE
  5
274
100
AcDbEntity
  8
BORDER
  6
CONTINUOUS
 62
     2
100
AcDbLine
 39
96.0
 10
38.730348
 20
9.07989
 30
0.0
 11
38.730348
 21
9.07989
 31
0.0
  0
LINE
  5
275
100
AcDbEntity
  8
BORDER
  6
CONTINUOUS
 62
     2
100
AcDbLine
 39
96.0
 10
38.261598
 20
9.07989
 30
0.0
 11
38.261598
 21
9.07989
 31
0.0
  0
LINE
  5
276
100
AcDbEntity
  8
BORDER
  6
CONTINUOUS
 62
     2
100
AcDbLine
 39
96.0
 10
37.792848
 20
9.07989
 30
0.0
 11
37.792848
 21
9.07989
 31
0.0
  0
LINE
  5
277
100
AcDbEntity
  8
BORDER
  6
CONTINUOUS
 62
     2
100
AcDbLine
 39
96.0
 10
38.964728
 20
9.54864
 30
0.0
 11
38.964728
 21
9.54864
 31
0.0
  0
LINE
  5
278
100
AcDbEntity
  8
BORDER
  6
CONTINUOUS
 62
     2
100
AcDbLine
 39
96.0
 10
38.495978
 20
9.54864
 30
0.0
 11
38.495978
 21
9.54864
 31
0.0
  0
LINE
  5
279
100
AcDbEntity
  8
BORDER
  6
CONTINUOUS
 62
     2
100
AcDbLine
 39
96.0
 10
38.027228
 20
9.54864
 30
0.0
 11
38.027228
 21
9.54864
 31
0.0
  0
LINE
  5
27A
100
AcDbEntity
  8
BORDER
  6
CONTINUOUS
 62
     2
100
AcDbLine
 39
96.0
 10
37.558478
 20
9.54864
 30
0.0
 11
37.558478
 21
9.54864
 31
0.0
  0
LINE
  5
27B
100
AcDbEntity
  8
BORDER
  6
CONTINUOUS
 62
     2
100
AcDbLine
 39
96.0
 10
30.995978
 20
2.04864
 30
0.0
 11
30.995978
 21
2.04864
 31
0.0
  0
LINE
  5
27C
100
AcDbEntity
  8
BORDER
  6
CONTINUOUS
 62
     2
100
AcDbLine
 39
96.0
 10
30.527228
 20
2.04864
 30
0.0
 11
30.527228
 21
2.04864
 31
0.0
  0
LINE
  5
27D
100
AcDbEntity
  8
BORDER
  6
CONTINUOUS
 62
     2
100
AcDbLine
 39
96.0
 10
30.058478
 20
2.04864
 30
0.0
 11
30.058478
 21
2.04864
 31
0.0
  0
LINE
  5
27E
100
AcDbEntity
  8
BORDER
  6
CONTINUOUS
 62
     2
100
AcDbLine
 39
96.0
 10
29.589728
 20
2.04864
 30
0.0
 11
29.589728
 21
2.04864
 31
0.0
  0
LINE
  5
27F
100
AcDbEntity
  8
BORDER
  6
CONTINUOUS
 62
     2
100
AcDbLine
 39
96.0
 10
31.230348
 20
2.51739
 30
0.0
 11
31.230348
 21
2.51739
 31
0.0
  0
LINE
  5
280
100
AcDbEntity
  8
BORDER
  6
CONTINUOUS
 62
     2
100
AcDbLine
 39
96.0
 10
30.761598
 20
2.51739
 30
0.0
 11
30.761598
 21
2.51739
 31
0.0
  0
LINE
  5
281
100
AcDbEntity
  8
BORDER
  6
CONTINUOUS
 62
     2
100
AcDbLine
 39
96.0
 10
30.292848
 20
2.51739
 30
0.0
 11
30.292848
 21
2.51739
 31
0.0
  0
LINE
  5
282
100
AcDbEntity
  8
BORDER
  6
CONTINUOUS
 62
     2
100
AcDbLine
 39
96.0
 10
29.824098
 20
2.51739
 30
0.0
 11
29.824098
 21
2.51739
 31
0.0
  0
LINE
  5
283
100
AcDbEntity
  8
BORDER
  6
CONTINUOUS
 62
     2
100
AcDbLine
 39
96.0
 10
30.995978
 20
2.98614
 30
0.0
 11
30.995978
 21
2.98614
 31
0.0
  0
LINE
  5
284
100
AcDbEntity
  8
BORDER
  6
CONTINUOUS
 62
     2
100
AcDbLine
 39
96.0
 10
30.527228
 20
2.98614
 30
0.0
 11
30.527228
 21
2.98614
 31
0.0
  0
LINE
  5
285
100
AcDbEntity
  8
BORDER
  6
CONTINUOUS
 62
     2
100
AcDbLine
 39
96.0
 10
30.058478
 20
2.98614
 30
0.0
 11
30.058478
 21
2.98614
 31
0.0
  0
LINE
  5
286
100
AcDbEntity
  8
BORDER
  6
CONTINUOUS
 62
     2
100
AcDbLine
 39
96.0
 10
29.589728
 20
2.98614
 30
0.0
 11
29.589728
 21
2.98614
 31
0.0
  0
LINE
  5
287
100
AcDbEntity
  8
BORDER
  6
CONTINUOUS
 62
     2
100
AcDbLine
 39
96.0
 10
31.230348
 20
3.45489
 30
0.0
 11
31.230348
 21
3.45489
 31
0.0
  0
LINE
  5
288
100
AcDbEntity
  8
BORDER
  6
CONTINUOUS
 62
     2
100
AcDbLine
 39
96.0
 10
30.761598
 20
3.45489
 30
0.0
 11
30.761598
 21
3.45489
 31
0.0
  0
LINE
  5
289
100
AcDbEntity
  8
BORDER
  6
CONTINUOUS
 62
     2
100
AcDbLine
 39
96.0
 10
30.292848
 20
3.45489
 30
0.0
 11
30.292848
 21
3.45489
 31
0.0
  0
LINE
  5
28A
100
AcDbEntity
  8
BORDER
  6
CONTINUOUS
 62
     2
100
AcDbLine
 39
96.0
 10
29.824098
 20
3.45489
 30
0.0
 11
29.824098
 21
3.45489
 31
0.0
  0
LINE
  5
28B
100
AcDbEntity
  8
BORDER
  6
CONTINUOUS
 62
     2
100
AcDbLine
 39
96.0
 10
30.995978
 20
3.92364
 30
0.0
 11
30.995978
 21
3.92364
 31
0.0
  0
LINE
  5
28C
100
AcDbEntity
  8
BORDER
  6
CONTINUOUS
 62
     2
100
AcDbLine
 39
96.0
 10
30.527228
 20
3.92364
 30
0.0
 11
30.527228
 21
3.92364
 31
0.0
  0
LINE
  5
28D
100
AcDbEntity
  8
BORDER
  6
CONTINUOUS
 62
     2
100
AcDbLine
 39
96.0
 10
30.058478
 20
3.92364
 30
0.0
 11
30.058478
 21
3.92364
 31
0.0
  0
LINE
  5
28E
100
AcDbEntity
  8
BORDER
  6
CONTINUOUS
 62
     2
100
AcDbLine
 39
96.0
 10
29.589728
 20
3.92364
 30
0.0
 11
29.589728
 21
3.92364
 31
0.0
  0
LINE
  5
28F
100
AcDbEntity
  8
BORDER
  6
CONTINUOUS
 62
     2
100
AcDbLine
 39
96.0
 10
31.230348
 20
4.39239
 30
0.0
 11
31.230348
 21
4.39239
 31
0.0
  0
LINE
  5
290
100
AcDbEntity
  8
BORDER
  6
CONTINUOUS
 62
     2
100
AcDbLine
 39
96.0
 10
30.761598
 20
4.39239
 30
0.0
 11
30.761598
 21
4.39239
 31
0.0
  0
LINE
  5
291
100
AcDbEntity
  8
BORDER
  6
CONTINUOUS
 62
     2
100
AcDbLine
 39
96.0
 10
30.292848
 20
4.39239
 30
0.0
 11
30.292848
 21
4.39239
 31
0.0
  0
LINE
  5
292
100
AcDbEntity
  8
BORDER
  6
CONTINUOUS
 62
     2
100
AcDbLine
 39
96.0
 10
29.824098
 20
4.39239
 30
0.0
 11
29.824098
 21
4.39239
 31
0.0
  0
LINE
  5
293
100
AcDbEntity
  8
BORDER
  6
CONTINUOUS
 62
     2
100
AcDbLine
 39
96.0
 10
30.995978
 20
4.86114
 30
0.0
 11
30.995978
 21
4.86114
 31
0.0
  0
LINE
  5
294
100
AcDbEntity
  8
BORDER
  6
CONTINUOUS
 62
     2
100
AcDbLine
 39
96.0
 10
30.527228
 20
4.86114
 30
0.0
 11
30.527228
 21
4.86114
 31
0.0
  0
LINE
  5
295
100
AcDbEntity
  8
BORDER
  6
CONTINUOUS
 62
     2
100
AcDbLine
 39
96.0
 10
30.058478
 20
4.86114
 30
0.0
 11
30.058478
 21
4.86114
 31
0.0
  0
LINE
  5
296
100
AcDbEntity
  8
BORDER
  6
CONTINUOUS
 62
     2
100
AcDbLine
 39
96.0
 10
29.589728
 20
4.86114
 30
0.0
 11
29.589728
 21
4.86114
 31
0.0
  0
LINE
  5
297
100
AcDbEntity
  8
BORDER
  6
CONTINUOUS
 62
     2
100
AcDbLine
 39
96.0
 10
31.230348
 20
5.32989
 30
0.0
 11
31.230348
 21
5.32989
 31
0.0
  0
LINE
  5
298
100
AcDbEntity
  8
BORDER
  6
CONTINUOUS
 62
     2
100
AcDbLine
 39
96.0
 10
30.761598
 20
5.32989
 30
0.0
 11
30.761598
 21
5.32989
 31
0.0
  0
LINE
  5
299
100
AcDbEntity
  8
BORDER
  6
CONTINUOUS
 62
     2
100
AcDbLine
 39
96.0
 10
30.292848
 20
5.32989
 30
0.0
 11
30.292848
 21
5.32989
 31
0.0
  0
LINE
  5
29A
100
AcDbEntity
  8
BORDER
  6
CONTINUOUS
 62
     2
100
AcDbLine
 39
96.0
 10
29.824098
 20
5.32989
 30
0.0
 11
29.824098
 21
5.32989
 31
0.0
  0
LINE
  5
29B
100
AcDbEntity
  8
BORDER
  6
CONTINUOUS
 62
     2
100
AcDbLine
 39
96.0
 10
30.995978
 20
5.79864
 30
0.0
 11
30.995978
 21
5.79864
 31
0.0
  0
LINE
  5
29C
100
AcDbEntity
  8
BORDER
  6
CONTINUOUS
 62
     2
100
AcDbLine
 39
96.0
 10
30.527228
 20
5.79864
 30
0.0
 11
30.527228
 21
5.79864
 31
0.0
  0
LINE
  5
29D
100
AcDbEntity
  8
BORDER
  6
CONTINUOUS
 62
     2
100
AcDbLine
 39
96.0
 10
30.058478
 20
5.79864
 30
0.0
 11
30.058478
 21
5.79864
 31
0.0
  0
LINE
  5
29E
100
AcDbEntity
  8
BORDER
  6
CONTINUOUS
 62
     2
100
AcDbLine
 39
96.0
 10
29.589728
 20
5.79864
 30
0.0
 11
29.589728
 21
5.79864
 31
0.0
  0
LINE
  5
29F
100
AcDbEntity
  8
BORDER
  6
CONTINUOUS
 62
     2
100
AcDbLine
 39
96.0
 10
31.230348
 20
6.26739
 30
0.0
 11
31.230348
 21
6.26739
 31
0.0
  0
LINE
  5
2A0
100
AcDbEntity
  8
BORDER
  6
CONTINUOUS
 62
     2
100
AcDbLine
 39
96.0
 10
30.761598
 20
6.26739
 30
0.0
 11
30.761598
 21
6.26739
 31
0.0
  0
LINE
  5
2A1
100
AcDbEntity
  8
BORDER
  6
CONTINUOUS
 62
     2
100
AcDbLine
 39
96.0
 10
30.292848
 20
6.26739
 30
0.0
 11
30.292848
 21
6.26739
 31
0.0
  0
LINE
  5
2A2
100
AcDbEntity
  8
BORDER
  6
CONTINUOUS
 62
     2
100
AcDbLine
 39
96.0
 10
29.824098
 20
6.26739
 30
0.0
 11
29.824098
 21
6.26739
 31
0.0
  0
LINE
  5
2A3
100
AcDbEntity
  8
BORDER
  6
CONTINUOUS
 62
     2
100
AcDbLine
 39
96.0
 10
30.995978
 20
6.73614
 30
0.0
 11
30.995978
 21
6.73614
 31
0.0
  0
LINE
  5
2A4
100
AcDbEntity
  8
BORDER
  6
CONTINUOUS
 62
     2
100
AcDbLine
 39
96.0
 10
30.527228
 20
6.73614
 30
0.0
 11
30.527228
 21
6.73614
 31
0.0
  0
LINE
  5
2A5
100
AcDbEntity
  8
BORDER
  6
CONTINUOUS
 62
     2
100
AcDbLine
 39
96.0
 10
30.058478
 20
6.73614
 30
0.0
 11
30.058478
 21
6.73614
 31
0.0
  0
LINE
  5
2A6
100
AcDbEntity
  8
BORDER
  6
CONTINUOUS
 62
     2
100
AcDbLine
 39
96.0
 10
29.589728
 20
6.73614
 30
0.0
 11
29.589728
 21
6.73614
 31
0.0
  0
LINE
  5
2A7
100
AcDbEntity
  8
BORDER
  6
CONTINUOUS
 62
     2
100
AcDbLine
 39
96.0
 10
31.230348
 20
7.20489
 30
0.0
 11
31.230348
 21
7.20489
 31
0.0
  0
LINE
  5
2A8
100
AcDbEntity
  8
BORDER
  6
CONTINUOUS
 62
     2
100
AcDbLine
 39
96.0
 10
30.761598
 20
7.20489
 30
0.0
 11
30.761598
 21
7.20489
 31
0.0
  0
LINE
  5
2A9
100
AcDbEntity
  8
BORDER
  6
CONTINUOUS
 62
     2
100
AcDbLine
 39
96.0
 10
30.292848
 20
7.20489
 30
0.0
 11
30.292848
 21
7.20489
 31
0.0
  0
LINE
  5
2AA
100
AcDbEntity
  8
BORDER
  6
CONTINUOUS
 62
     2
100
AcDbLine
 39
96.0
 10
29.824098
 20
7.20489
 30
0.0
 11
29.824098
 21
7.20489
 31
0.0
  0
LINE
  5
2AB
100
AcDbEntity
  8
BORDER
  6
CONTINUOUS
 62
     2
100
AcDbLine
 39
96.0
 10
30.995978
 20
7.67364
 30
0.0
 11
30.995978
 21
7.67364
 31
0.0
  0
LINE
  5
2AC
100
AcDbEntity
  8
BORDER
  6
CONTINUOUS
 62
     2
100
AcDbLine
 39
96.0
 10
30.527228
 20
7.67364
 30
0.0
 11
30.527228
 21
7.67364
 31
0.0
  0
LINE
  5
2AD
100
AcDbEntity
  8
BORDER
  6
CONTINUOUS
 62
     2
100
AcDbLine
 39
96.0
 10
30.058478
 20
7.67364
 30
0.0
 11
30.058478
 21
7.67364
 31
0.0
  0
LINE
  5
2AE
100
AcDbEntity
  8
BORDER
  6
CONTINUOUS
 62
     2
100
AcDbLine
 39
96.0
 10
29.589728
 20
7.67364
 30
0.0
 11
29.589728
 21
7.67364
 31
0.0
  0
LINE
  5
2AF
100
AcDbEntity
  8
BORDER
  6
CONTINUOUS
 62
     2
100
AcDbLine
 39
96.0
 10
31.230348
 20
8.14239
 30
0.0
 11
31.230348
 21
8.14239
 31
0.0
  0
LINE
  5
2B0
100
AcDbEntity
  8
BORDER
  6
CONTINUOUS
 62
     2
100
AcDbLine
 39
96.0
 10
30.761598
 20
8.14239
 30
0.0
 11
30.761598
 21
8.14239
 31
0.0
  0
LINE
  5
2B1
100
AcDbEntity
  8
BORDER
  6
CONTINUOUS
 62
     2
100
AcDbLine
 39
96.0
 10
30.292848
 20
8.14239
 30
0.0
 11
30.292848
 21
8.14239
 31
0.0
  0
LINE
  5
2B2
100
AcDbEntity
  8
BORDER
  6
CONTINUOUS
 62
     2
100
AcDbLine
 39
96.0
 10
29.824098
 20
8.14239
 30
0.0
 11
29.824098
 21
8.14239
 31
0.0
  0
LINE
  5
2B3
100
AcDbEntity
  8
BORDER
  6
CONTINUOUS
 62
     2
100
AcDbLine
 39
96.0
 10
30.995978
 20
8.61114
 30
0.0
 11
30.995978
 21
8.61114
 31
0.0
  0
LINE
  5
2B4
100
AcDbEntity
  8
BORDER
  6
CONTINUOUS
 62
     2
100
AcDbLine
 39
96.0
 10
30.527228
 20
8.61114
 30
0.0
 11
30.527228
 21
8.61114
 31
0.0
  0
LINE
  5
2B5
100
AcDbEntity
  8
BORDER
  6
CONTINUOUS
 62
     2
100
AcDbLine
 39
96.0
 10
30.058478
 20
8.61114
 30
0.0
 11
30.058478
 21
8.61114
 31
0.0
  0
LINE
  5
2B6
100
AcDbEntity
  8
BORDER
  6
CONTINUOUS
 62
     2
100
AcDbLine
 39
96.0
 10
29.589728
 20
8.61114
 30
0.0
 11
29.589728
 21
8.61114
 31
0.0
  0
LINE
  5
2B7
100
AcDbEntity
  8
BORDER
  6
CONTINUOUS
 62
     2
100
AcDbLine
 39
96.0
 10
31.230348
 20
9.07989
 30
0.0
 11
31.230348
 21
9.07989
 31
0.0
  0
LINE
  5
2B8
100
AcDbEntity
  8
BORDER
  6
CONTINUOUS
 62
     2
100
AcDbLine
 39
96.0
 10
30.761598
 20
9.07989
 30
0.0
 11
30.761598
 21
9.07989
 31
0.0
  0
LINE
  5
2B9
100
AcDbEntity
  8
BORDER
  6
CONTINUOUS
 62
     2
100
AcDbLine
 39
96.0
 10
30.292848
 20
9.07989
 30
0.0
 11
30.292848
 21
9.07989
 31
0.0
  0
LINE
  5
2BA
100
AcDbEntity
  8
BORDER
  6
CONTINUOUS
 62
     2
100
AcDbLine
 39
96.0
 10
29.824098
 20
9.07989
 30
0.0
 11
29.824098
 21
9.07989
 31
0.0
  0
LINE
  5
2BB
100
AcDbEntity
  8
BORDER
  6
CONTINUOUS
 62
     2
100
AcDbLine
 39
96.0
 10
30.995978
 20
9.54864
 30
0.0
 11
30.995978
 21
9.54864
 31
0.0
  0
LINE
  5
2BC
100
AcDbEntity
  8
BORDER
  6
CONTINUOUS
 62
     2
100
AcDbLine
 39
96.0
 10
30.527228
 20
9.54864
 30
0.0
 11
30.527228
 21
9.54864
 31
0.0
  0
LINE
  5
2BD
100
AcDbEntity
  8
BORDER
  6
CONTINUOUS
 62
     2
100
AcDbLine
 39
96.0
 10
30.058478
 20
9.54864
 30
0.0
 11
30.058478
 21
9.54864
 31
0.0
  0
LINE
  5
2BE
100
AcDbEntity
  8
BORDER
  6
CONTINUOUS
 62
     2
100
AcDbLine
 39
96.0
 10
29.589728
 20
9.54864
 30
0.0
 11
29.589728
 21
9.54864
 31
0.0
  0
LINE
  5
2BF
100
AcDbEntity
  8
BORDER
  6
CONTINUOUS
 62
     1
100
AcDbLine
 39
96.0
 10
36.284308
 20
6.81824
 30
0.0
 11
36.295048
 21
6.87982
 31
0.0
  0
LINE
  5
2C0
100
AcDbEntity
  8
BORDER
  6
CONTINUOUS
 62
     1
100
AcDbLine
 39
96.0
 10
35.850228
 20
4.3562
 30
0.0
 11
35.860968
 21
4.41778
 31
0.0
  0
LINE
  5
2C1
100
AcDbEntity
  8
BORDER
  6
CONTINUOUS
 62
     1
100
AcDbLine
 39
96.0
 10
35.416138
 20
1.89416
 30
0.0
 11
35.426888
 21
1.95575
 31
0.0
  0
LINE
  5
2C2
100
AcDbEntity
  8
BORDER
  6
CONTINUOUS
 62
     1
100
AcDbLine
 39
96.0
 10
33.388558
 20
4.79028
 30
0.0
 11
33.399298
 21
4.85187
 31
0.0
  0
LINE
  5
2C3
100
AcDbEntity
  8
BORDER
  6
CONTINUOUS
 62
     1
100
AcDbLine
 39
96.0
 10
32.954468
 20
2.32825
 30
0.0
 11
32.965218
 21
2.38983
 31
0.0
  0
LINE
  5
2C4
100
AcDbEntity
  8
BORDER
  6
CONTINUOUS
 62
     1
100
AcDbLine
 39
96.0
 10
31.360718
 20
7.68634
 30
0.0
 11
31.371468
 21
7.74792
 31
0.0
  0
LINE
  5
2C5
100
AcDbEntity
  8
BORDER
  6
CONTINUOUS
 62
     1
100
AcDbLine
 39
96.0
 10
36.138308
 20
4.35785
 30
0.0
 11
36.174198
 21
4.40912
 31
0.0
  0
LINE
  5
2C6
100
AcDbEntity
  8
BORDER
  6
CONTINUOUS
 62
     1
100
AcDbLine
 39
96.0
 10
34.704228
 20
2.31
 30
0.0
 11
34.740118
 21
2.3612
 31
0.0
  0
LINE
  5
2C7
100
AcDbEntity
  8
BORDER
  6
CONTINUOUS
 62
     1
100
AcDbLine
 39
96.0
 10
34.090458
 20
5.79175
 30
0.0
 11
34.126348
 21
5.84295
 31
0.0
  0
LINE
  5
2C8
100
AcDbEntity
  8
BORDER
  6
CONTINUOUS
 62
     1
100
AcDbLine
 39
96.0
 10
32.656378
 20
3.74383
 30
0.0
 11
32.692268
 21
3.7951
 31
0.0
  0
LINE
  5
2C9
100
AcDbEntity
  8
BORDER
  6
CONTINUOUS
 62
     1
100
AcDbLine
 39
96.0
 10
32.042358
 20
7.22571
 30
0.0
 11
32.078248
 21
7.27691
 31
0.0
  0
LINE
  5
2CA
100
AcDbEntity
  8
BORDER
  6
CONTINUOUS
 62
     1
100
AcDbLine
 39
96.0
 10
37.339478
 20
2.53039
 30
0.0
 11
37.398318
 21
2.55176
 31
0.0
  0
LINE
  5
2CB
100
AcDbEntity
  8
BORDER
  6
CONTINUOUS
 62
     1
100
AcDbLine
 39
96.0
 10
34.990118
 20
1.67535
 30
0.0
 11
35.048958
 21
1.69671
 31
0.0
  0
LINE
  5
2CC
100
AcDbEntity
  8
BORDER
  6
CONTINUOUS
 62
     1
100
AcDbLine
 39
96.0
 10
36.484498
 20
4.87964
 30
0.0
 11
36.543338
 21
4.901
 31
0.0
  0
LINE
  5
2CD
100
AcDbEntity
  8
BORDER
  6
CONTINUOUS
 62
     1
100
AcDbLine
 39
96.0
 10
34.135138
 20
4.0246
 30
0.0
 11
34.193978
 21
4.04596
 31
0.0
  0
LINE
  5
2CE
100
AcDbEntity
  8
BORDER
  6
CONTINUOUS
 62
     1
100
AcDbLine
 39
96.0
 10
31.785768
 20
3.16955
 30
0.0
 11
31.844608
 21
3.19092
 31
0.0
  0
LINE
  5
2CF
100
AcDbEntity
  8
BORDER
  6
CONTINUOUS
 62
     1
100
AcDbLine
 39
96.0
 10
33.280158
 20
6.37384
 30
0.0
 11
33.338998
 21
6.3952
 31
0.0
  0
LINE
  5
2D0
100
AcDbEntity
  8
BORDER
  6
CONTINUOUS
 62
     3
100
AcDbLine
 39
96.0
 10
31.252328
 20
9.68439
 30
0.0
 11
29.377328
 21
9.68439
 31
0.0
  0
ARC
  5
2D1
100
AcDbEntity
  8
BORDER
  6
CONTINUOUS
 62
     3
100
AcDbCircle
 39
96.0
 10
34.377328
 20
9.68439
 30
0.0
 40
3.0
100
AcDbArc
 50
180.0
 51
0.0
  0
LINE
  5
2D2
100
AcDbEntity
  8
BORDER
  6
CONTINUOUS
 62
     3
100
AcDbLine
 39
96.0
 10
37.502328
 20
1.65375
 30
0.0
 11
37.502328
 21
9.68439
 31
0.0
  0
LINE
  5
2D3
100
AcDbEntity
  8
BORDER
  6
CONTINUOUS
 62
     3
100
AcDbLine
 39
96.0
 10
31.252328
 20
9.68439
 30
0.0
 11
31.252328
 21
1.65375
 31
0.0
  0
LINE
  5
2D4
100
AcDbEntity
  8
BORDER
  6
CONTINUOUS
 62
     3
100
AcDbLine
 39
96.0
 10
29.377328
 20
9.68439
 30
0.0
 11
29.377328
 21
1.65375
 31
0.0
  0
LINE
  5
2D5
100
AcDbEntity
  8
BORDER
  6
CONTINUOUS
 62
     3
100
AcDbLine
 39
96.0
 10
39.377328
 20
9.68439
 30
0.0
 11
37.502328
 21
9.68439
 31
0.0
  0
LINE
  5
2D6
100
AcDbEntity
  8
BORDER
  6
CONTINUOUS
 62
     3
100
AcDbLine
 39
96.0
 10
39.377328
 20
1.65375
 30
0.0
 11
39.377328
 21
9.68439
 31
0.0
  0
LINE
  5
2D7
100
AcDbEntity
  8
BORDER
  6
CONTINUOUS
 62
     1
100
AcDbLine
 39
96.0
 10
34.704228
 20
10.63592
 30
0.0
 11
34.740118
 21
10.68713
 31
0.0
  0
LINE
  5
2D8
100
AcDbEntity
  8
BORDER
  6
CONTINUOUS
 62
     1
100
AcDbLine
 39
96.0
 10
35.416138
 20
10.22009
 30
0.0
 11
35.426888
 21
10.28161
 31
0.0
  0
LINE
  5
2D9
100
AcDbEntity
  8
BORDER
  6
CONTINUOUS
 62
     1
100
AcDbLine
 39
96.0
 10
34.990118
 20
10.00128
 30
0.0
 11
35.048958
 21
10.02264
 31
0.0
  0
LINE
  5
2DA
100
AcDbEntity
  8
BORDER
  6
CONTINUOUS
 62
    10
100
AcDbLine
 39
96.0
 10
33.482548
 20
22.4237
 30
0.0
 11
33.468878
 21
22.3468
 31
0.0
  0
LINE
  5
2DB
100
AcDbEntity
  8
BORDER
  6
CONTINUOUS
 62
    10
100
AcDbLine
 39
96.0
 10
34.627808
 20
23.39648
 30
0.0
 11
34.582888
 21
23.33252
 31
0.0
  0
LINE
  5
2DC
100
AcDbEntity
  8
BORDER
  6
CONTINUOUS
 62
    10
100
AcDbLine
 39
96.0
 10
34.896608
 20
22.56384
 30
0.0
 11
34.823128
 21
22.53711
 31
0.0
  0
LINE
  5
2DD
100
AcDbEntity
  8
BORDER
  6
CONTINUOUS
 62
    10
100
AcDbLine
 39
96.0
 10
34.929328
 20
12.63318
 30
0.0
 11
34.918338
 21
12.57165
 31
0.0
  0
LINE
  5
2DE
100
AcDbEntity
  8
BORDER
  6
CONTINUOUS
 62
    10
100
AcDbLine
 39
96.0
 10
32.577758
 20
9.57214
 30
0.0
 11
32.532838
 21
9.50818
 31
0.0
  0
LINE
  5
2DF
100
AcDbEntity
  8
BORDER
  6
CONTINUOUS
 62
    10
100
AcDbLine
 39
96.0
 10
34.370248
 20
12.13202
 30
0.0
 11
34.325318
 21
12.06799
 31
0.0
  0
LINE
  5
2E0
100
AcDbEntity
  8
BORDER
  6
CONTINUOUS
 62
    10
100
AcDbLine
 39
96.0
 10
32.230108
 20
11.61651
 30
0.0
 11
32.156618
 21
11.58978
 31
0.0
  0
LINE
  5
2E1
100
AcDbEntity
  8
BORDER
  6
CONTINUOUS
 62
     3
100
AcDbLine
 39
96.0
 10
37.502328
 20
24.68439
 30
0.0
 11
39.377328
 21
24.68439
 31
0.0
  0
LINE
  5
2E2
100
AcDbEntity
  8
BORDER
  6
CONTINUOUS
 62
     3
100
AcDbLine
 39
96.0
 10
29.377328
 20
24.68439
 30
0.0
 11
31.252328
 21
24.68439
 31
0.0
  0
LINE
  5
2E3
100
AcDbEntity
  8
BORDER
  6
CONTINUOUS
 62
     2
100
AcDbLine
 39
96.0
 10
39.199098
 20
10.01733
 30
0.0
 11
39.199098
 21
10.01733
 31
0.0
  0
LINE
  5
2E4
100
AcDbEntity
  8
BORDER
  6
CONTINUOUS
 62
     2
100
AcDbLine
 39
96.0
 10
38.730348
 20
10.01733
 30
0.0
 11
38.730348
 21
10.01733
 31
0.0
  0
LINE
  5
2E5
100
AcDbEntity
  8
BORDER
  6
CONTINUOUS
 62
     2
100
AcDbLine
 39
96.0
 10
38.261598
 20
10.01733
 30
0.0
 11
38.261598
 21
10.01733
 31
0.0
  0
LINE
  5
2E6
100
AcDbEntity
  8
BORDER
  6
CONTINUOUS
 62
     2
100
AcDbLine
 39
96.0
 10
37.792848
 20
10.01733
 30
0.0
 11
37.792848
 21
10.01733
 31
0.0
  0
LINE
  5
2E7
100
AcDbEntity
  8
BORDER
  6
CONTINUOUS
 62
     2
100
AcDbLine
 39
96.0
 10
38.964728
 20
10.48608
 30
0.0
 11
38.964728
 21
10.48608
 31
0.0
  0
LINE
  5
2E8
100
AcDbEntity
  8
BORDER
  6
CONTINUOUS
 62
     2
100
AcDbLine
 39
96.0
 10
38.495978
 20
10.48608
 30
0.0
 11
38.495978
 21
10.48608
 31
0.0
  0
LINE
  5
2E9
100
AcDbEntity
  8
BORDER
  6
CONTINUOUS
 62
     2
100
AcDbLine
 39
96.0
 10
38.027228
 20
10.48608
 30
0.0
 11
38.027228
 21
10.48608
 31
0.0
  0
LINE
  5
2EA
100
AcDbEntity
  8
BORDER
  6
CONTINUOUS
 62
     2
100
AcDbLine
 39
96.0
 10
37.558478
 20
10.48608
 30
0.0
 11
37.558478
 21
10.48608
 31
0.0
  0
LINE
  5
2EB
100
AcDbEntity
  8
BORDER
  6
CONTINUOUS
 62
     2
100
AcDbLine
 39
96.0
 10
39.199098
 20
10.95483
 30
0.0
 11
39.199098
 21
10.95483
 31
0.0
  0
LINE
  5
2EC
100
AcDbEntity
  8
BORDER
  6
CONTINUOUS
 62
     2
100
AcDbLine
 39
96.0
 10
38.730348
 20
10.95483
 30
0.0
 11
38.730348
 21
10.95483
 31
0.0
  0
LINE
  5
2ED
100
AcDbEntity
  8
BORDER
  6
CONTINUOUS
 62
     2
100
AcDbLine
 39
96.0
 10
38.261598
 20
10.95483
 30
0.0
 11
38.261598
 21
10.95483
 31
0.0
  0
LINE
  5
2EE
100
AcDbEntity
  8
BORDER
  6
CONTINUOUS
 62
     2
100
AcDbLine
 39
96.0
 10
37.792848
 20
10.95483
 30
0.0
 11
37.792848
 21
10.95483
 31
0.0
  0
LINE
  5
2EF
100
AcDbEntity
  8
BORDER
  6
CONTINUOUS
 62
     2
100
AcDbLine
 39
96.0
 10
38.964728
 20
11.42358
 30
0.0
 11
38.964728
 21
11.42358
 31
0.0
  0
LINE
  5
2F0
100
AcDbEntity
  8
BORDER
  6
CONTINUOUS
 62
     2
100
AcDbLine
 39
96.0
 10
38.495978
 20
11.42358
 30
0.0
 11
38.495978
 21
11.42358
 31
0.0
  0
LINE
  5
2F1
100
AcDbEntity
  8
BORDER
  6
CONTINUOUS
 62
     2
100
AcDbLine
 39
96.0
 10
38.027228
 20
11.42358
 30
0.0
 11
38.027228
 21
11.42358
 31
0.0
  0
LINE
  5
2F2
100
AcDbEntity
  8
BORDER
  6
CONTINUOUS
 62
     2
100
AcDbLine
 39
96.0
 10
37.558478
 20
11.42358
 30
0.0
 11
37.558478
 21
11.42358
 31
0.0
  0
LINE
  5
2F3
100
AcDbEntity
  8
BORDER
  6
CONTINUOUS
 62
     2
100
AcDbLine
 39
96.0
 10
39.199098
 20
11.89233
 30
0.0
 11
39.199098
 21
11.89233
 31
0.0
  0
LINE
  5
2F4
100
AcDbEntity
  8
BORDER
  6
CONTINUOUS
 62
     2
100
AcDbLine
 39
96.0
 10
38.730348
 20
11.89233
 30
0.0
 11
38.730348
 21
11.89233
 31
0.0
  0
LINE
  5
2F5
100
AcDbEntity
  8
BORDER
  6
CONTINUOUS
 62
     2
100
AcDbLine
 39
96.0
 10
38.261598
 20
11.89233
 30
0.0
 11
38.261598
 21
11.89233
 31
0.0
  0
LINE
  5
2F6
100
AcDbEntity
  8
BORDER
  6
CONTINUOUS
 62
     2
100
AcDbLine
 39
96.0
 10
37.792848
 20
11.89233
 30
0.0
 11
37.792848
 21
11.89233
 31
0.0
  0
LINE
  5
2F7
100
AcDbEntity
  8
BORDER
  6
CONTINUOUS
 62
     2
100
AcDbLine
 39
96.0
 10
38.964728
 20
12.36108
 30
0.0
 11
38.964728
 21
12.36108
 31
0.0
  0
LINE
  5
2F8
100
AcDbEntity
  8
BORDER
  6
CONTINUOUS
 62
     2
100
AcDbLine
 39
96.0
 10
38.495978
 20
12.36108
 30
0.0
 11
38.495978
 21
12.36108
 31
0.0
  0
LINE
  5
2F9
100
AcDbEntity
  8
BORDER
  6
CONTINUOUS
 62
     2
100
AcDbLine
 39
96.0
 10
38.027228
 20
12.36108
 30
0.0
 11
38.027228
 21
12.36108
 31
0.0
  0
LINE
  5
2FA
100
AcDbEntity
  8
BORDER
  6
CONTINUOUS
 62
     2
100
AcDbLine
 39
96.0
 10
37.558478
 20
12.36108
 30
0.0
 11
37.558478
 21
12.36108
 31
0.0
  0
LINE
  5
2FB
100
AcDbEntity
  8
BORDER
  6
CONTINUOUS
 62
     2
100
AcDbLine
 39
96.0
 10
39.199098
 20
12.82983
 30
0.0
 11
39.199098
 21
12.82983
 31
0.0
  0
LINE
  5
2FC
100
AcDbEntity
  8
BORDER
  6
CONTINUOUS
 62
     2
100
AcDbLine
 39
96.0
 10
38.730348
 20
12.82983
 30
0.0
 11
38.730348
 21
12.82983
 31
0.0
  0
LINE
  5
2FD
100
AcDbEntity
  8
BORDER
  6
CONTINUOUS
 62
     2
100
AcDbLine
 39
96.0
 10
38.261598
 20
12.82983
 30
0.0
 11
38.261598
 21
12.82983
 31
0.0
  0
LINE
  5
2FE
100
AcDbEntity
  8
BORDER
  6
CONTINUOUS
 62
     2
100
AcDbLine
 39
96.0
 10
37.792848
 20
12.82983
 30
0.0
 11
37.792848
 21
12.82983
 31
0.0
  0
LINE
  5
2FF
100
AcDbEntity
  8
BORDER
  6
CONTINUOUS
 62
     2
100
AcDbLine
 39
96.0
 10
38.964728
 20
13.29858
 30
0.0
 11
38.964728
 21
13.29858
 31
0.0
  0
LINE
  5
300
100
AcDbEntity
  8
BORDER
  6
CONTINUOUS
 62
     2
100
AcDbLine
 39
96.0
 10
38.495978
 20
13.29858
 30
0.0
 11
38.495978
 21
13.29858
 31
0.0
  0
LINE
  5
301
100
AcDbEntity
  8
BORDER
  6
CONTINUOUS
 62
     2
100
AcDbLine
 39
96.0
 10
38.027228
 20
13.29858
 30
0.0
 11
38.027228
 21
13.29858
 31
0.0
  0
LINE
  5
302
100
AcDbEntity
  8
BORDER
  6
CONTINUOUS
 62
     2
100
AcDbLine
 39
96.0
 10
37.558478
 20
13.29858
 30
0.0
 11
37.558478
 21
13.29858
 31
0.0
  0
LINE
  5
303
100
AcDbEntity
  8
BORDER
  6
CONTINUOUS
 62
     2
100
AcDbLine
 39
96.0
 10
39.199098
 20
13.76733
 30
0.0
 11
39.199098
 21
13.76733
 31
0.0
  0
LINE
  5
304
100
AcDbEntity
  8
BORDER
  6
CONTINUOUS
 62
     2
100
AcDbLine
 39
96.0
 10
38.730348
 20
13.76733
 30
0.0
 11
38.730348
 21
13.76733
 31
0.0
  0
LINE
  5
305
100
AcDbEntity
  8
BORDER
  6
CONTINUOUS
 62
     2
100
AcDbLine
 39
96.0
 10
38.261598
 20
13.76733
 30
0.0
 11
38.261598
 21
13.76733
 31
0.0
  0
LINE
  5
306
100
AcDbEntity
  8
BORDER
  6
CONTINUOUS
 62
     2
100
AcDbLine
 39
96.0
 10
37.792848
 20
13.76733
 30
0.0
 11
37.792848
 21
13.76733
 31
0.0
  0
LINE
  5
307
100
AcDbEntity
  8
BORDER
  6
CONTINUOUS
 62
     2
100
AcDbLine
 39
96.0
 10
38.964728
 20
14.23608
 30
0.0
 11
38.964728
 21
14.23608
 31
0.0
  0
LINE
  5
308
100
AcDbEntity
  8
BORDER
  6
CONTINUOUS
 62
     2
100
AcDbLine
 39
96.0
 10
38.495978
 20
14.23608
 30
0.0
 11
38.495978
 21
14.23608
 31
0.0
  0
LINE
  5
309
100
AcDbEntity
  8
BORDER
  6
CONTINUOUS
 62
     2
100
AcDbLine
 39
96.0
 10
38.027228
 20
14.23608
 30
0.0
 11
38.027228
 21
14.23608
 31
0.0
  0
LINE
  5
30A
100
AcDbEntity
  8
BORDER
  6
CONTINUOUS
 62
     2
100
AcDbLine
 39
96.0
 10
37.558478
 20
14.23608
 30
0.0
 11
37.558478
 21
14.23608
 31
0.0
  0
LINE
  5
30B
100
AcDbEntity
  8
BORDER
  6
CONTINUOUS
 62
     2
100
AcDbLine
 39
96.0
 10
39.199098
 20
14.70483
 30
0.0
 11
39.199098
 21
14.70483
 31
0.0
  0
LINE
  5
30C
100
AcDbEntity
  8
BORDER
  6
CONTINUOUS
 62
     2
100
AcDbLine
 39
96.0
 10
38.730348
 20
14.70483
 30
0.0
 11
38.730348
 21
14.70483
 31
0.0
  0
LINE
  5
30D
100
AcDbEntity
  8
BORDER
  6
CONTINUOUS
 62
     2
100
AcDbLine
 39
96.0
 10
38.261598
 20
14.70483
 30
0.0
 11
38.261598
 21
14.70483
 31
0.0
  0
LINE
  5
30E
100
AcDbEntity
  8
BORDER
  6
CONTINUOUS
 62
     2
100
AcDbLine
 39
96.0
 10
37.792848
 20
14.70483
 30
0.0
 11
37.792848
 21
14.70483
 31
0.0
  0
LINE
  5
30F
100
AcDbEntity
  8
BORDER
  6
CONTINUOUS
 62
     2
100
AcDbLine
 39
96.0
 10
38.964728
 20
15.17358
 30
0.0
 11
38.964728
 21
15.17358
 31
0.0
  0
LINE
  5
310
100
AcDbEntity
  8
BORDER
  6
CONTINUOUS
 62
     2
100
AcDbLine
 39
96.0
 10
38.495978
 20
15.17358
 30
0.0
 11
38.495978
 21
15.17358
 31
0.0
  0
LINE
  5
311
100
AcDbEntity
  8
BORDER
  6
CONTINUOUS
 62
     2
100
AcDbLine
 39
96.0
 10
38.027228
 20
15.17358
 30
0.0
 11
38.027228
 21
15.17358
 31
0.0
  0
LINE
  5
312
100
AcDbEntity
  8
BORDER
  6
CONTINUOUS
 62
     2
100
AcDbLine
 39
96.0
 10
37.558478
 20
15.17358
 30
0.0
 11
37.558478
 21
15.17358
 31
0.0
  0
LINE
  5
313
100
AcDbEntity
  8
BORDER
  6
CONTINUOUS
 62
     2
100
AcDbLine
 39
96.0
 10
39.199098
 20
15.64233
 30
0.0
 11
39.199098
 21
15.64233
 31
0.0
  0
LINE
  5
314
100
AcDbEntity
  8
BORDER
  6
CONTINUOUS
 62
     2
100
AcDbLine
 39
96.0
 10
38.730348
 20
15.64233
 30
0.0
 11
38.730348
 21
15.64233
 31
0.0
  0
LINE
  5
315
100
AcDbEntity
  8
BORDER
  6
CONTINUOUS
 62
     2
100
AcDbLine
 39
96.0
 10
38.261598
 20
15.64233
 30
0.0
 11
38.261598
 21
15.64233
 31
0.0
  0
LINE
  5
316
100
AcDbEntity
  8
BORDER
  6
CONTINUOUS
 62
     2
100
AcDbLine
 39
96.0
 10
37.792848
 20
15.64233
 30
0.0
 11
37.792848
 21
15.64233
 31
0.0
  0
LINE
  5
317
100
AcDbEntity
  8
BORDER
  6
CONTINUOUS
 62
     2
100
AcDbLine
 39
96.0
 10
38.964728
 20
16.11108
 30
0.0
 11
38.964728
 21
16.11108
 31
0.0
  0
LINE
  5
318
100
AcDbEntity
  8
BORDER
  6
CONTINUOUS
 62
     2
100
AcDbLine
 39
96.0
 10
38.495978
 20
16.11108
 30
0.0
 11
38.495978
 21
16.11108
 31
0.0
  0
LINE
  5
319
100
AcDbEntity
  8
BORDER
  6
CONTINUOUS
 62
     2
100
AcDbLine
 39
96.0
 10
38.027228
 20
16.11108
 30
0.0
 11
38.027228
 21
16.11108
 31
0.0
  0
LINE
  5
31A
100
AcDbEntity
  8
BORDER
  6
CONTINUOUS
 62
     2
100
AcDbLine
 39
96.0
 10
37.558478
 20
16.11108
 30
0.0
 11
37.558478
 21
16.11108
 31
0.0
  0
LINE
  5
31B
100
AcDbEntity
  8
BORDER
  6
CONTINUOUS
 62
     2
100
AcDbLine
 39
96.0
 10
39.199098
 20
16.57983
 30
0.0
 11
39.199098
 21
16.57983
 31
0.0
  0
LINE
  5
31C
100
AcDbEntity
  8
BORDER
  6
CONTINUOUS
 62
     2
100
AcDbLine
 39
96.0
 10
38.730348
 20
16.57983
 30
0.0
 11
38.730348
 21
16.57983
 31
0.0
  0
LINE
  5
31D
100
AcDbEntity
  8
BORDER
  6
CONTINUOUS
 62
     2
100
AcDbLine
 39
96.0
 10
38.261598
 20
16.57983
 30
0.0
 11
38.261598
 21
16.57983
 31
0.0
  0
LINE
  5
31E
100
AcDbEntity
  8
BORDER
  6
CONTINUOUS
 62
     2
100
AcDbLine
 39
96.0
 10
37.792848
 20
16.57983
 30
0.0
 11
37.792848
 21
16.57983
 31
0.0
  0
LINE
  5
31F
100
AcDbEntity
  8
BORDER
  6
CONTINUOUS
 62
     2
100
AcDbLine
 39
96.0
 10
38.964728
 20
17.04858
 30
0.0
 11
38.964728
 21
17.04858
 31
0.0
  0
LINE
  5
320
100
AcDbEntity
  8
BORDER
  6
CONTINUOUS
 62
     2
100
AcDbLine
 39
96.0
 10
38.495978
 20
17.04858
 30
0.0
 11
38.495978
 21
17.04858
 31
0.0
  0
LINE
  5
321
100
AcDbEntity
  8
BORDER
  6
CONTINUOUS
 62
     2
100
AcDbLine
 39
96.0
 10
38.027228
 20
17.04858
 30
0.0
 11
38.027228
 21
17.04858
 31
0.0
  0
LINE
  5
322
100
AcDbEntity
  8
BORDER
  6
CONTINUOUS
 62
     2
100
AcDbLine
 39
96.0
 10
37.558478
 20
17.04858
 30
0.0
 11
37.558478
 21
17.04858
 31
0.0
  0
LINE
  5
323
100
AcDbEntity
  8
BORDER
  6
CONTINUOUS
 62
     2
100
AcDbLine
 39
96.0
 10
39.199098
 20
17.51733
 30
0.0
 11
39.199098
 21
17.51733
 31
0.0
  0
LINE
  5
324
100
AcDbEntity
  8
BORDER
  6
CONTINUOUS
 62
     2
100
AcDbLine
 39
96.0
 10
38.730348
 20
17.51733
 30
0.0
 11
38.730348
 21
17.51733
 31
0.0
  0
LINE
  5
325
100
AcDbEntity
  8
BORDER
  6
CONTINUOUS
 62
     2
100
AcDbLine
 39
96.0
 10
38.261598
 20
17.51733
 30
0.0
 11
38.261598
 21
17.51733
 31
0.0
  0
LINE
  5
326
100
AcDbEntity
  8
BORDER
  6
CONTINUOUS
 62
     2
100
AcDbLine
 39
96.0
 10
37.792848
 20
17.51733
 30
0.0
 11
37.792848
 21
17.51733
 31
0.0
  0
LINE
  5
327
100
AcDbEntity
  8
BORDER
  6
CONTINUOUS
 62
     2
100
AcDbLine
 39
96.0
 10
38.964728
 20
17.98608
 30
0.0
 11
38.964728
 21
17.98608
 31
0.0
  0
LINE
  5
328
100
AcDbEntity
  8
BORDER
  6
CONTINUOUS
 62
     2
100
AcDbLine
 39
96.0
 10
38.495978
 20
17.98608
 30
0.0
 11
38.495978
 21
17.98608
 31
0.0
  0
LINE
  5
329
100
AcDbEntity
  8
BORDER
  6
CONTINUOUS
 62
     2
100
AcDbLine
 39
96.0
 10
38.027228
 20
17.98608
 30
0.0
 11
38.027228
 21
17.98608
 31
0.0
  0
LINE
  5
32A
100
AcDbEntity
  8
BORDER
  6
CONTINUOUS
 62
     2
100
AcDbLine
 39
96.0
 10
37.558478
 20
17.98608
 30
0.0
 11
37.558478
 21
17.98608
 31
0.0
  0
LINE
  5
32B
100
AcDbEntity
  8
BORDER
  6
CONTINUOUS
 62
     2
100
AcDbLine
 39
96.0
 10
39.199098
 20
18.45483
 30
0.0
 11
39.199098
 21
18.45483
 31
0.0
  0
LINE
  5
32C
100
AcDbEntity
  8
BORDER
  6
CONTINUOUS
 62
     2
100
AcDbLine
 39
96.0
 10
38.730348
 20
18.45483
 30
0.0
 11
38.730348
 21
18.45483
 31
0.0
  0
LINE
  5
32D
100
AcDbEntity
  8
BORDER
  6
CONTINUOUS
 62
     2
100
AcDbLine
 39
96.0
 10
38.261598
 20
18.45483
 30
0.0
 11
38.261598
 21
18.45483
 31
0.0
  0
LINE
  5
32E
100
AcDbEntity
  8
BORDER
  6
CONTINUOUS
 62
     2
100
AcDbLine
 39
96.0
 10
37.792848
 20
18.45483
 30
0.0
 11
37.792848
 21
18.45483
 31
0.0
  0
LINE
  5
32F
100
AcDbEntity
  8
BORDER
  6
CONTINUOUS
 62
     2
100
AcDbLine
 39
96.0
 10
38.964728
 20
18.92358
 30
0.0
 11
38.964728
 21
18.92358
 31
0.0
  0
LINE
  5
330
100
AcDbEntity
  8
BORDER
  6
CONTINUOUS
 62
     2
100
AcDbLine
 39
96.0
 10
38.495978
 20
18.92358
 30
0.0
 11
38.495978
 21
18.92358
 31
0.0
  0
LINE
  5
331
100
AcDbEntity
  8
BORDER
  6
CONTINUOUS
 62
     2
100
AcDbLine
 39
96.0
 10
38.027228
 20
18.92358
 30
0.0
 11
38.027228
 21
18.92358
 31
0.0
  0
LINE
  5
332
100
AcDbEntity
  8
BORDER
  6
CONTINUOUS
 62
     2
100
AcDbLine
 39
96.0
 10
37.558478
 20
18.92358
 30
0.0
 11
37.558478
 21
18.92358
 31
0.0
  0
LINE
  5
333
100
AcDbEntity
  8
BORDER
  6
CONTINUOUS
 62
     2
100
AcDbLine
 39
96.0
 10
39.199098
 20
19.39233
 30
0.0
 11
39.199098
 21
19.39233
 31
0.0
  0
LINE
  5
334
100
AcDbEntity
  8
BORDER
  6
CONTINUOUS
 62
     2
100
AcDbLine
 39
96.0
 10
38.730348
 20
19.39233
 30
0.0
 11
38.730348
 21
19.39233
 31
0.0
  0
LINE
  5
335
100
AcDbEntity
  8
BORDER
  6
CONTINUOUS
 62
     2
100
AcDbLine
 39
96.0
 10
38.261598
 20
19.39233
 30
0.0
 11
38.261598
 21
19.39233
 31
0.0
  0
LINE
  5
336
100
AcDbEntity
  8
BORDER
  6
CONTINUOUS
 62
     2
100
AcDbLine
 39
96.0
 10
37.792848
 20
19.39233
 30
0.0
 11
37.792848
 21
19.39233
 31
0.0
  0
LINE
  5
337
100
AcDbEntity
  8
BORDER
  6
CONTINUOUS
 62
     2
100
AcDbLine
 39
96.0
 10
38.964728
 20
19.86108
 30
0.0
 11
38.964728
 21
19.86108
 31
0.0
  0
LINE
  5
338
100
AcDbEntity
  8
BORDER
  6
CONTINUOUS
 62
     2
100
AcDbLine
 39
96.0
 10
38.495978
 20
19.86108
 30
0.0
 11
38.495978
 21
19.86108
 31
0.0
  0
LINE
  5
339
100
AcDbEntity
  8
BORDER
  6
CONTINUOUS
 62
     2
100
AcDbLine
 39
96.0
 10
38.027228
 20
19.86108
 30
0.0
 11
38.027228
 21
19.86108
 31
0.0
  0
LINE
  5
33A
100
AcDbEntity
  8
BORDER
  6
CONTINUOUS
 62
     2
100
AcDbLine
 39
96.0
 10
37.558478
 20
19.86108
 30
0.0
 11
37.558478
 21
19.86108
 31
0.0
  0
LINE
  5
33B
100
AcDbEntity
  8
BORDER
  6
CONTINUOUS
 62
     2
100
AcDbLine
 39
96.0
 10
39.199098
 20
20.32983
 30
0.0
 11
39.199098
 21
20.32983
 31
0.0
  0
LINE
  5
33C
100
AcDbEntity
  8
BORDER
  6
CONTINUOUS
 62
     2
100
AcDbLine
 39
96.0
 10
38.730348
 20
20.32983
 30
0.0
 11
38.730348
 21
20.32983
 31
0.0
  0
LINE
  5
33D
100
AcDbEntity
  8
BORDER
  6
CONTINUOUS
 62
     2
100
AcDbLine
 39
96.0
 10
38.261598
 20
20.32983
 30
0.0
 11
38.261598
 21
20.32983
 31
0.0
  0
LINE
  5
33E
100
AcDbEntity
  8
BORDER
  6
CONTINUOUS
 62
     2
100
AcDbLine
 39
96.0
 10
37.792848
 20
20.32983
 30
0.0
 11
37.792848
 21
20.32983
 31
0.0
  0
LINE
  5
33F
100
AcDbEntity
  8
BORDER
  6
CONTINUOUS
 62
     2
100
AcDbLine
 39
96.0
 10
38.964728
 20
20.79858
 30
0.0
 11
38.964728
 21
20.79858
 31
0.0
  0
LINE
  5
340
100
AcDbEntity
  8
BORDER
  6
CONTINUOUS
 62
     2
100
AcDbLine
 39
96.0
 10
38.495978
 20
20.79858
 30
0.0
 11
38.495978
 21
20.79858
 31
0.0
  0
LINE
  5
341
100
AcDbEntity
  8
BORDER
  6
CONTINUOUS
 62
     2
100
AcDbLine
 39
96.0
 10
38.027228
 20
20.79858
 30
0.0
 11
38.027228
 21
20.79858
 31
0.0
  0
LINE
  5
342
100
AcDbEntity
  8
BORDER
  6
CONTINUOUS
 62
     2
100
AcDbLine
 39
96.0
 10
37.558478
 20
20.79858
 30
0.0
 11
37.558478
 21
20.79858
 31
0.0
  0
LINE
  5
343
100
AcDbEntity
  8
BORDER
  6
CONTINUOUS
 62
     2
100
AcDbLine
 39
96.0
 10
39.199098
 20
21.26733
 30
0.0
 11
39.199098
 21
21.26733
 31
0.0
  0
LINE
  5
344
100
AcDbEntity
  8
BORDER
  6
CONTINUOUS
 62
     2
100
AcDbLine
 39
96.0
 10
38.730348
 20
21.26733
 30
0.0
 11
38.730348
 21
21.26733
 31
0.0
  0
LINE
  5
345
100
AcDbEntity
  8
BORDER
  6
CONTINUOUS
 62
     2
100
AcDbLine
 39
96.0
 10
38.261598
 20
21.26733
 30
0.0
 11
38.261598
 21
21.26733
 31
0.0
  0
LINE
  5
346
100
AcDbEntity
  8
BORDER
  6
CONTINUOUS
 62
     2
100
AcDbLine
 39
96.0
 10
37.792848
 20
21.26733
 30
0.0
 11
37.792848
 21
21.26733
 31
0.0
  0
LINE
  5
347
100
AcDbEntity
  8
BORDER
  6
CONTINUOUS
 62
     2
100
AcDbLine
 39
96.0
 10
38.964728
 20
21.73608
 30
0.0
 11
38.964728
 21
21.73608
 31
0.0
  0
LINE
  5
348
100
AcDbEntity
  8
BORDER
  6
CONTINUOUS
 62
     2
100
AcDbLine
 39
96.0
 10
38.495978
 20
21.73608
 30
0.0
 11
38.495978
 21
21.73608
 31
0.0
  0
LINE
  5
349
100
AcDbEntity
  8
BORDER
  6
CONTINUOUS
 62
     2
100
AcDbLine
 39
96.0
 10
38.027228
 20
21.73608
 30
0.0
 11
38.027228
 21
21.73608
 31
0.0
  0
LINE
  5
34A
100
AcDbEntity
  8
BORDER
  6
CONTINUOUS
 62
     2
100
AcDbLine
 39
96.0
 10
37.558478
 20
21.73608
 30
0.0
 11
37.558478
 21
21.73608
 31
0.0
  0
LINE
  5
34B
100
AcDbEntity
  8
BORDER
  6
CONTINUOUS
 62
     2
100
AcDbLine
 39
96.0
 10
39.199098
 20
22.20483
 30
0.0
 11
39.199098
 21
22.20483
 31
0.0
  0
LINE
  5
34C
100
AcDbEntity
  8
BORDER
  6
CONTINUOUS
 62
     2
100
AcDbLine
 39
96.0
 10
38.730348
 20
22.20483
 30
0.0
 11
38.730348
 21
22.20483
 31
0.0
  0
LINE
  5
34D
100
AcDbEntity
  8
BORDER
  6
CONTINUOUS
 62
     2
100
AcDbLine
 39
96.0
 10
38.261598
 20
22.20483
 30
0.0
 11
38.261598
 21
22.20483
 31
0.0
  0
LINE
  5
34E
100
AcDbEntity
  8
BORDER
  6
CONTINUOUS
 62
     2
100
AcDbLine
 39
96.0
 10
37.792848
 20
22.20483
 30
0.0
 11
37.792848
 21
22.20483
 31
0.0
  0
LINE
  5
34F
100
AcDbEntity
  8
BORDER
  6
CONTINUOUS
 62
     2
100
AcDbLine
 39
96.0
 10
38.964728
 20
22.67358
 30
0.0
 11
38.964728
 21
22.67358
 31
0.0
  0
LINE
  5
350
100
AcDbEntity
  8
BORDER
  6
CONTINUOUS
 62
     2
100
AcDbLine
 39
96.0
 10
38.495978
 20
22.67358
 30
0.0
 11
38.495978
 21
22.67358
 31
0.0
  0
LINE
  5
351
100
AcDbEntity
  8
BORDER
  6
CONTINUOUS
 62
     2
100
AcDbLine
 39
96.0
 10
38.027228
 20
22.67358
 30
0.0
 11
38.027228
 21
22.67358
 31
0.0
  0
LINE
  5
352
100
AcDbEntity
  8
BORDER
  6
CONTINUOUS
 62
     2
100
AcDbLine
 39
96.0
 10
37.558478
 20
22.67358
 30
0.0
 11
37.558478
 21
22.67358
 31
0.0
  0
LINE
  5
353
100
AcDbEntity
  8
BORDER
  6
CONTINUOUS
 62
     2
100
AcDbLine
 39
96.0
 10
39.199098
 20
23.14233
 30
0.0
 11
39.199098
 21
23.14233
 31
0.0
  0
LINE
  5
354
100
AcDbEntity
  8
BORDER
  6
CONTINUOUS
 62
     2
100
AcDbLine
 39
96.0
 10
38.730348
 20
23.14233
 30
0.0
 11
38.730348
 21
23.14233
 31
0.0
  0
LINE
  5
355
100
AcDbEntity
  8
BORDER
  6
CONTINUOUS
 62
     2
100
AcDbLine
 39
96.0
 10
38.261598
 20
23.14233
 30
0.0
 11
38.261598
 21
23.14233
 31
0.0
  0
LINE
  5
356
100
AcDbEntity
  8
BORDER
  6
CONTINUOUS
 62
     2
100
AcDbLine
 39
96.0
 10
37.792848
 20
23.14233
 30
0.0
 11
37.792848
 21
23.14233
 31
0.0
  0
LINE
  5
357
100
AcDbEntity
  8
BORDER
  6
CONTINUOUS
 62
     2
100
AcDbLine
 39
96.0
 10
38.964728
 20
23.61108
 30
0.0
 11
38.964728
 21
23.61108
 31
0.0
  0
LINE
  5
358
100
AcDbEntity
  8
BORDER
  6
CONTINUOUS
 62
     2
100
AcDbLine
 39
96.0
 10
38.495978
 20
23.61108
 30
0.0
 11
38.495978
 21
23.61108
 31
0.0
  0
LINE
  5
359
100
AcDbEntity
  8
BORDER
  6
CONTINUOUS
 62
     2
100
AcDbLine
 39
96.0
 10
38.027228
 20
23.61108
 30
0.0
 11
38.027228
 21
23.61108
 31
0.0
  0
LINE
  5
35A
100
AcDbEntity
  8
BORDER
  6
CONTINUOUS
 62
     2
100
AcDbLine
 39
96.0
 10
37.558478
 20
23.61108
 30
0.0
 11
37.558478
 21
23.61108
 31
0.0
  0
LINE
  5
35B
100
AcDbEntity
  8
BORDER
  6
CONTINUOUS
 62
     2
100
AcDbLine
 39
96.0
 10
39.199098
 20
24.07983
 30
0.0
 11
39.199098
 21
24.07983
 31
0.0
  0
LINE
  5
35C
100
AcDbEntity
  8
BORDER
  6
CONTINUOUS
 62
     2
100
AcDbLine
 39
96.0
 10
38.730348
 20
24.07983
 30
0.0
 11
38.730348
 21
24.07983
 31
0.0
  0
LINE
  5
35D
100
AcDbEntity
  8
BORDER
  6
CONTINUOUS
 62
     2
100
AcDbLine
 39
96.0
 10
38.261598
 20
24.07983
 30
0.0
 11
38.261598
 21
24.07983
 31
0.0
  0
LINE
  5
35E
100
AcDbEntity
  8
BORDER
  6
CONTINUOUS
 62
     2
100
AcDbLine
 39
96.0
 10
37.792848
 20
24.07983
 30
0.0
 11
37.792848
 21
24.07983
 31
0.0
  0
LINE
  5
35F
100
AcDbEntity
  8
BORDER
  6
CONTINUOUS
 62
     2
100
AcDbLine
 39
96.0
 10
38.964728
 20
24.54858
 30
0.0
 11
38.964728
 21
24.54858
 31
0.0
  0
LINE
  5
360
100
AcDbEntity
  8
BORDER
  6
CONTINUOUS
 62
     2
100
AcDbLine
 39
96.0
 10
38.495978
 20
24.54858
 30
0.0
 11
38.495978
 21
24.54858
 31
0.0
  0
LINE
  5
361
100
AcDbEntity
  8
BORDER
  6
CONTINUOUS
 62
     2
100
AcDbLine
 39
96.0
 10
38.027228
 20
24.54858
 30
0.0
 11
38.027228
 21
24.54858
 31
0.0
  0
LINE
  5
362
100
AcDbEntity
  8
BORDER
  6
CONTINUOUS
 62
     2
100
AcDbLine
 39
96.0
 10
37.558478
 20
24.54858
 30
0.0
 11
37.558478
 21
24.54858
 31
0.0
  0
LINE
  5
363
100
AcDbEntity
  8
BORDER
  6
CONTINUOUS
 62
     2
100
AcDbLine
 39
96.0
 10
31.230348
 20
10.01733
 30
0.0
 11
31.230348
 21
10.01733
 31
0.0
  0
LINE
  5
364
100
AcDbEntity
  8
BORDER
  6
CONTINUOUS
 62
     2
100
AcDbLine
 39
96.0
 10
30.761598
 20
10.01733
 30
0.0
 11
30.761598
 21
10.01733
 31
0.0
  0
LINE
  5
365
100
AcDbEntity
  8
BORDER
  6
CONTINUOUS
 62
     2
100
AcDbLine
 39
96.0
 10
30.292848
 20
10.01733
 30
0.0
 11
30.292848
 21
10.01733
 31
0.0
  0
LINE
  5
366
100
AcDbEntity
  8
BORDER
  6
CONTINUOUS
 62
     2
100
AcDbLine
 39
96.0
 10
29.824098
 20
10.01733
 30
0.0
 11
29.824098
 21
10.01733
 31
0.0
  0
LINE
  5
367
100
AcDbEntity
  8
BORDER
  6
CONTINUOUS
 62
     2
100
AcDbLine
 39
96.0
 10
30.995978
 20
10.48608
 30
0.0
 11
30.995978
 21
10.48608
 31
0.0
  0
LINE
  5
368
100
AcDbEntity
  8
BORDER
  6
CONTINUOUS
 62
     2
100
AcDbLine
 39
96.0
 10
30.527228
 20
10.48608
 30
0.0
 11
30.527228
 21
10.48608
 31
0.0
  0
LINE
  5
369
100
AcDbEntity
  8
BORDER
  6
CONTINUOUS
 62
     2
100
AcDbLine
 39
96.0
 10
30.058478
 20
10.48608
 30
0.0
 11
30.058478
 21
10.48608
 31
0.0
  0
LINE
  5
36A
100
AcDbEntity
  8
BORDER
  6
CONTINUOUS
 62
     2
100
AcDbLine
 39
96.0
 10
29.589728
 20
10.48608
 30
0.0
 11
29.589728
 21
10.48608
 31
0.0
  0
LINE
  5
36B
100
AcDbEntity
  8
BORDER
  6
CONTINUOUS
 62
     2
100
AcDbLine
 39
96.0
 10
31.230348
 20
10.95483
 30
0.0
 11
31.230348
 21
10.95483
 31
0.0
  0
LINE
  5
36C
100
AcDbEntity
  8
BORDER
  6
CONTINUOUS
 62
     2
100
AcDbLine
 39
96.0
 10
30.761598
 20
10.95483
 30
0.0
 11
30.761598
 21
10.95483
 31
0.0
  0
LINE
  5
36D
100
AcDbEntity
  8
BORDER
  6
CONTINUOUS
 62
     2
100
AcDbLine
 39
96.0
 10
30.292848
 20
10.95483
 30
0.0
 11
30.292848
 21
10.95483
 31
0.0
  0
LINE
  5
36E
100
AcDbEntity
  8
BORDER
  6
CONTINUOUS
 62
     2
100
AcDbLine
 39
96.0
 10
29.824098
 20
10.95483
 30
0.0
 11
29.824098
 21
10.95483
 31
0.0
  0
LINE
  5
36F
100
AcDbEntity
  8
BORDER
  6
CONTINUOUS
 62
     2
100
AcDbLine
 39
96.0
 10
30.995978
 20
11.42358
 30
0.0
 11
30.995978
 21
11.42358
 31
0.0
  0
LINE
  5
370
100
AcDbEntity
  8
BORDER
  6
CONTINUOUS
 62
     2
100
AcDbLine
 39
96.0
 10
30.527228
 20
11.42358
 30
0.0
 11
30.527228
 21
11.42358
 31
0.0
  0
LINE
  5
371
100
AcDbEntity
  8
BORDER
  6
CONTINUOUS
 62
     2
100
AcDbLine
 39
96.0
 10
30.058478
 20
11.42358
 30
0.0
 11
30.058478
 21
11.42358
 31
0.0
  0
LINE
  5
372
100
AcDbEntity
  8
BORDER
  6
CONTINUOUS
 62
     2
100
AcDbLine
 39
96.0
 10
29.589728
 20
11.42358
 30
0.0
 11
29.589728
 21
11.42358
 31
0.0
  0
LINE
  5
373
100
AcDbEntity
  8
BORDER
  6
CONTINUOUS
 62
     2
100
AcDbLine
 39
96.0
 10
31.230348
 20
11.89233
 30
0.0
 11
31.230348
 21
11.89233
 31
0.0
  0
LINE
  5
374
100
AcDbEntity
  8
BORDER
  6
CONTINUOUS
 62
     2
100
AcDbLine
 39
96.0
 10
30.761598
 20
11.89233
 30
0.0
 11
30.761598
 21
11.89233
 31
0.0
  0
LINE
  5
375
100
AcDbEntity
  8
BORDER
  6
CONTINUOUS
 62
     2
100
AcDbLine
 39
96.0
 10
30.292848
 20
11.89233
 30
0.0
 11
30.292848
 21
11.89233
 31
0.0
  0
LINE
  5
376
100
AcDbEntity
  8
BORDER
  6
CONTINUOUS
 62
     2
100
AcDbLine
 39
96.0
 10
29.824098
 20
11.89233
 30
0.0
 11
29.824098
 21
11.89233
 31
0.0
  0
LINE
  5
377
100
AcDbEntity
  8
BORDER
  6
CONTINUOUS
 62
     2
100
AcDbLine
 39
96.0
 10
30.995978
 20
12.36108
 30
0.0
 11
30.995978
 21
12.36108
 31
0.0
  0
LINE
  5
378
100
AcDbEntity
  8
BORDER
  6
CONTINUOUS
 62
     2
100
AcDbLine
 39
96.0
 10
30.527228
 20
12.36108
 30
0.0
 11
30.527228
 21
12.36108
 31
0.0
  0
LINE
  5
379
100
AcDbEntity
  8
BORDER
  6
CONTINUOUS
 62
     2
100
AcDbLine
 39
96.0
 10
30.058478
 20
12.36108
 30
0.0
 11
30.058478
 21
12.36108
 31
0.0
  0
LINE
  5
37A
100
AcDbEntity
  8
BORDER
  6
CONTINUOUS
 62
     2
100
AcDbLine
 39
96.0
 10
29.589728
 20
12.36108
 30
0.0
 11
29.589728
 21
12.36108
 31
0.0
  0
LINE
  5
37B
100
AcDbEntity
  8
BORDER
  6
CONTINUOUS
 62
     2
100
AcDbLine
 39
96.0
 10
31.230348
 20
12.82983
 30
0.0
 11
31.230348
 21
12.82983
 31
0.0
  0
LINE
  5
37C
100
AcDbEntity
  8
BORDER
  6
CONTINUOUS
 62
     2
100
AcDbLine
 39
96.0
 10
30.761598
 20
12.82983
 30
0.0
 11
30.761598
 21
12.82983
 31
0.0
  0
LINE
  5
37D
100
AcDbEntity
  8
BORDER
  6
CONTINUOUS
 62
     2
100
AcDbLine
 39
96.0
 10
30.292848
 20
12.82983
 30
0.0
 11
30.292848
 21
12.82983
 31
0.0
  0
LINE
  5
37E
100
AcDbEntity
  8
BORDER
  6
CONTINUOUS
 62
     2
100
AcDbLine
 39
96.0
 10
29.824098
 20
12.82983
 30
0.0
 11
29.824098
 21
12.82983
 31
0.0
  0
LINE
  5
37F
100
AcDbEntity
  8
BORDER
  6
CONTINUOUS
 62
     2
100
AcDbLine
 39
96.0
 10
30.995978
 20
13.29858
 30
0.0
 11
30.995978
 21
13.29858
 31
0.0
  0
LINE
  5
380
100
AcDbEntity
  8
BORDER
  6
CONTINUOUS
 62
     2
100
AcDbLine
 39
96.0
 10
30.527228
 20
13.29858
 30
0.0
 11
30.527228
 21
13.29858
 31
0.0
  0
LINE
  5
381
100
AcDbEntity
  8
BORDER
  6
CONTINUOUS
 62
     2
100
AcDbLine
 39
96.0
 10
30.058478
 20
13.29858
 30
0.0
 11
30.058478
 21
13.29858
 31
0.0
  0
LINE
  5
382
100
AcDbEntity
  8
BORDER
  6
CONTINUOUS
 62
     2
100
AcDbLine
 39
96.0
 10
29.589728
 20
13.29858
 30
0.0
 11
29.589728
 21
13.29858
 31
0.0
  0
LINE
  5
383
100
AcDbEntity
  8
BORDER
  6
CONTINUOUS
 62
     2
100
AcDbLine
 39
96.0
 10
31.230348
 20
13.76733
 30
0.0
 11
31.230348
 21
13.76733
 31
0.0
  0
LINE
  5
384
100
AcDbEntity
  8
BORDER
  6
CONTINUOUS
 62
     2
100
AcDbLine
 39
96.0
 10
30.761598
 20
13.76733
 30
0.0
 11
30.761598
 21
13.76733
 31
0.0
  0
LINE
  5
385
100
AcDbEntity
  8
BORDER
  6
CONTINUOUS
 62
     2
100
AcDbLine
 39
96.0
 10
30.292848
 20
13.76733
 30
0.0
 11
30.292848
 21
13.76733
 31
0.0
  0
LINE
  5
386
100
AcDbEntity
  8
BORDER
  6
CONTINUOUS
 62
     2
100
AcDbLine
 39
96.0
 10
29.824098
 20
13.76733
 30
0.0
 11
29.824098
 21
13.76733
 31
0.0
  0
LINE
  5
387
100
AcDbEntity
  8
BORDER
  6
CONTINUOUS
 62
     2
100
AcDbLine
 39
96.0
 10
30.995978
 20
14.23608
 30
0.0
 11
30.995978
 21
14.23608
 31
0.0
  0
LINE
  5
388
100
AcDbEntity
  8
BORDER
  6
CONTINUOUS
 62
     2
100
AcDbLine
 39
96.0
 10
30.527228
 20
14.23608
 30
0.0
 11
30.527228
 21
14.23608
 31
0.0
  0
LINE
  5
389
100
AcDbEntity
  8
BORDER
  6
CONTINUOUS
 62
     2
100
AcDbLine
 39
96.0
 10
30.058478
 20
14.23608
 30
0.0
 11
30.058478
 21
14.23608
 31
0.0
  0
LINE
  5
38A
100
AcDbEntity
  8
BORDER
  6
CONTINUOUS
 62
     2
100
AcDbLine
 39
96.0
 10
29.589728
 20
14.23608
 30
0.0
 11
29.589728
 21
14.23608
 31
0.0
  0
LINE
  5
38B
100
AcDbEntity
  8
BORDER
  6
CONTINUOUS
 62
     2
100
AcDbLine
 39
96.0
 10
31.230348
 20
14.70483
 30
0.0
 11
31.230348
 21
14.70483
 31
0.0
  0
LINE
  5
38C
100
AcDbEntity
  8
BORDER
  6
CONTINUOUS
 62
     2
100
AcDbLine
 39
96.0
 10
30.761598
 20
14.70483
 30
0.0
 11
30.761598
 21
14.70483
 31
0.0
  0
LINE
  5
38D
100
AcDbEntity
  8
BORDER
  6
CONTINUOUS
 62
     2
100
AcDbLine
 39
96.0
 10
30.292848
 20
14.70483
 30
0.0
 11
30.292848
 21
14.70483
 31
0.0
  0
LINE
  5
38E
100
AcDbEntity
  8
BORDER
  6
CONTINUOUS
 62
     2
100
AcDbLine
 39
96.0
 10
29.824098
 20
14.70483
 30
0.0
 11
29.824098
 21
14.70483
 31
0.0
  0
LINE
  5
38F
100
AcDbEntity
  8
BORDER
  6
CONTINUOUS
 62
     2
100
AcDbLine
 39
96.0
 10
30.995978
 20
15.17358
 30
0.0
 11
30.995978
 21
15.17358
 31
0.0
  0
LINE
  5
390
100
AcDbEntity
  8
BORDER
  6
CONTINUOUS
 62
     2
100
AcDbLine
 39
96.0
 10
30.527228
 20
15.17358
 30
0.0
 11
30.527228
 21
15.17358
 31
0.0
  0
LINE
  5
391
100
AcDbEntity
  8
BORDER
  6
CONTINUOUS
 62
     2
100
AcDbLine
 39
96.0
 10
30.058478
 20
15.17358
 30
0.0
 11
30.058478
 21
15.17358
 31
0.0
  0
LINE
  5
392
100
AcDbEntity
  8
BORDER
  6
CONTINUOUS
 62
     2
100
AcDbLine
 39
96.0
 10
29.589728
 20
15.17358
 30
0.0
 11
29.589728
 21
15.17358
 31
0.0
  0
LINE
  5
393
100
AcDbEntity
  8
BORDER
  6
CONTINUOUS
 62
     2
100
AcDbLine
 39
96.0
 10
31.230348
 20
15.64233
 30
0.0
 11
31.230348
 21
15.64233
 31
0.0
  0
LINE
  5
394
100
AcDbEntity
  8
BORDER
  6
CONTINUOUS
 62
     2
100
AcDbLine
 39
96.0
 10
30.761598
 20
15.64233
 30
0.0
 11
30.761598
 21
15.64233
 31
0.0
  0
LINE
  5
395
100
AcDbEntity
  8
BORDER
  6
CONTINUOUS
 62
     2
100
AcDbLine
 39
96.0
 10
30.292848
 20
15.64233
 30
0.0
 11
30.292848
 21
15.64233
 31
0.0
  0
LINE
  5
396
100
AcDbEntity
  8
BORDER
  6
CONTINUOUS
 62
     2
100
AcDbLine
 39
96.0
 10
29.824098
 20
15.64233
 30
0.0
 11
29.824098
 21
15.64233
 31
0.0
  0
LINE
  5
397
100
AcDbEntity
  8
BORDER
  6
CONTINUOUS
 62
     2
100
AcDbLine
 39
96.0
 10
30.995978
 20
16.11108
 30
0.0
 11
30.995978
 21
16.11108
 31
0.0
  0
LINE
  5
398
100
AcDbEntity
  8
BORDER
  6
CONTINUOUS
 62
     2
100
AcDbLine
 39
96.0
 10
30.527228
 20
16.11108
 30
0.0
 11
30.527228
 21
16.11108
 31
0.0
  0
LINE
  5
399
100
AcDbEntity
  8
BORDER
  6
CONTINUOUS
 62
     2
100
AcDbLine
 39
96.0
 10
30.058478
 20
16.11108
 30
0.0
 11
30.058478
 21
16.11108
 31
0.0
  0
LINE
  5
39A
100
AcDbEntity
  8
BORDER
  6
CONTINUOUS
 62
     2
100
AcDbLine
 39
96.0
 10
29.589728
 20
16.11108
 30
0.0
 11
29.589728
 21
16.11108
 31
0.0
  0
LINE
  5
39B
100
AcDbEntity
  8
BORDER
  6
CONTINUOUS
 62
     2
100
AcDbLine
 39
96.0
 10
31.230348
 20
16.57983
 30
0.0
 11
31.230348
 21
16.57983
 31
0.0
  0
LINE
  5
39C
100
AcDbEntity
  8
BORDER
  6
CONTINUOUS
 62
     2
100
AcDbLine
 39
96.0
 10
30.761598
 20
16.57983
 30
0.0
 11
30.761598
 21
16.57983
 31
0.0
  0
LINE
  5
39D
100
AcDbEntity
  8
BORDER
  6
CONTINUOUS
 62
     2
100
AcDbLine
 39
96.0
 10
30.292848
 20
16.57983
 30
0.0
 11
30.292848
 21
16.57983
 31
0.0
  0
LINE
  5
39E
100
AcDbEntity
  8
BORDER
  6
CONTINUOUS
 62
     2
100
AcDbLine
 39
96.0
 10
29.824098
 20
16.57983
 30
0.0
 11
29.824098
 21
16.57983
 31
0.0
  0
LINE
  5
39F
100
AcDbEntity
  8
BORDER
  6
CONTINUOUS
 62
     2
100
AcDbLine
 39
96.0
 10
30.995978
 20
17.04858
 30
0.0
 11
30.995978
 21
17.04858
 31
0.0
  0
LINE
  5
3A0
100
AcDbEntity
  8
BORDER
  6
CONTINUOUS
 62
     2
100
AcDbLine
 39
96.0
 10
30.527228
 20
17.04858
 30
0.0
 11
30.527228
 21
17.04858
 31
0.0
  0
LINE
  5
3A1
100
AcDbEntity
  8
BORDER
  6
CONTINUOUS
 62
     2
100
AcDbLine
 39
96.0
 10
30.058478
 20
17.04858
 30
0.0
 11
30.058478
 21
17.04858
 31
0.0
  0
LINE
  5
3A2
100
AcDbEntity
  8
BORDER
  6
CONTINUOUS
 62
     2
100
AcDbLine
 39
96.0
 10
29.589728
 20
17.04858
 30
0.0
 11
29.589728
 21
17.04858
 31
0.0
  0
LINE
  5
3A3
100
AcDbEntity
  8
BORDER
  6
CONTINUOUS
 62
     2
100
AcDbLine
 39
96.0
 10
31.230348
 20
17.51733
 30
0.0
 11
31.230348
 21
17.51733
 31
0.0
  0
LINE
  5
3A4
100
AcDbEntity
  8
BORDER
  6
CONTINUOUS
 62
     2
100
AcDbLine
 39
96.0
 10
30.761598
 20
17.51733
 30
0.0
 11
30.761598
 21
17.51733
 31
0.0
  0
LINE
  5
3A5
100
AcDbEntity
  8
BORDER
  6
CONTINUOUS
 62
     2
100
AcDbLine
 39
96.0
 10
30.292848
 20
17.51733
 30
0.0
 11
30.292848
 21
17.51733
 31
0.0
  0
LINE
  5
3A6
100
AcDbEntity
  8
BORDER
  6
CONTINUOUS
 62
     2
100
AcDbLine
 39
96.0
 10
29.824098
 20
17.51733
 30
0.0
 11
29.824098
 21
17.51733
 31
0.0
  0
LINE
  5
3A7
100
AcDbEntity
  8
BORDER
  6
CONTINUOUS
 62
     2
100
AcDbLine
 39
96.0
 10
30.995978
 20
17.98608
 30
0.0
 11
30.995978
 21
17.98608
 31
0.0
  0
LINE
  5
3A8
100
AcDbEntity
  8
BORDER
  6
CONTINUOUS
 62
     2
100
AcDbLine
 39
96.0
 10
30.527228
 20
17.98608
 30
0.0
 11
30.527228
 21
17.98608
 31
0.0
  0
LINE
  5
3A9
100
AcDbEntity
  8
BORDER
  6
CONTINUOUS
 62
     2
100
AcDbLine
 39
96.0
 10
30.058478
 20
17.98608
 30
0.0
 11
30.058478
 21
17.98608
 31
0.0
  0
LINE
  5
3AA
100
AcDbEntity
  8
BORDER
  6
CONTINUOUS
 62
     2
100
AcDbLine
 39
96.0
 10
29.589728
 20
17.98608
 30
0.0
 11
29.589728
 21
17.98608
 31
0.0
  0
LINE
  5
3AB
100
AcDbEntity
  8
BORDER
  6
CONTINUOUS
 62
     2
100
AcDbLine
 39
96.0
 10
31.230348
 20
18.45483
 30
0.0
 11
31.230348
 21
18.45483
 31
0.0
  0
LINE
  5
3AC
100
AcDbEntity
  8
BORDER
  6
CONTINUOUS
 62
     2
100
AcDbLine
 39
96.0
 10
30.761598
 20
18.45483
 30
0.0
 11
30.761598
 21
18.45483
 31
0.0
  0
LINE
  5
3AD
100
AcDbEntity
  8
BORDER
  6
CONTINUOUS
 62
     2
100
AcDbLine
 39
96.0
 10
30.292848
 20
18.45483
 30
0.0
 11
30.292848
 21
18.45483
 31
0.0
  0
LINE
  5
3AE
100
AcDbEntity
  8
BORDER
  6
CONTINUOUS
 62
     2
100
AcDbLine
 39
96.0
 10
29.824098
 20
18.45483
 30
0.0
 11
29.824098
 21
18.45483
 31
0.0
  0
LINE
  5
3AF
100
AcDbEntity
  8
BORDER
  6
CONTINUOUS
 62
     2
100
AcDbLine
 39
96.0
 10
30.995978
 20
18.92358
 30
0.0
 11
30.995978
 21
18.92358
 31
0.0
  0
LINE
  5
3B0
100
AcDbEntity
  8
BORDER
  6
CONTINUOUS
 62
     2
100
AcDbLine
 39
96.0
 10
30.527228
 20
18.92358
 30
0.0
 11
30.527228
 21
18.92358
 31
0.0
  0
LINE
  5
3B1
100
AcDbEntity
  8
BORDER
  6
CONTINUOUS
 62
     2
100
AcDbLine
 39
96.0
 10
30.058478
 20
18.92358
 30
0.0
 11
30.058478
 21
18.92358
 31
0.0
  0
LINE
  5
3B2
100
AcDbEntity
  8
BORDER
  6
CONTINUOUS
 62
     2
100
AcDbLine
 39
96.0
 10
29.589728
 20
18.92358
 30
0.0
 11
29.589728
 21
18.92358
 31
0.0
  0
LINE
  5
3B3
100
AcDbEntity
  8
BORDER
  6
CONTINUOUS
 62
     2
100
AcDbLine
 39
96.0
 10
31.230348
 20
19.39233
 30
0.0
 11
31.230348
 21
19.39233
 31
0.0
  0
LINE
  5
3B4
100
AcDbEntity
  8
BORDER
  6
CONTINUOUS
 62
     2
100
AcDbLine
 39
96.0
 10
30.761598
 20
19.39233
 30
0.0
 11
30.761598
 21
19.39233
 31
0.0
  0
LINE
  5
3B5
100
AcDbEntity
  8
BORDER
  6
CONTINUOUS
 62
     2
100
AcDbLine
 39
96.0
 10
30.292848
 20
19.39233
 30
0.0
 11
30.292848
 21
19.39233
 31
0.0
  0
LINE
  5
3B6
100
AcDbEntity
  8
BORDER
  6
CONTINUOUS
 62
     2
100
AcDbLine
 39
96.0
 10
29.824098
 20
19.39233
 30
0.0
 11
29.824098
 21
19.39233
 31
0.0
  0
LINE
  5
3B7
100
AcDbEntity
  8
BORDER
  6
CONTINUOUS
 62
     2
100
AcDbLine
 39
96.0
 10
30.995978
 20
19.86108
 30
0.0
 11
30.995978
 21
19.86108
 31
0.0
  0
LINE
  5
3B8
100
AcDbEntity
  8
BORDER
  6
CONTINUOUS
 62
     2
100
AcDbLine
 39
96.0
 10
30.527228
 20
19.86108
 30
0.0
 11
30.527228
 21
19.86108
 31
0.0
  0
LINE
  5
3B9
100
AcDbEntity
  8
BORDER
  6
CONTINUOUS
 62
     2
100
AcDbLine
 39
96.0
 10
30.058478
 20
19.86108
 30
0.0
 11
30.058478
 21
19.86108
 31
0.0
  0
LINE
  5
3BA
100
AcDbEntity
  8
BORDER
  6
CONTINUOUS
 62
     2
100
AcDbLine
 39
96.0
 10
29.589728
 20
19.86108
 30
0.0
 11
29.589728
 21
19.86108
 31
0.0
  0
LINE
  5
3BB
100
AcDbEntity
  8
BORDER
  6
CONTINUOUS
 62
     2
100
AcDbLine
 39
96.0
 10
31.230348
 20
20.32983
 30
0.0
 11
31.230348
 21
20.32983
 31
0.0
  0
LINE
  5
3BC
100
AcDbEntity
  8
BORDER
  6
CONTINUOUS
 62
     2
100
AcDbLine
 39
96.0
 10
30.761598
 20
20.32983
 30
0.0
 11
30.761598
 21
20.32983
 31
0.0
  0
LINE
  5
3BD
100
AcDbEntity
  8
BORDER
  6
CONTINUOUS
 62
     2
100
AcDbLine
 39
96.0
 10
30.292848
 20
20.32983
 30
0.0
 11
30.292848
 21
20.32983
 31
0.0
  0
LINE
  5
3BE
100
AcDbEntity
  8
BORDER
  6
CONTINUOUS
 62
     2
100
AcDbLine
 39
96.0
 10
29.824098
 20
20.32983
 30
0.0
 11
29.824098
 21
20.32983
 31
0.0
  0
LINE
  5
3BF
100
AcDbEntity
  8
BORDER
  6
CONTINUOUS
 62
     2
100
AcDbLine
 39
96.0
 10
30.995978
 20
20.79858
 30
0.0
 11
30.995978
 21
20.79858
 31
0.0
  0
LINE
  5
3C0
100
AcDbEntity
  8
BORDER
  6
CONTINUOUS
 62
     2
100
AcDbLine
 39
96.0
 10
30.527228
 20
20.79858
 30
0.0
 11
30.527228
 21
20.79858
 31
0.0
  0
LINE
  5
3C1
100
AcDbEntity
  8
BORDER
  6
CONTINUOUS
 62
     2
100
AcDbLine
 39
96.0
 10
30.058478
 20
20.79858
 30
0.0
 11
30.058478
 21
20.79858
 31
0.0
  0
LINE
  5
3C2
100
AcDbEntity
  8
BORDER
  6
CONTINUOUS
 62
     2
100
AcDbLine
 39
96.0
 10
29.589728
 20
20.79858
 30
0.0
 11
29.589728
 21
20.79858
 31
0.0
  0
LINE
  5
3C3
100
AcDbEntity
  8
BORDER
  6
CONTINUOUS
 62
     2
100
AcDbLine
 39
96.0
 10
31.230348
 20
21.26733
 30
0.0
 11
31.230348
 21
21.26733
 31
0.0
  0
LINE
  5
3C4
100
AcDbEntity
  8
BORDER
  6
CONTINUOUS
 62
     2
100
AcDbLine
 39
96.0
 10
30.761598
 20
21.26733
 30
0.0
 11
30.761598
 21
21.26733
 31
0.0
  0
LINE
  5
3C5
100
AcDbEntity
  8
BORDER
  6
CONTINUOUS
 62
     2
100
AcDbLine
 39
96.0
 10
30.292848
 20
21.26733
 30
0.0
 11
30.292848
 21
21.26733
 31
0.0
  0
LINE
  5
3C6
100
AcDbEntity
  8
BORDER
  6
CONTINUOUS
 62
     2
100
AcDbLine
 39
96.0
 10
29.824098
 20
21.26733
 30
0.0
 11
29.824098
 21
21.26733
 31
0.0
  0
LINE
  5
3C7
100
AcDbEntity
  8
BORDER
  6
CONTINUOUS
 62
     2
100
AcDbLine
 39
96.0
 10
30.995978
 20
21.73608
 30
0.0
 11
30.995978
 21
21.73608
 31
0.0
  0
LINE
  5
3C8
100
AcDbEntity
  8
BORDER
  6
CONTINUOUS
 62
     2
100
AcDbLine
 39
96.0
 10
30.527228
 20
21.73608
 30
0.0
 11
30.527228
 21
21.73608
 31
0.0
  0
LINE
  5
3C9
100
AcDbEntity
  8
BORDER
  6
CONTINUOUS
 62
     2
100
AcDbLine
 39
96.0
 10
30.058478
 20
21.73608
 30
0.0
 11
30.058478
 21
21.73608
 31
0.0
  0
LINE
  5
3CA
100
AcDbEntity
  8
BORDER
  6
CONTINUOUS
 62
     2
100
AcDbLine
 39
96.0
 10
29.589728
 20
21.73608
 30
0.0
 11
29.589728
 21
21.73608
 31
0.0
  0
LINE
  5
3CB
100
AcDbEntity
  8
BORDER
  6
CONTINUOUS
 62
     2
100
AcDbLine
 39
96.0
 10
31.230348
 20
22.20483
 30
0.0
 11
31.230348
 21
22.20483
 31
0.0
  0
LINE
  5
3CC
100
AcDbEntity
  8
BORDER
  6
CONTINUOUS
 62
     2
100
AcDbLine
 39
96.0
 10
30.761598
 20
22.20483
 30
0.0
 11
30.761598
 21
22.20483
 31
0.0
  0
LINE
  5
3CD
100
AcDbEntity
  8
BORDER
  6
CONTINUOUS
 62
     2
100
AcDbLine
 39
96.0
 10
30.292848
 20
22.20483
 30
0.0
 11
30.292848
 21
22.20483
 31
0.0
  0
LINE
  5
3CE
100
AcDbEntity
  8
BORDER
  6
CONTINUOUS
 62
     2
100
AcDbLine
 39
96.0
 10
29.824098
 20
22.20483
 30
0.0
 11
29.824098
 21
22.20483
 31
0.0
  0
LINE
  5
3CF
100
AcDbEntity
  8
BORDER
  6
CONTINUOUS
 62
     2
100
AcDbLine
 39
96.0
 10
30.995978
 20
22.67358
 30
0.0
 11
30.995978
 21
22.67358
 31
0.0
  0
LINE
  5
3D0
100
AcDbEntity
  8
BORDER
  6
CONTINUOUS
 62
     2
100
AcDbLine
 39
96.0
 10
30.527228
 20
22.67358
 30
0.0
 11
30.527228
 21
22.67358
 31
0.0
  0
LINE
  5
3D1
100
AcDbEntity
  8
BORDER
  6
CONTINUOUS
 62
     2
100
AcDbLine
 39
96.0
 10
30.058478
 20
22.67358
 30
0.0
 11
30.058478
 21
22.67358
 31
0.0
  0
LINE
  5
3D2
100
AcDbEntity
  8
BORDER
  6
CONTINUOUS
 62
     2
100
AcDbLine
 39
96.0
 10
29.589728
 20
22.67358
 30
0.0
 11
29.589728
 21
22.67358
 31
0.0
  0
LINE
  5
3D3
100
AcDbEntity
  8
BORDER
  6
CONTINUOUS
 62
     2
100
AcDbLine
 39
96.0
 10
31.230348
 20
23.14233
 30
0.0
 11
31.230348
 21
23.14233
 31
0.0
  0
LINE
  5
3D4
100
AcDbEntity
  8
BORDER
  6
CONTINUOUS
 62
     2
100
AcDbLine
 39
96.0
 10
30.761598
 20
23.14233
 30
0.0
 11
30.761598
 21
23.14233
 31
0.0
  0
LINE
  5
3D5
100
AcDbEntity
  8
BORDER
  6
CONTINUOUS
 62
     2
100
AcDbLine
 39
96.0
 10
30.292848
 20
23.14233
 30
0.0
 11
30.292848
 21
23.14233
 31
0.0
  0
LINE
  5
3D6
100
AcDbEntity
  8
BORDER
  6
CONTINUOUS
 62
     2
100
AcDbLine
 39
96.0
 10
29.824098
 20
23.14233
 30
0.0
 11
29.824098
 21
23.14233
 31
0.0
  0
LINE
  5
3D7
100
AcDbEntity
  8
BORDER
  6
CONTINUOUS
 62
     2
100
AcDbLine
 39
96.0
 10
30.995978
 20
23.61108
 30
0.0
 11
30.995978
 21
23.61108
 31
0.0
  0
LINE
  5
3D8
100
AcDbEntity
  8
BORDER
  6
CONTINUOUS
 62
     2
100
AcDbLine
 39
96.0
 10
30.527228
 20
23.61108
 30
0.0
 11
30.527228
 21
23.61108
 31
0.0
  0
LINE
  5
3D9
100
AcDbEntity
  8
BORDER
  6
CONTINUOUS
 62
     2
100
AcDbLine
 39
96.0
 10
30.058478
 20
23.61108
 30
0.0
 11
30.058478
 21
23.61108
 31
0.0
  0
LINE
  5
3DA
100
AcDbEntity
  8
BORDER
  6
CONTINUOUS
 62
     2
100
AcDbLine
 39
96.0
 10
29.589728
 20
23.61108
 30
0.0
 11
29.589728
 21
23.61108
 31
0.0
  0
LINE
  5
3DB
100
AcDbEntity
  8
BORDER
  6
CONTINUOUS
 62
     2
100
AcDbLine
 39
96.0
 10
31.230348
 20
24.07983
 30
0.0
 11
31.230348
 21
24.07983
 31
0.0
  0
LINE
  5
3DC
100
AcDbEntity
  8
BORDER
  6
CONTINUOUS
 62
     2
100
AcDbLine
 39
96.0
 10
30.761598
 20
24.07983
 30
0.0
 11
30.761598
 21
24.07983
 31
0.0
  0
LINE
  5
3DD
100
AcDbEntity
  8
BORDER
  6
CONTINUOUS
 62
     2
100
AcDbLine
 39
96.0
 10
30.292848
 20
24.07983
 30
0.0
 11
30.292848
 21
24.07983
 31
0.0
  0
LINE
  5
3DE
100
AcDbEntity
  8
BORDER
  6
CONTINUOUS
 62
     2
100
AcDbLine
 39
96.0
 10
29.824098
 20
24.07983
 30
0.0
 11
29.824098
 21
24.07983
 31
0.0
  0
LINE
  5
3DF
100
AcDbEntity
  8
BORDER
  6
CONTINUOUS
 62
     2
100
AcDbLine
 39
96.0
 10
30.995978
 20
24.54858
 30
0.0
 11
30.995978
 21
24.54858
 31
0.0
  0
LINE
  5
3E0
100
AcDbEntity
  8
BORDER
  6
CONTINUOUS
 62
     2
100
AcDbLine
 39
96.0
 10
30.527228
 20
24.54858
 30
0.0
 11
30.527228
 21
24.54858
 31
0.0
  0
LINE
  5
3E1
100
AcDbEntity
  8
BORDER
  6
CONTINUOUS
 62
     2
100
AcDbLine
 39
96.0
 10
30.058478
 20
24.54858
 30
0.0
 11
30.058478
 21
24.54858
 31
0.0
  0
LINE
  5
3E2
100
AcDbEntity
  8
BORDER
  6
CONTINUOUS
 62
     2
100
AcDbLine
 39
96.0
 10
29.589728
 20
24.54858
 30
0.0
 11
29.589728
 21
24.54858
 31
0.0
  0
LINE
  5
3E3
100
AcDbEntity
  8
BORDER
  6
CONTINUOUS
 62
     1
100
AcDbLine
 39
96.0
 10
37.443978
 20
13.99805
 30
0.0
 11
37.454718
 21
14.05957
 31
0.0
  0
LINE
  5
3E4
100
AcDbEntity
  8
BORDER
  6
CONTINUOUS
 62
     1
100
AcDbLine
 39
96.0
 10
37.009888
 20
11.53601
 30
0.0
 11
37.020638
 21
11.59753
 31
0.0
  0
LINE
  5
3E5
100
AcDbEntity
  8
BORDER
  6
CONTINUOUS
 62
     1
100
AcDbLine
 39
96.0
 10
36.284308
 20
21.81824
 30
0.0
 11
36.295048
 21
21.87976
 31
0.0
  0
LINE
  5
3E6
100
AcDbEntity
  8
BORDER
  6
CONTINUOUS
 62
     1
100
AcDbLine
 39
96.0
 10
35.850228
 20
19.3562
 30
0.0
 11
35.860968
 21
19.41772
 31
0.0
  0
LINE
  5
3E7
100
AcDbEntity
  8
BORDER
  6
CONTINUOUS
 62
     1
100
AcDbLine
 39
96.0
 10
35.416138
 20
16.89416
 30
0.0
 11
35.426888
 21
16.95569
 31
0.0
  0
LINE
  5
3E8
100
AcDbEntity
  8
BORDER
  6
CONTINUOUS
 62
     1
100
AcDbLine
 39
96.0
 10
34.982058
 20
14.43213
 30
0.0
 11
34.992798
 21
14.49365
 31
0.0
  0
LINE
  5
3E9
100
AcDbEntity
  8
BORDER
  6
CONTINUOUS
 62
     1
100
AcDbLine
 39
96.0
 10
33.388558
 20
19.79028
 30
0.0
 11
33.399298
 21
19.8518
 31
0.0
  0
LINE
  5
3EA
100
AcDbEntity
  8
BORDER
  6
CONTINUOUS
 62
     1
100
AcDbLine
 39
96.0
 10
32.954468
 20
17.32825
 30
0.0
 11
32.965218
 21
17.38977
 31
0.0
  0
LINE
  5
3EB
100
AcDbEntity
  8
BORDER
  6
CONTINUOUS
 62
     1
100
AcDbLine
 39
96.0
 10
32.520388
 20
14.86621
 30
0.0
 11
32.531128
 21
14.92773
 31
0.0
  0
LINE
  5
3EC
100
AcDbEntity
  8
BORDER
  6
CONTINUOUS
 62
     1
100
AcDbLine
 39
96.0
 10
32.086308
 20
12.40417
 30
0.0
 11
32.097048
 21
12.4657
 31
0.0
  0
LINE
  5
3ED
100
AcDbEntity
  8
BORDER
  6
CONTINUOUS
 62
     1
100
AcDbLine
 39
96.0
 10
31.360718
 20
22.6864
 30
0.0
 11
31.371468
 21
22.74792
 31
0.0
  0
LINE
  5
3EE
100
AcDbEntity
  8
BORDER
  6
CONTINUOUS
 62
     1
100
AcDbLine
 39
96.0
 10
37.365608
 20
12.39441
 30
0.0
 11
37.401498
 21
12.44562
 31
0.0
  0
LINE
  5
3EF
100
AcDbEntity
  8
BORDER
  6
CONTINUOUS
 62
     1
100
AcDbLine
 39
96.0
 10
36.752078
 20
15.8761
 30
0.0
 11
36.787968
 21
15.92724
 31
0.0
  0
LINE
  5
3F0
100
AcDbEntity
  8
BORDER
  6
CONTINUOUS
 62
     1
100
AcDbLine
 39
96.0
 10
35.317998
 20
13.82818
 30
0.0
 11
35.353888
 21
13.87939
 31
0.0
  0
LINE
  5
3F1
100
AcDbEntity
  8
BORDER
  6
CONTINUOUS
 62
     1
100
AcDbLine
 39
96.0
 10
36.138308
 20
19.35791
 30
0.0
 11
36.174198
 21
19.40906
 31
0.0
  0
LINE
  5
3F2
100
AcDbEntity
  8
BORDER
  6
CONTINUOUS
 62
     1
100
AcDbLine
 39
96.0
 10
34.704228
 20
17.31
 30
0.0
 11
34.740118
 21
17.3612
 31
0.0
  0
LINE
  5
3F3
100
AcDbEntity
  8
BORDER
  6
CONTINUOUS
 62
     1
100
AcDbLine
 39
96.0
 10
33.270148
 20
15.26208
 30
0.0
 11
33.306038
 21
15.31335
 31
0.0
  0
LINE
  5
3F4
100
AcDbEntity
  8
BORDER
  6
CONTINUOUS
 62
     1
100
AcDbLine
 39
96.0
 10
31.836068
 20
13.21423
 30
0.0
 11
31.871948
 21
13.26544
 31
0.0
  0
LINE
  5
3F5
100
AcDbEntity
  8
BORDER
  6
CONTINUOUS
 62
     1
100
AcDbLine
 39
96.0
 10
34.090458
 20
20.79175
 30
0.0
 11
34.126348
 21
20.84295
 31
0.0
  0
LINE
  5
3F6
100
AcDbEntity
  8
BORDER
  6
CONTINUOUS
 62
     1
100
AcDbLine
 39
96.0
 10
32.656378
 20
18.74389
 30
0.0
 11
32.692268
 21
18.79504
 31
0.0
  0
LINE
  5
3F7
100
AcDbEntity
  8
BORDER
  6
CONTINUOUS
 62
     1
100
AcDbLine
 39
96.0
 10
32.042358
 20
22.22571
 30
0.0
 11
32.078248
 21
22.27691
 31
0.0
  0
LINE
  5
3F8
100
AcDbEntity
  8
BORDER
  6
CONTINUOUS
 62
     1
100
AcDbLine
 39
96.0
 10
36.699838
 20
11.97693
 30
0.0
 11
36.758668
 21
11.99829
 31
0.0
  0
LINE
  5
3F9
100
AcDbEntity
  8
BORDER
  6
CONTINUOUS
 62
     1
100
AcDbLine
 39
96.0
 10
35.845098
 20
14.32617
 30
0.0
 11
35.903938
 21
14.34753
 31
0.0
  0
LINE
  5
3FA
100
AcDbEntity
  8
BORDER
  6
CONTINUOUS
 62
     1
100
AcDbLine
 39
96.0
 10
33.495728
 20
13.47107
 30
0.0
 11
33.554568
 21
13.49243
 31
0.0
  0
LINE
  5
3FB
100
AcDbEntity
  8
BORDER
  6
CONTINUOUS
 62
     1
100
AcDbLine
 39
96.0
 10
37.339478
 20
17.53039
 30
0.0
 11
37.398318
 21
17.55176
 31
0.0
  0
LINE
  5
3FC
100
AcDbEntity
  8
BORDER
  6
CONTINUOUS
 62
     1
100
AcDbLine
 39
96.0
 10
34.990118
 20
16.67535
 30
0.0
 11
35.048958
 21
16.69671
 31
0.0
  0
LINE
  5
3FD
100
AcDbEntity
  8
BORDER
  6
CONTINUOUS
 62
     1
100
AcDbLine
 39
96.0
 10
32.640748
 20
15.82031
 30
0.0
 11
32.699588
 21
15.84167
 31
0.0
  0
LINE
  5
3FE
100
AcDbEntity
  8
BORDER
  6
CONTINUOUS
 62
     1
100
AcDbLine
 39
96.0
 10
36.484498
 20
19.87964
 30
0.0
 11
36.543338
 21
19.901
 31
0.0
  0
LINE
  5
3FF
100
AcDbEntity
  8
BORDER
  6
CONTINUOUS
 62
     1
100
AcDbLine
 39
96.0
 10
34.135138
 20
19.0246
 30
0.0
 11
34.193978
 21
19.04596
 31
0.0
  0
LINE
  5
400
100
AcDbEntity
  8
BORDER
  6
CONTINUOUS
 62
     1
100
AcDbLine
 39
96.0
 10
31.785768
 20
18.16955
 30
0.0
 11
31.844608
 21
18.19092
 31
0.0
  0
LINE
  5
401
100
AcDbEntity
  8
BORDER
  6
CONTINUOUS
 62
     1
100
AcDbLine
 39
96.0
 10
33.280158
 20
21.3739
 30
0.0
 11
33.338998
 21
21.39526
 31
0.0
  0
LINE
  5
402
100
AcDbEntity
  8
BORDER
  6
CONTINUOUS
 62
     3
100
AcDbLine
 39
96.0
 10
37.502328
 20
9.68439
 30
0.0
 11
39.377328
 21
9.68439
 31
0.0
  0
LINE
  5
403
100
AcDbEntity
  8
BORDER
  6
CONTINUOUS
 62
     3
100
AcDbLine
 39
96.0
 10
31.252328
 20
24.68439
 30
0.0
 11
29.377328
 21
24.68439
 31
0.0
  0
ARC
  5
404
100
AcDbEntity
  8
BORDER
  6
CONTINUOUS
 62
     3
100
AcDbCircle
 39
96.0
 10
34.377328
 20
24.68439
 30
0.0
 40
3.0
100
AcDbArc
 50
180.0
 51
0.0
  0
ARC
  5
405
100
AcDbEntity
  8
BORDER
  6
CONTINUOUS
 62
     3
100
AcDbCircle
 39
96.0
 10
34.377328
 20
9.68439
 30
0.0
 40
3.0
100
AcDbArc
 50
0.0
 51
180.0
  0
LINE
  5
406
100
AcDbEntity
  8
BORDER
  6
CONTINUOUS
 62
     3
100
AcDbLine
 39
96.0
 10
37.502328
 20
9.68439
 30
0.0
 11
37.502328
 21
24.68439
 31
0.0
  0
LINE
  5
407
100
AcDbEntity
  8
BORDER
  6
CONTINUOUS
 62
     3
100
AcDbLine
 39
96.0
 10
31.252328
 20
24.68439
 30
0.0
 11
31.252328
 21
9.68439
 31
0.0
  0
LINE
  5
408
100
AcDbEntity
  8
BORDER
  6
CONTINUOUS
 62
     3
100
AcDbLine
 39
96.0
 10
29.377328
 20
24.68439
 30
0.0
 11
29.377328
 21
9.68439
 31
0.0
  0
LINE
  5
409
100
AcDbEntity
  8
BORDER
  6
CONTINUOUS
 62
     3
100
AcDbLine
 39
96.0
 10
39.377328
 20
24.68439
 30
0.0
 11
37.502328
 21
24.68439
 31
0.0
  0
LINE
  5
40A
100
AcDbEntity
  8
BORDER
  6
CONTINUOUS
 62
     3
100
AcDbLine
 39
96.0
 10
39.377328
 20
9.68439
 30
0.0
 11
39.377328
 21
24.68439
 31
0.0
  0
LINE
  5
40B
100
AcDbEntity
  8
BORDER
  6
CONTINUOUS
 62
     3
100
AcDbLine
 39
96.0
 10
29.377328
 20
9.68439
 30
0.0
 11
31.252328
 21
9.68439
 31
0.0
  0
LINE
  5
40C
100
AcDbEntity
  8
BORDER
  6
CONTINUOUS
 62
     3
100
AcDbLine
 39
96.0
 10
31.252328
 20
9.68439
 30
0.0
 11
29.377328
 21
9.68439
 31
0.0
  0
LINE
  5
40D
100
AcDbEntity
  8
BORDER
  6
CONTINUOUS
 62
     3
100
AcDbLine
 39
96.0
 10
39.377328
 20
9.68439
 30
0.0
 11
37.502328
 21
9.68439
 31
0.0
  0
LINE
  5
40E
100
AcDbEntity
  8
BORDER
  6
CONTINUOUS
 62
    15
100
AcDbLine
 39
96.0
 10
31.377328
 20
39.67013
 30
0.0
 11
37.377328
 21
39.67013
 31
0.0
  0
LINE
  5
40F
100
AcDbEntity
  8
BORDER
  6
CONTINUOUS
 62
     1
100
AcDbLine
 39
96.0
 10
34.704228
 20
25.63592
 30
0.0
 11
34.740118
 21
25.68713
 31
0.0
  0
LINE
  5
410
100
AcDbEntity
  8
BORDER
  6
CONTINUOUS
 62
     1
100
AcDbLine
 39
96.0
 10
35.416138
 20
25.22009
 30
0.0
 11
35.426888
 21
25.28161
 31
0.0
  0
LINE
  5
411
100
AcDbEntity
  8
BORDER
  6
CONTINUOUS
 62
     1
100
AcDbLine
 39
96.0
 10
34.990118
 20
25.00128
 30
0.0
 11
35.048958
 21
25.02264
 31
0.0
  0
LINE
  5
412
100
AcDbEntity
  8
BORDER
  6
CONTINUOUS
 62
    10
100
AcDbLine
 39
96.0
 10
33.482548
 20
37.42373
 30
0.0
 11
33.468878
 21
37.34683
 31
0.0
  0
LINE
  5
413
100
AcDbEntity
  8
BORDER
  6
CONTINUOUS
 62
    10
100
AcDbLine
 39
96.0
 10
34.627808
 20
38.39653
 30
0.0
 11
34.582888
 21
38.33253
 31
0.0
  0
LINE
  5
414
100
AcDbEntity
  8
BORDER
  6
CONTINUOUS
 62
    10
100
AcDbLine
 39
96.0
 10
34.896608
 20
37.56383
 30
0.0
 11
34.823128
 21
37.53713
 31
0.0
  0
LINE
  5
415
100
AcDbEntity
  8
BORDER
  6
CONTINUOUS
 62
    10
100
AcDbLine
 39
96.0
 10
34.929328
 20
27.63313
 30
0.0
 11
34.918338
 21
27.57163
 31
0.0
  0
LINE
  5
416
100
AcDbEntity
  8
BORDER
  6
CONTINUOUS
 62
    10
100
AcDbLine
 39
96.0
 10
32.577758
 20
24.57214
 30
0.0
 11
32.532838
 21
24.50818
 31
0.0
  0
LINE
  5
417
100
AcDbEntity
  8
BORDER
  6
CONTINUOUS
 62
    10
100
AcDbLine
 39
96.0
 10
34.370248
 20
27.13202
 30
0.0
 11
34.325318
 21
27.06799
 31
0.0
  0
LINE
  5
418
100
AcDbEntity
  8
BORDER
  6
CONTINUOUS
 62
    10
100
AcDbLine
 39
96.0
 10
32.230108
 20
26.61651
 30
0.0
 11
32.156618
 21
26.58978
 31
0.0
  0
LINE
  5
419
100
AcDbEntity
  8
BORDER
  6
CONTINUOUS
 62
     3
100
AcDbLine
 39
96.0
 10
37.502328
 20
39.68443
 30
0.0
 11
39.377328
 21
39.68443
 31
0.0
  0
LINE
  5
41A
100
AcDbEntity
  8
BORDER
  6
CONTINUOUS
 62
     3
100
AcDbLine
 39
96.0
 10
29.377328
 20
39.68443
 30
0.0
 11
31.252328
 21
39.68443
 31
0.0
  0
LINE
  5
41B
100
AcDbEntity
  8
BORDER
  6
CONTINUOUS
 62
     2
100
AcDbLine
 39
96.0
 10
39.199098
 20
25.01733
 30
0.0
 11
39.199098
 21
25.01733
 31
0.0
  0
LINE
  5
41C
100
AcDbEntity
  8
BORDER
  6
CONTINUOUS
 62
     2
100
AcDbLine
 39
96.0
 10
38.730348
 20
25.01733
 30
0.0
 11
38.730348
 21
25.01733
 31
0.0
  0
LINE
  5
41D
100
AcDbEntity
  8
BORDER
  6
CONTINUOUS
 62
     2
100
AcDbLine
 39
96.0
 10
38.261598
 20
25.01733
 30
0.0
 11
38.261598
 21
25.01733
 31
0.0
  0
LINE
  5
41E
100
AcDbEntity
  8
BORDER
  6
CONTINUOUS
 62
     2
100
AcDbLine
 39
96.0
 10
37.792848
 20
25.01733
 30
0.0
 11
37.792848
 21
25.01733
 31
0.0
  0
LINE
  5
41F
100
AcDbEntity
  8
BORDER
  6
CONTINUOUS
 62
     2
100
AcDbLine
 39
96.0
 10
38.964728
 20
25.48608
 30
0.0
 11
38.964728
 21
25.48608
 31
0.0
  0
LINE
  5
420
100
AcDbEntity
  8
BORDER
  6
CONTINUOUS
 62
     2
100
AcDbLine
 39
96.0
 10
38.495978
 20
25.48608
 30
0.0
 11
38.495978
 21
25.48608
 31
0.0
  0
LINE
  5
421
100
AcDbEntity
  8
BORDER
  6
CONTINUOUS
 62
     2
100
AcDbLine
 39
96.0
 10
38.027228
 20
25.48608
 30
0.0
 11
38.027228
 21
25.48608
 31
0.0
  0
LINE
  5
422
100
AcDbEntity
  8
BORDER
  6
CONTINUOUS
 62
     2
100
AcDbLine
 39
96.0
 10
37.558478
 20
25.48608
 30
0.0
 11
37.558478
 21
25.48608
 31
0.0
  0
LINE
  5
423
100
AcDbEntity
  8
BORDER
  6
CONTINUOUS
 62
     2
100
AcDbLine
 39
96.0
 10
39.199098
 20
25.95483
 30
0.0
 11
39.199098
 21
25.95483
 31
0.0
  0
LINE
  5
424
100
AcDbEntity
  8
BORDER
  6
CONTINUOUS
 62
     2
100
AcDbLine
 39
96.0
 10
38.730348
 20
25.95483
 30
0.0
 11
38.730348
 21
25.95483
 31
0.0
  0
LINE
  5
425
100
AcDbEntity
  8
BORDER
  6
CONTINUOUS
 62
     2
100
AcDbLine
 39
96.0
 10
38.261598
 20
25.95483
 30
0.0
 11
38.261598
 21
25.95483
 31
0.0
  0
LINE
  5
426
100
AcDbEntity
  8
BORDER
  6
CONTINUOUS
 62
     2
100
AcDbLine
 39
96.0
 10
37.792848
 20
25.95483
 30
0.0
 11
37.792848
 21
25.95483
 31
0.0
  0
LINE
  5
427
100
AcDbEntity
  8
BORDER
  6
CONTINUOUS
 62
     2
100
AcDbLine
 39
96.0
 10
38.964728
 20
26.42358
 30
0.0
 11
38.964728
 21
26.42358
 31
0.0
  0
LINE
  5
428
100
AcDbEntity
  8
BORDER
  6
CONTINUOUS
 62
     2
100
AcDbLine
 39
96.0
 10
38.495978
 20
26.42358
 30
0.0
 11
38.495978
 21
26.42358
 31
0.0
  0
LINE
  5
429
100
AcDbEntity
  8
BORDER
  6
CONTINUOUS
 62
     2
100
AcDbLine
 39
96.0
 10
38.027228
 20
26.42358
 30
0.0
 11
38.027228
 21
26.42358
 31
0.0
  0
LINE
  5
42A
100
AcDbEntity
  8
BORDER
  6
CONTINUOUS
 62
     2
100
AcDbLine
 39
96.0
 10
37.558478
 20
26.42358
 30
0.0
 11
37.558478
 21
26.42358
 31
0.0
  0
LINE
  5
42B
100
AcDbEntity
  8
BORDER
  6
CONTINUOUS
 62
     2
100
AcDbLine
 39
96.0
 10
39.199098
 20
26.89233
 30
0.0
 11
39.199098
 21
26.89233
 31
0.0
  0
LINE
  5
42C
100
AcDbEntity
  8
BORDER
  6
CONTINUOUS
 62
     2
100
AcDbLine
 39
96.0
 10
38.730348
 20
26.89233
 30
0.0
 11
38.730348
 21
26.89233
 31
0.0
  0
LINE
  5
42D
100
AcDbEntity
  8
BORDER
  6
CONTINUOUS
 62
     2
100
AcDbLine
 39
96.0
 10
38.261598
 20
26.89233
 30
0.0
 11
38.261598
 21
26.89233
 31
0.0
  0
LINE
  5
42E
100
AcDbEntity
  8
BORDER
  6
CONTINUOUS
 62
     2
100
AcDbLine
 39
96.0
 10
37.792848
 20
26.89233
 30
0.0
 11
37.792848
 21
26.89233
 31
0.0
  0
LINE
  5
42F
100
AcDbEntity
  8
BORDER
  6
CONTINUOUS
 62
     2
100
AcDbLine
 39
96.0
 10
38.964728
 20
27.36108
 30
0.0
 11
38.964728
 21
27.36108
 31
0.0
  0
LINE
  5
430
100
AcDbEntity
  8
BORDER
  6
CONTINUOUS
 62
     2
100
AcDbLine
 39
96.0
 10
38.495978
 20
27.36108
 30
0.0
 11
38.495978
 21
27.36108
 31
0.0
  0
LINE
  5
431
100
AcDbEntity
  8
BORDER
  6
CONTINUOUS
 62
     2
100
AcDbLine
 39
96.0
 10
38.027228
 20
27.36108
 30
0.0
 11
38.027228
 21
27.36108
 31
0.0
  0
LINE
  5
432
100
AcDbEntity
  8
BORDER
  6
CONTINUOUS
 62
     2
100
AcDbLine
 39
96.0
 10
37.558478
 20
27.36108
 30
0.0
 11
37.558478
 21
27.36108
 31
0.0
  0
LINE
  5
433
100
AcDbEntity
  8
BORDER
  6
CONTINUOUS
 62
     2
100
AcDbLine
 39
96.0
 10
39.199098
 20
27.82983
 30
0.0
 11
39.199098
 21
27.82983
 31
0.0
  0
LINE
  5
434
100
AcDbEntity
  8
BORDER
  6
CONTINUOUS
 62
     2
100
AcDbLine
 39
96.0
 10
38.730348
 20
27.82983
 30
0.0
 11
38.730348
 21
27.82983
 31
0.0
  0
LINE
  5
435
100
AcDbEntity
  8
BORDER
  6
CONTINUOUS
 62
     2
100
AcDbLine
 39
96.0
 10
38.261598
 20
27.82983
 30
0.0
 11
38.261598
 21
27.82983
 31
0.0
  0
LINE
  5
436
100
AcDbEntity
  8
BORDER
  6
CONTINUOUS
 62
     2
100
AcDbLine
 39
96.0
 10
37.792848
 20
27.82983
 30
0.0
 11
37.792848
 21
27.82983
 31
0.0
  0
LINE
  5
437
100
AcDbEntity
  8
BORDER
  6
CONTINUOUS
 62
     2
100
AcDbLine
 39
96.0
 10
38.964728
 20
28.29863
 30
0.0
 11
38.964728
 21
28.29863
 31
0.0
  0
LINE
  5
438
100
AcDbEntity
  8
BORDER
  6
CONTINUOUS
 62
     2
100
AcDbLine
 39
96.0
 10
38.495978
 20
28.29863
 30
0.0
 11
38.495978
 21
28.29863
 31
0.0
  0
LINE
  5
439
100
AcDbEntity
  8
BORDER
  6
CONTINUOUS
 62
     2
100
AcDbLine
 39
96.0
 10
38.027228
 20
28.29863
 30
0.0
 11
38.027228
 21
28.29863
 31
0.0
  0
LINE
  5
43A
100
AcDbEntity
  8
BORDER
  6
CONTINUOUS
 62
     2
100
AcDbLine
 39
96.0
 10
37.558478
 20
28.29863
 30
0.0
 11
37.558478
 21
28.29863
 31
0.0
  0
LINE
  5
43B
100
AcDbEntity
  8
BORDER
  6
CONTINUOUS
 62
     2
100
AcDbLine
 39
96.0
 10
39.199098
 20
28.76733
 30
0.0
 11
39.199098
 21
28.76733
 31
0.0
  0
LINE
  5
43C
100
AcDbEntity
  8
BORDER
  6
CONTINUOUS
 62
     2
100
AcDbLine
 39
96.0
 10
38.730348
 20
28.76733
 30
0.0
 11
38.730348
 21
28.76733
 31
0.0
  0
LINE
  5
43D
100
AcDbEntity
  8
BORDER
  6
CONTINUOUS
 62
     2
100
AcDbLine
 39
96.0
 10
38.261598
 20
28.76733
 30
0.0
 11
38.261598
 21
28.76733
 31
0.0
  0
LINE
  5
43E
100
AcDbEntity
  8
BORDER
  6
CONTINUOUS
 62
     2
100
AcDbLine
 39
96.0
 10
37.792848
 20
28.76733
 30
0.0
 11
37.792848
 21
28.76733
 31
0.0
  0
LINE
  5
43F
100
AcDbEntity
  8
BORDER
  6
CONTINUOUS
 62
     2
100
AcDbLine
 39
96.0
 10
38.964728
 20
29.23613
 30
0.0
 11
38.964728
 21
29.23613
 31
0.0
  0
LINE
  5
440
100
AcDbEntity
  8
BORDER
  6
CONTINUOUS
 62
     2
100
AcDbLine
 39
96.0
 10
38.495978
 20
29.23613
 30
0.0
 11
38.495978
 21
29.23613
 31
0.0
  0
LINE
  5
441
100
AcDbEntity
  8
BORDER
  6
CONTINUOUS
 62
     2
100
AcDbLine
 39
96.0
 10
38.027228
 20
29.23613
 30
0.0
 11
38.027228
 21
29.23613
 31
0.0
  0
LINE
  5
442
100
AcDbEntity
  8
BORDER
  6
CONTINUOUS
 62
     2
100
AcDbLine
 39
96.0
 10
37.558478
 20
29.23613
 30
0.0
 11
37.558478
 21
29.23613
 31
0.0
  0
LINE
  5
443
100
AcDbEntity
  8
BORDER
  6
CONTINUOUS
 62
     2
100
AcDbLine
 39
96.0
 10
39.199098
 20
29.70483
 30
0.0
 11
39.199098
 21
29.70483
 31
0.0
  0
LINE
  5
444
100
AcDbEntity
  8
BORDER
  6
CONTINUOUS
 62
     2
100
AcDbLine
 39
96.0
 10
38.730348
 20
29.70483
 30
0.0
 11
38.730348
 21
29.70483
 31
0.0
  0
LINE
  5
445
100
AcDbEntity
  8
BORDER
  6
CONTINUOUS
 62
     2
100
AcDbLine
 39
96.0
 10
38.261598
 20
29.70483
 30
0.0
 11
38.261598
 21
29.70483
 31
0.0
  0
LINE
  5
446
100
AcDbEntity
  8
BORDER
  6
CONTINUOUS
 62
     2
100
AcDbLine
 39
96.0
 10
37.792848
 20
29.70483
 30
0.0
 11
37.792848
 21
29.70483
 31
0.0
  0
LINE
  5
447
100
AcDbEntity
  8
BORDER
  6
CONTINUOUS
 62
     2
100
AcDbLine
 39
96.0
 10
38.964728
 20
30.17363
 30
0.0
 11
38.964728
 21
30.17363
 31
0.0
  0
LINE
  5
448
100
AcDbEntity
  8
BORDER
  6
CONTINUOUS
 62
     2
100
AcDbLine
 39
96.0
 10
38.495978
 20
30.17363
 30
0.0
 11
38.495978
 21
30.17363
 31
0.0
  0
LINE
  5
449
100
AcDbEntity
  8
BORDER
  6
CONTINUOUS
 62
     2
100
AcDbLine
 39
96.0
 10
38.027228
 20
30.17363
 30
0.0
 11
38.027228
 21
30.17363
 31
0.0
  0
LINE
  5
44A
100
AcDbEntity
  8
BORDER
  6
CONTINUOUS
 62
     2
100
AcDbLine
 39
96.0
 10
37.558478
 20
30.17363
 30
0.0
 11
37.558478
 21
30.17363
 31
0.0
  0
LINE
  5
44B
100
AcDbEntity
  8
BORDER
  6
CONTINUOUS
 62
     2
100
AcDbLine
 39
96.0
 10
39.199098
 20
30.64233
 30
0.0
 11
39.199098
 21
30.64233
 31
0.0
  0
LINE
  5
44C
100
AcDbEntity
  8
BORDER
  6
CONTINUOUS
 62
     2
100
AcDbLine
 39
96.0
 10
38.730348
 20
30.64233
 30
0.0
 11
38.730348
 21
30.64233
 31
0.0
  0
LINE
  5
44D
100
AcDbEntity
  8
BORDER
  6
CONTINUOUS
 62
     2
100
AcDbLine
 39
96.0
 10
38.261598
 20
30.64233
 30
0.0
 11
38.261598
 21
30.64233
 31
0.0
  0
LINE
  5
44E
100
AcDbEntity
  8
BORDER
  6
CONTINUOUS
 62
     2
100
AcDbLine
 39
96.0
 10
37.792848
 20
30.64233
 30
0.0
 11
37.792848
 21
30.64233
 31
0.0
  0
LINE
  5
44F
100
AcDbEntity
  8
BORDER
  6
CONTINUOUS
 62
     2
100
AcDbLine
 39
96.0
 10
38.964728
 20
31.11113
 30
0.0
 11
38.964728
 21
31.11113
 31
0.0
  0
LINE
  5
450
100
AcDbEntity
  8
BORDER
  6
CONTINUOUS
 62
     2
100
AcDbLine
 39
96.0
 10
38.495978
 20
31.11113
 30
0.0
 11
38.495978
 21
31.11113
 31
0.0
  0
LINE
  5
451
100
AcDbEntity
  8
BORDER
  6
CONTINUOUS
 62
     2
100
AcDbLine
 39
96.0
 10
38.027228
 20
31.11113
 30
0.0
 11
38.027228
 21
31.11113
 31
0.0
  0
LINE
  5
452
100
AcDbEntity
  8
BORDER
  6
CONTINUOUS
 62
     2
100
AcDbLine
 39
96.0
 10
37.558478
 20
31.11113
 30
0.0
 11
37.558478
 21
31.11113
 31
0.0
  0
LINE
  5
453
100
AcDbEntity
  8
BORDER
  6
CONTINUOUS
 62
     2
100
AcDbLine
 39
96.0
 10
38.964728
 20
34.86113
 30
0.0
 11
38.964728
 21
34.86113
 31
0.0
  0
LINE
  5
454
100
AcDbEntity
  8
BORDER
  6
CONTINUOUS
 62
     2
100
AcDbLine
 39
96.0
 10
38.495978
 20
34.86113
 30
0.0
 11
38.495978
 21
34.86113
 31
0.0
  0
LINE
  5
455
100
AcDbEntity
  8
BORDER
  6
CONTINUOUS
 62
     2
100
AcDbLine
 39
96.0
 10
38.027228
 20
34.86113
 30
0.0
 11
38.027228
 21
34.86113
 31
0.0
  0
LINE
  5
456
100
AcDbEntity
  8
BORDER
  6
CONTINUOUS
 62
     2
100
AcDbLine
 39
96.0
 10
37.558478
 20
34.86113
 30
0.0
 11
37.558478
 21
34.86113
 31
0.0
  0
LINE
  5
457
100
AcDbEntity
  8
BORDER
  6
CONTINUOUS
 62
     2
100
AcDbLine
 39
96.0
 10
39.199098
 20
35.32983
 30
0.0
 11
39.199098
 21
35.32983
 31
0.0
  0
LINE
  5
458
100
AcDbEntity
  8
BORDER
  6
CONTINUOUS
 62
     2
100
AcDbLine
 39
96.0
 10
38.730348
 20
35.32983
 30
0.0
 11
38.730348
 21
35.32983
 31
0.0
  0
LINE
  5
459
100
AcDbEntity
  8
BORDER
  6
CONTINUOUS
 62
     2
100
AcDbLine
 39
96.0
 10
38.261598
 20
35.32983
 30
0.0
 11
38.261598
 21
35.32983
 31
0.0
  0
LINE
  5
45A
100
AcDbEntity
  8
BORDER
  6
CONTINUOUS
 62
     2
100
AcDbLine
 39
96.0
 10
37.792848
 20
35.32983
 30
0.0
 11
37.792848
 21
35.32983
 31
0.0
  0
LINE
  5
45B
100
AcDbEntity
  8
BORDER
  6
CONTINUOUS
 62
     2
100
AcDbLine
 39
96.0
 10
38.964728
 20
35.79863
 30
0.0
 11
38.964728
 21
35.79863
 31
0.0
  0
LINE
  5
45C
100
AcDbEntity
  8
BORDER
  6
CONTINUOUS
 62
     2
100
AcDbLine
 39
96.0
 10
38.495978
 20
35.79863
 30
0.0
 11
38.495978
 21
35.79863
 31
0.0
  0
LINE
  5
45D
100
AcDbEntity
  8
BORDER
  6
CONTINUOUS
 62
     2
100
AcDbLine
 39
96.0
 10
38.027228
 20
35.79863
 30
0.0
 11
38.027228
 21
35.79863
 31
0.0
  0
LINE
  5
45E
100
AcDbEntity
  8
BORDER
  6
CONTINUOUS
 62
     2
100
AcDbLine
 39
96.0
 10
37.558478
 20
35.79863
 30
0.0
 11
37.558478
 21
35.79863
 31
0.0
  0
LINE
  5
45F
100
AcDbEntity
  8
BORDER
  6
CONTINUOUS
 62
     2
100
AcDbLine
 39
96.0
 10
39.199098
 20
36.26733
 30
0.0
 11
39.199098
 21
36.26733
 31
0.0
  0
LINE
  5
460
100
AcDbEntity
  8
BORDER
  6
CONTINUOUS
 62
     2
100
AcDbLine
 39
96.0
 10
38.730348
 20
36.26733
 30
0.0
 11
38.730348
 21
36.26733
 31
0.0
  0
LINE
  5
461
100
AcDbEntity
  8
BORDER
  6
CONTINUOUS
 62
     2
100
AcDbLine
 39
96.0
 10
38.261598
 20
36.26733
 30
0.0
 11
38.261598
 21
36.26733
 31
0.0
  0
LINE
  5
462
100
AcDbEntity
  8
BORDER
  6
CONTINUOUS
 62
     2
100
AcDbLine
 39
96.0
 10
37.792848
 20
36.26733
 30
0.0
 11
37.792848
 21
36.26733
 31
0.0
  0
LINE
  5
463
100
AcDbEntity
  8
BORDER
  6
CONTINUOUS
 62
     2
100
AcDbLine
 39
96.0
 10
38.964728
 20
36.73613
 30
0.0
 11
38.964728
 21
36.73613
 31
0.0
  0
LINE
  5
464
100
AcDbEntity
  8
BORDER
  6
CONTINUOUS
 62
     2
100
AcDbLine
 39
96.0
 10
38.495978
 20
36.73613
 30
0.0
 11
38.495978
 21
36.73613
 31
0.0
  0
LINE
  5
465
100
AcDbEntity
  8
BORDER
  6
CONTINUOUS
 62
     2
100
AcDbLine
 39
96.0
 10
38.027228
 20
36.73613
 30
0.0
 11
38.027228
 21
36.73613
 31
0.0
  0
LINE
  5
466
100
AcDbEntity
  8
BORDER
  6
CONTINUOUS
 62
     2
100
AcDbLine
 39
96.0
 10
37.558478
 20
36.73613
 30
0.0
 11
37.558478
 21
36.73613
 31
0.0
  0
LINE
  5
467
100
AcDbEntity
  8
BORDER
  6
CONTINUOUS
 62
     2
100
AcDbLine
 39
96.0
 10
39.199098
 20
37.20483
 30
0.0
 11
39.199098
 21
37.20483
 31
0.0
  0
LINE
  5
468
100
AcDbEntity
  8
BORDER
  6
CONTINUOUS
 62
     2
100
AcDbLine
 39
96.0
 10
38.730348
 20
37.20483
 30
0.0
 11
38.730348
 21
37.20483
 31
0.0
  0
LINE
  5
469
100
AcDbEntity
  8
BORDER
  6
CONTINUOUS
 62
     2
100
AcDbLine
 39
96.0
 10
38.261598
 20
37.20483
 30
0.0
 11
38.261598
 21
37.20483
 31
0.0
  0
LINE
  5
46A
100
AcDbEntity
  8
BORDER
  6
CONTINUOUS
 62
     2
100
AcDbLine
 39
96.0
 10
37.792848
 20
37.20483
 30
0.0
 11
37.792848
 21
37.20483
 31
0.0
  0
LINE
  5
46B
100
AcDbEntity
  8
BORDER
  6
CONTINUOUS
 62
     2
100
AcDbLine
 39
96.0
 10
38.964728
 20
37.67363
 30
0.0
 11
38.964728
 21
37.67363
 31
0.0
  0
LINE
  5
46C
100
AcDbEntity
  8
BORDER
  6
CONTINUOUS
 62
     2
100
AcDbLine
 39
96.0
 10
38.495978
 20
37.67363
 30
0.0
 11
38.495978
 21
37.67363
 31
0.0
  0
LINE
  5
46D
100
AcDbEntity
  8
BORDER
  6
CONTINUOUS
 62
     2
100
AcDbLine
 39
96.0
 10
38.027228
 20
37.67363
 30
0.0
 11
38.027228
 21
37.67363
 31
0.0
  0
LINE
  5
46E
100
AcDbEntity
  8
BORDER
  6
CONTINUOUS
 62
     2
100
AcDbLine
 39
96.0
 10
37.558478
 20
37.67363
 30
0.0
 11
37.558478
 21
37.67363
 31
0.0
  0
LINE
  5
46F
100
AcDbEntity
  8
BORDER
  6
CONTINUOUS
 62
     2
100
AcDbLine
 39
96.0
 10
39.199098
 20
38.14233
 30
0.0
 11
39.199098
 21
38.14233
 31
0.0
  0
LINE
  5
470
100
AcDbEntity
  8
BORDER
  6
CONTINUOUS
 62
     2
100
AcDbLine
 39
96.0
 10
38.730348
 20
38.14233
 30
0.0
 11
38.730348
 21
38.14233
 31
0.0
  0
LINE
  5
471
100
AcDbEntity
  8
BORDER
  6
CONTINUOUS
 62
     2
100
AcDbLine
 39
96.0
 10
38.261598
 20
38.14233
 30
0.0
 11
38.261598
 21
38.14233
 31
0.0
  0
LINE
  5
472
100
AcDbEntity
  8
BORDER
  6
CONTINUOUS
 62
     2
100
AcDbLine
 39
96.0
 10
37.792848
 20
38.14233
 30
0.0
 11
37.792848
 21
38.14233
 31
0.0
  0
LINE
  5
473
100
AcDbEntity
  8
BORDER
  6
CONTINUOUS
 62
     2
100
AcDbLine
 39
96.0
 10
38.964728
 20
38.61113
 30
0.0
 11
38.964728
 21
38.61113
 31
0.0
  0
LINE
  5
474
100
AcDbEntity
  8
BORDER
  6
CONTINUOUS
 62
     2
100
AcDbLine
 39
96.0
 10
38.495978
 20
38.61113
 30
0.0
 11
38.495978
 21
38.61113
 31
0.0
  0
LINE
  5
475
100
AcDbEntity
  8
BORDER
  6
CONTINUOUS
 62
     2
100
AcDbLine
 39
96.0
 10
38.027228
 20
38.61113
 30
0.0
 11
38.027228
 21
38.61113
 31
0.0
  0
LINE
  5
476
100
AcDbEntity
  8
BORDER
  6
CONTINUOUS
 62
     2
100
AcDbLine
 39
96.0
 10
37.558478
 20
38.61113
 30
0.0
 11
37.558478
 21
38.61113
 31
0.0
  0
LINE
  5
477
100
AcDbEntity
  8
BORDER
  6
CONTINUOUS
 62
     2
100
AcDbLine
 39
96.0
 10
39.199098
 20
39.07983
 30
0.0
 11
39.199098
 21
39.07983
 31
0.0
  0
LINE
  5
478
100
AcDbEntity
  8
BORDER
  6
CONTINUOUS
 62
     2
100
AcDbLine
 39
96.0
 10
38.730348
 20
39.07983
 30
0.0
 11
38.730348
 21
39.07983
 31
0.0
  0
LINE
  5
479
100
AcDbEntity
  8
BORDER
  6
CONTINUOUS
 62
     2
100
AcDbLine
 39
96.0
 10
38.261598
 20
39.07983
 30
0.0
 11
38.261598
 21
39.07983
 31
0.0
  0
LINE
  5
47A
100
AcDbEntity
  8
BORDER
  6
CONTINUOUS
 62
     2
100
AcDbLine
 39
96.0
 10
37.792848
 20
39.07983
 30
0.0
 11
37.792848
 21
39.07983
 31
0.0
  0
LINE
  5
47B
100
AcDbEntity
  8
BORDER
  6
CONTINUOUS
 62
     2
100
AcDbLine
 39
96.0
 10
38.964728
 20
39.54863
 30
0.0
 11
38.964728
 21
39.54863
 31
0.0
  0
LINE
  5
47C
100
AcDbEntity
  8
BORDER
  6
CONTINUOUS
 62
     2
100
AcDbLine
 39
96.0
 10
38.495978
 20
39.54863
 30
0.0
 11
38.495978
 21
39.54863
 31
0.0
  0
LINE
  5
47D
100
AcDbEntity
  8
BORDER
  6
CONTINUOUS
 62
     2
100
AcDbLine
 39
96.0
 10
38.027228
 20
39.54863
 30
0.0
 11
38.027228
 21
39.54863
 31
0.0
  0
LINE
  5
47E
100
AcDbEntity
  8
BORDER
  6
CONTINUOUS
 62
     2
100
AcDbLine
 39
96.0
 10
37.558478
 20
39.54863
 30
0.0
 11
37.558478
 21
39.54863
 31
0.0
  0
LINE
  5
47F
100
AcDbEntity
  8
BORDER
  6
CONTINUOUS
 62
     2
100
AcDbLine
 39
96.0
 10
31.230348
 20
25.01733
 30
0.0
 11
31.230348
 21
25.01733
 31
0.0
  0
LINE
  5
480
100
AcDbEntity
  8
BORDER
  6
CONTINUOUS
 62
     2
100
AcDbLine
 39
96.0
 10
30.761598
 20
25.01733
 30
0.0
 11
30.761598
 21
25.01733
 31
0.0
  0
LINE
  5
481
100
AcDbEntity
  8
BORDER
  6
CONTINUOUS
 62
     2
100
AcDbLine
 39
96.0
 10
30.292848
 20
25.01733
 30
0.0
 11
30.292848
 21
25.01733
 31
0.0
  0
LINE
  5
482
100
AcDbEntity
  8
BORDER
  6
CONTINUOUS
 62
     2
100
AcDbLine
 39
96.0
 10
29.824098
 20
25.01733
 30
0.0
 11
29.824098
 21
25.01733
 31
0.0
  0
LINE
  5
483
100
AcDbEntity
  8
BORDER
  6
CONTINUOUS
 62
     2
100
AcDbLine
 39
96.0
 10
30.995978
 20
25.48608
 30
0.0
 11
30.995978
 21
25.48608
 31
0.0
  0
LINE
  5
484
100
AcDbEntity
  8
BORDER
  6
CONTINUOUS
 62
     2
100
AcDbLine
 39
96.0
 10
30.527228
 20
25.48608
 30
0.0
 11
30.527228
 21
25.48608
 31
0.0
  0
LINE
  5
485
100
AcDbEntity
  8
BORDER
  6
CONTINUOUS
 62
     2
100
AcDbLine
 39
96.0
 10
30.058478
 20
25.48608
 30
0.0
 11
30.058478
 21
25.48608
 31
0.0
  0
LINE
  5
486
100
AcDbEntity
  8
BORDER
  6
CONTINUOUS
 62
     2
100
AcDbLine
 39
96.0
 10
29.589728
 20
25.48608
 30
0.0
 11
29.589728
 21
25.48608
 31
0.0
  0
LINE
  5
487
100
AcDbEntity
  8
BORDER
  6
CONTINUOUS
 62
     2
100
AcDbLine
 39
96.0
 10
31.230348
 20
25.95483
 30
0.0
 11
31.230348
 21
25.95483
 31
0.0
  0
LINE
  5
488
100
AcDbEntity
  8
BORDER
  6
CONTINUOUS
 62
     2
100
AcDbLine
 39
96.0
 10
30.761598
 20
25.95483
 30
0.0
 11
30.761598
 21
25.95483
 31
0.0
  0
LINE
  5
489
100
AcDbEntity
  8
BORDER
  6
CONTINUOUS
 62
     2
100
AcDbLine
 39
96.0
 10
30.292848
 20
25.95483
 30
0.0
 11
30.292848
 21
25.95483
 31
0.0
  0
LINE
  5
48A
100
AcDbEntity
  8
BORDER
  6
CONTINUOUS
 62
     2
100
AcDbLine
 39
96.0
 10
29.824098
 20
25.95483
 30
0.0
 11
29.824098
 21
25.95483
 31
0.0
  0
LINE
  5
48B
100
AcDbEntity
  8
BORDER
  6
CONTINUOUS
 62
     2
100
AcDbLine
 39
96.0
 10
30.995978
 20
26.42358
 30
0.0
 11
30.995978
 21
26.42358
 31
0.0
  0
LINE
  5
48C
100
AcDbEntity
  8
BORDER
  6
CONTINUOUS
 62
     2
100
AcDbLine
 39
96.0
 10
30.527228
 20
26.42358
 30
0.0
 11
30.527228
 21
26.42358
 31
0.0
  0
LINE
  5
48D
100
AcDbEntity
  8
BORDER
  6
CONTINUOUS
 62
     2
100
AcDbLine
 39
96.0
 10
30.058478
 20
26.42358
 30
0.0
 11
30.058478
 21
26.42358
 31
0.0
  0
LINE
  5
48E
100
AcDbEntity
  8
BORDER
  6
CONTINUOUS
 62
     2
100
AcDbLine
 39
96.0
 10
29.589728
 20
26.42358
 30
0.0
 11
29.589728
 21
26.42358
 31
0.0
  0
LINE
  5
48F
100
AcDbEntity
  8
BORDER
  6
CONTINUOUS
 62
     2
100
AcDbLine
 39
96.0
 10
31.230348
 20
26.89233
 30
0.0
 11
31.230348
 21
26.89233
 31
0.0
  0
LINE
  5
490
100
AcDbEntity
  8
BORDER
  6
CONTINUOUS
 62
     2
100
AcDbLine
 39
96.0
 10
30.761598
 20
26.89233
 30
0.0
 11
30.761598
 21
26.89233
 31
0.0
  0
LINE
  5
491
100
AcDbEntity
  8
BORDER
  6
CONTINUOUS
 62
     2
100
AcDbLine
 39
96.0
 10
30.292848
 20
26.89233
 30
0.0
 11
30.292848
 21
26.89233
 31
0.0
  0
LINE
  5
492
100
AcDbEntity
  8
BORDER
  6
CONTINUOUS
 62
     2
100
AcDbLine
 39
96.0
 10
29.824098
 20
26.89233
 30
0.0
 11
29.824098
 21
26.89233
 31
0.0
  0
LINE
  5
493
100
AcDbEntity
  8
BORDER
  6
CONTINUOUS
 62
     2
100
AcDbLine
 39
96.0
 10
30.995978
 20
27.36108
 30
0.0
 11
30.995978
 21
27.36108
 31
0.0
  0
LINE
  5
494
100
AcDbEntity
  8
BORDER
  6
CONTINUOUS
 62
     2
100
AcDbLine
 39
96.0
 10
30.527228
 20
27.36108
 30
0.0
 11
30.527228
 21
27.36108
 31
0.0
  0
LINE
  5
495
100
AcDbEntity
  8
BORDER
  6
CONTINUOUS
 62
     2
100
AcDbLine
 39
96.0
 10
30.058478
 20
27.36108
 30
0.0
 11
30.058478
 21
27.36108
 31
0.0
  0
LINE
  5
496
100
AcDbEntity
  8
BORDER
  6
CONTINUOUS
 62
     2
100
AcDbLine
 39
96.0
 10
29.589728
 20
27.36108
 30
0.0
 11
29.589728
 21
27.36108
 31
0.0
  0
LINE
  5
497
100
AcDbEntity
  8
BORDER
  6
CONTINUOUS
 62
     2
100
AcDbLine
 39
96.0
 10
31.230348
 20
27.82983
 30
0.0
 11
31.230348
 21
27.82983
 31
0.0
  0
LINE
  5
498
100
AcDbEntity
  8
BORDER
  6
CONTINUOUS
 62
     2
100
AcDbLine
 39
96.0
 10
30.761598
 20
27.82983
 30
0.0
 11
30.761598
 21
27.82983
 31
0.0
  0
LINE
  5
499
100
AcDbEntity
  8
BORDER
  6
CONTINUOUS
 62
     2
100
AcDbLine
 39
96.0
 10
30.292848
 20
27.82983
 30
0.0
 11
30.292848
 21
27.82983
 31
0.0
  0
LINE
  5
49A
100
AcDbEntity
  8
BORDER
  6
CONTINUOUS
 62
     2
100
AcDbLine
 39
96.0
 10
29.824098
 20
27.82983
 30
0.0
 11
29.824098
 21
27.82983
 31
0.0
  0
LINE
  5
49B
100
AcDbEntity
  8
BORDER
  6
CONTINUOUS
 62
     2
100
AcDbLine
 39
96.0
 10
30.995978
 20
28.29863
 30
0.0
 11
30.995978
 21
28.29863
 31
0.0
  0
LINE
  5
49C
100
AcDbEntity
  8
BORDER
  6
CONTINUOUS
 62
     2
100
AcDbLine
 39
96.0
 10
30.527228
 20
28.29863
 30
0.0
 11
30.527228
 21
28.29863
 31
0.0
  0
LINE
  5
49D
100
AcDbEntity
  8
BORDER
  6
CONTINUOUS
 62
     2
100
AcDbLine
 39
96.0
 10
30.058478
 20
28.29863
 30
0.0
 11
30.058478
 21
28.29863
 31
0.0
  0
LINE
  5
49E
100
AcDbEntity
  8
BORDER
  6
CONTINUOUS
 62
     2
100
AcDbLine
 39
96.0
 10
29.589728
 20
28.29863
 30
0.0
 11
29.589728
 21
28.29863
 31
0.0
  0
LINE
  5
49F
100
AcDbEntity
  8
BORDER
  6
CONTINUOUS
 62
     2
100
AcDbLine
 39
96.0
 10
31.230348
 20
28.76733
 30
0.0
 11
31.230348
 21
28.76733
 31
0.0
  0
LINE
  5
4A0
100
AcDbEntity
  8
BORDER
  6
CONTINUOUS
 62
     2
100
AcDbLine
 39
96.0
 10
30.761598
 20
28.76733
 30
0.0
 11
30.761598
 21
28.76733
 31
0.0
  0
LINE
  5
4A1
100
AcDbEntity
  8
BORDER
  6
CONTINUOUS
 62
     2
100
AcDbLine
 39
96.0
 10
30.292848
 20
28.76733
 30
0.0
 11
30.292848
 21
28.76733
 31
0.0
  0
LINE
  5
4A2
100
AcDbEntity
  8
BORDER
  6
CONTINUOUS
 62
     2
100
AcDbLine
 39
96.0
 10
29.824098
 20
28.76733
 30
0.0
 11
29.824098
 21
28.76733
 31
0.0
  0
LINE
  5
4A3
100
AcDbEntity
  8
BORDER
  6
CONTINUOUS
 62
     2
100
AcDbLine
 39
96.0
 10
30.995978
 20
29.23613
 30
0.0
 11
30.995978
 21
29.23613
 31
0.0
  0
LINE
  5
4A4
100
AcDbEntity
  8
BORDER
  6
CONTINUOUS
 62
     2
100
AcDbLine
 39
96.0
 10
30.527228
 20
29.23613
 30
0.0
 11
30.527228
 21
29.23613
 31
0.0
  0
LINE
  5
4A5
100
AcDbEntity
  8
BORDER
  6
CONTINUOUS
 62
     2
100
AcDbLine
 39
96.0
 10
30.058478
 20
29.23613
 30
0.0
 11
30.058478
 21
29.23613
 31
0.0
  0
LINE
  5
4A6
100
AcDbEntity
  8
BORDER
  6
CONTINUOUS
 62
     2
100
AcDbLine
 39
96.0
 10
29.589728
 20
29.23613
 30
0.0
 11
29.589728
 21
29.23613
 31
0.0
  0
LINE
  5
4A7
100
AcDbEntity
  8
BORDER
  6
CONTINUOUS
 62
     2
100
AcDbLine
 39
96.0
 10
31.230348
 20
29.70483
 30
0.0
 11
31.230348
 21
29.70483
 31
0.0
  0
LINE
  5
4A8
100
AcDbEntity
  8
BORDER
  6
CONTINUOUS
 62
     2
100
AcDbLine
 39
96.0
 10
30.761598
 20
29.70483
 30
0.0
 11
30.761598
 21
29.70483
 31
0.0
  0
LINE
  5
4A9
100
AcDbEntity
  8
BORDER
  6
CONTINUOUS
 62
     2
100
AcDbLine
 39
96.0
 10
30.292848
 20
29.70483
 30
0.0
 11
30.292848
 21
29.70483
 31
0.0
  0
LINE
  5
4AA
100
AcDbEntity
  8
BORDER
  6
CONTINUOUS
 62
     2
100
AcDbLine
 39
96.0
 10
29.824098
 20
29.70483
 30
0.0
 11
29.824098
 21
29.70483
 31
0.0
  0
LINE
  5
4AB
100
AcDbEntity
  8
BORDER
  6
CONTINUOUS
 62
     2
100
AcDbLine
 39
96.0
 10
30.995978
 20
30.17363
 30
0.0
 11
30.995978
 21
30.17363
 31
0.0
  0
LINE
  5
4AC
100
AcDbEntity
  8
BORDER
  6
CONTINUOUS
 62
     2
100
AcDbLine
 39
96.0
 10
30.527228
 20
30.17363
 30
0.0
 11
30.527228
 21
30.17363
 31
0.0
  0
LINE
  5
4AD
100
AcDbEntity
  8
BORDER
  6
CONTINUOUS
 62
     2
100
AcDbLine
 39
96.0
 10
30.058478
 20
30.17363
 30
0.0
 11
30.058478
 21
30.17363
 31
0.0
  0
LINE
  5
4AE
100
AcDbEntity
  8
BORDER
  6
CONTINUOUS
 62
     2
100
AcDbLine
 39
96.0
 10
29.589728
 20
30.17363
 30
0.0
 11
29.589728
 21
30.17363
 31
0.0
  0
LINE
  5
4AF
100
AcDbEntity
  8
BORDER
  6
CONTINUOUS
 62
     2
100
AcDbLine
 39
96.0
 10
31.230348
 20
30.64233
 30
0.0
 11
31.230348
 21
30.64233
 31
0.0
  0
LINE
  5
4B0
100
AcDbEntity
  8
BORDER
  6
CONTINUOUS
 62
     2
100
AcDbLine
 39
96.0
 10
30.761598
 20
30.64233
 30
0.0
 11
30.761598
 21
30.64233
 31
0.0
  0
LINE
  5
4B1
100
AcDbEntity
  8
BORDER
  6
CONTINUOUS
 62
     2
100
AcDbLine
 39
96.0
 10
30.292848
 20
30.64233
 30
0.0
 11
30.292848
 21
30.64233
 31
0.0
  0
LINE
  5
4B2
100
AcDbEntity
  8
BORDER
  6
CONTINUOUS
 62
     2
100
AcDbLine
 39
96.0
 10
29.824098
 20
30.64233
 30
0.0
 11
29.824098
 21
30.64233
 31
0.0
  0
LINE
  5
4B3
100
AcDbEntity
  8
BORDER
  6
CONTINUOUS
 62
     2
100
AcDbLine
 39
96.0
 10
30.995978
 20
31.11113
 30
0.0
 11
30.995978
 21
31.11113
 31
0.0
  0
LINE
  5
4B4
100
AcDbEntity
  8
BORDER
  6
CONTINUOUS
 62
     2
100
AcDbLine
 39
96.0
 10
30.527228
 20
31.11113
 30
0.0
 11
30.527228
 21
31.11113
 31
0.0
  0
LINE
  5
4B5
100
AcDbEntity
  8
BORDER
  6
CONTINUOUS
 62
     2
100
AcDbLine
 39
96.0
 10
30.058478
 20
31.11113
 30
0.0
 11
30.058478
 21
31.11113
 31
0.0
  0
LINE
  5
4B6
100
AcDbEntity
  8
BORDER
  6
CONTINUOUS
 62
     2
100
AcDbLine
 39
96.0
 10
29.589728
 20
31.11113
 30
0.0
 11
29.589728
 21
31.11113
 31
0.0
  0
LINE
  5
4B7
100
AcDbEntity
  8
BORDER
  6
CONTINUOUS
 62
     2
100
AcDbLine
 39
96.0
 10
31.230348
 20
31.57983
 30
0.0
 11
31.230348
 21
31.57983
 31
0.0
  0
LINE
  5
4B8
100
AcDbEntity
  8
BORDER
  6
CONTINUOUS
 62
     2
100
AcDbLine
 39
96.0
 10
30.761598
 20
31.57983
 30
0.0
 11
30.761598
 21
31.57983
 31
0.0
  0
LINE
  5
4B9
100
AcDbEntity
  8
BORDER
  6
CONTINUOUS
 62
     2
100
AcDbLine
 39
96.0
 10
30.292848
 20
31.57983
 30
0.0
 11
30.292848
 21
31.57983
 31
0.0
  0
LINE
  5
4BA
100
AcDbEntity
  8
BORDER
  6
CONTINUOUS
 62
     2
100
AcDbLine
 39
96.0
 10
29.824098
 20
31.57983
 30
0.0
 11
29.824098
 21
31.57983
 31
0.0
  0
LINE
  5
4BB
100
AcDbEntity
  8
BORDER
  6
CONTINUOUS
 62
     2
100
AcDbLine
 39
96.0
 10
30.995978
 20
32.04863
 30
0.0
 11
30.995978
 21
32.04863
 31
0.0
  0
LINE
  5
4BC
100
AcDbEntity
  8
BORDER
  6
CONTINUOUS
 62
     2
100
AcDbLine
 39
96.0
 10
30.527228
 20
32.04863
 30
0.0
 11
30.527228
 21
32.04863
 31
0.0
  0
LINE
  5
4BD
100
AcDbEntity
  8
BORDER
  6
CONTINUOUS
 62
     2
100
AcDbLine
 39
96.0
 10
30.058478
 20
32.04863
 30
0.0
 11
30.058478
 21
32.04863
 31
0.0
  0
LINE
  5
4BE
100
AcDbEntity
  8
BORDER
  6
CONTINUOUS
 62
     2
100
AcDbLine
 39
96.0
 10
29.589728
 20
32.04863
 30
0.0
 11
29.589728
 21
32.04863
 31
0.0
  0
LINE
  5
4BF
100
AcDbEntity
  8
BORDER
  6
CONTINUOUS
 62
     2
100
AcDbLine
 39
96.0
 10
31.230348
 20
32.51733
 30
0.0
 11
31.230348
 21
32.51733
 31
0.0
  0
LINE
  5
4C0
100
AcDbEntity
  8
BORDER
  6
CONTINUOUS
 62
     2
100
AcDbLine
 39
96.0
 10
30.761598
 20
32.51733
 30
0.0
 11
30.761598
 21
32.51733
 31
0.0
  0
LINE
  5
4C1
100
AcDbEntity
  8
BORDER
  6
CONTINUOUS
 62
     2
100
AcDbLine
 39
96.0
 10
30.292848
 20
32.51733
 30
0.0
 11
30.292848
 21
32.51733
 31
0.0
  0
LINE
  5
4C2
100
AcDbEntity
  8
BORDER
  6
CONTINUOUS
 62
     2
100
AcDbLine
 39
96.0
 10
29.824098
 20
32.51733
 30
0.0
 11
29.824098
 21
32.51733
 31
0.0
  0
LINE
  5
4C3
100
AcDbEntity
  8
BORDER
  6
CONTINUOUS
 62
     2
100
AcDbLine
 39
96.0
 10
30.995978
 20
32.98613
 30
0.0
 11
30.995978
 21
32.98613
 31
0.0
  0
LINE
  5
4C4
100
AcDbEntity
  8
BORDER
  6
CONTINUOUS
 62
     2
100
AcDbLine
 39
96.0
 10
30.527228
 20
32.98613
 30
0.0
 11
30.527228
 21
32.98613
 31
0.0
  0
LINE
  5
4C5
100
AcDbEntity
  8
BORDER
  6
CONTINUOUS
 62
     2
100
AcDbLine
 39
96.0
 10
30.058478
 20
32.98613
 30
0.0
 11
30.058478
 21
32.98613
 31
0.0
  0
LINE
  5
4C6
100
AcDbEntity
  8
BORDER
  6
CONTINUOUS
 62
     2
100
AcDbLine
 39
96.0
 10
29.589728
 20
32.98613
 30
0.0
 11
29.589728
 21
32.98613
 31
0.0
  0
LINE
  5
4C7
100
AcDbEntity
  8
BORDER
  6
CONTINUOUS
 62
     2
100
AcDbLine
 39
96.0
 10
31.230348
 20
33.45483
 30
0.0
 11
31.230348
 21
33.45483
 31
0.0
  0
LINE
  5
4C8
100
AcDbEntity
  8
BORDER
  6
CONTINUOUS
 62
     2
100
AcDbLine
 39
96.0
 10
30.761598
 20
33.45483
 30
0.0
 11
30.761598
 21
33.45483
 31
0.0
  0
LINE
  5
4C9
100
AcDbEntity
  8
BORDER
  6
CONTINUOUS
 62
     2
100
AcDbLine
 39
96.0
 10
30.292848
 20
33.45483
 30
0.0
 11
30.292848
 21
33.45483
 31
0.0
  0
LINE
  5
4CA
100
AcDbEntity
  8
BORDER
  6
CONTINUOUS
 62
     2
100
AcDbLine
 39
96.0
 10
29.824098
 20
33.45483
 30
0.0
 11
29.824098
 21
33.45483
 31
0.0
  0
LINE
  5
4CB
100
AcDbEntity
  8
BORDER
  6
CONTINUOUS
 62
     2
100
AcDbLine
 39
96.0
 10
30.995978
 20
33.92363
 30
0.0
 11
30.995978
 21
33.92363
 31
0.0
  0
LINE
  5
4CC
100
AcDbEntity
  8
BORDER
  6
CONTINUOUS
 62
     2
100
AcDbLine
 39
96.0
 10
30.527228
 20
33.92363
 30
0.0
 11
30.527228
 21
33.92363
 31
0.0
  0
LINE
  5
4CD
100
AcDbEntity
  8
BORDER
  6
CONTINUOUS
 62
     2
100
AcDbLine
 39
96.0
 10
30.058478
 20
33.92363
 30
0.0
 11
30.058478
 21
33.92363
 31
0.0
  0
LINE
  5
4CE
100
AcDbEntity
  8
BORDER
  6
CONTINUOUS
 62
     2
100
AcDbLine
 39
96.0
 10
29.589728
 20
33.92363
 30
0.0
 11
29.589728
 21
33.92363
 31
0.0
  0
LINE
  5
4CF
100
AcDbEntity
  8
BORDER
  6
CONTINUOUS
 62
     2
100
AcDbLine
 39
96.0
 10
31.230348
 20
34.39233
 30
0.0
 11
31.230348
 21
34.39233
 31
0.0
  0
LINE
  5
4D0
100
AcDbEntity
  8
BORDER
  6
CONTINUOUS
 62
     2
100
AcDbLine
 39
96.0
 10
30.761598
 20
34.39233
 30
0.0
 11
30.761598
 21
34.39233
 31
0.0
  0
LINE
  5
4D1
100
AcDbEntity
  8
BORDER
  6
CONTINUOUS
 62
     2
100
AcDbLine
 39
96.0
 10
30.292848
 20
34.39233
 30
0.0
 11
30.292848
 21
34.39233
 31
0.0
  0
LINE
  5
4D2
100
AcDbEntity
  8
BORDER
  6
CONTINUOUS
 62
     2
100
AcDbLine
 39
96.0
 10
29.824098
 20
34.39233
 30
0.0
 11
29.824098
 21
34.39233
 31
0.0
  0
LINE
  5
4D3
100
AcDbEntity
  8
BORDER
  6
CONTINUOUS
 62
     2
100
AcDbLine
 39
96.0
 10
30.995978
 20
34.86113
 30
0.0
 11
30.995978
 21
34.86113
 31
0.0
  0
LINE
  5
4D4
100
AcDbEntity
  8
BORDER
  6
CONTINUOUS
 62
     2
100
AcDbLine
 39
96.0
 10
30.527228
 20
34.86113
 30
0.0
 11
30.527228
 21
34.86113
 31
0.0
  0
LINE
  5
4D5
100
AcDbEntity
  8
BORDER
  6
CONTINUOUS
 62
     2
100
AcDbLine
 39
96.0
 10
30.058478
 20
34.86113
 30
0.0
 11
30.058478
 21
34.86113
 31
0.0
  0
LINE
  5
4D6
100
AcDbEntity
  8
BORDER
  6
CONTINUOUS
 62
     2
100
AcDbLine
 39
96.0
 10
29.589728
 20
34.86113
 30
0.0
 11
29.589728
 21
34.86113
 31
0.0
  0
LINE
  5
4D7
100
AcDbEntity
  8
BORDER
  6
CONTINUOUS
 62
     2
100
AcDbLine
 39
96.0
 10
31.230348
 20
35.32983
 30
0.0
 11
31.230348
 21
35.32983
 31
0.0
  0
LINE
  5
4D8
100
AcDbEntity
  8
BORDER
  6
CONTINUOUS
 62
     2
100
AcDbLine
 39
96.0
 10
30.761598
 20
35.32983
 30
0.0
 11
30.761598
 21
35.32983
 31
0.0
  0
LINE
  5
4D9
100
AcDbEntity
  8
BORDER
  6
CONTINUOUS
 62
     2
100
AcDbLine
 39
96.0
 10
30.292848
 20
35.32983
 30
0.0
 11
30.292848
 21
35.32983
 31
0.0
  0
LINE
  5
4DA
100
AcDbEntity
  8
BORDER
  6
CONTINUOUS
 62
     2
100
AcDbLine
 39
96.0
 10
29.824098
 20
35.32983
 30
0.0
 11
29.824098
 21
35.32983
 31
0.0
  0
LINE
  5
4DB
100
AcDbEntity
  8
BORDER
  6
CONTINUOUS
 62
     2
100
AcDbLine
 39
96.0
 10
30.995978
 20
35.79863
 30
0.0
 11
30.995978
 21
35.79863
 31
0.0
  0
LINE
  5
4DC
100
AcDbEntity
  8
BORDER
  6
CONTINUOUS
 62
     2
100
AcDbLine
 39
96.0
 10
30.527228
 20
35.79863
 30
0.0
 11
30.527228
 21
35.79863
 31
0.0
  0
LINE
  5
4DD
100
AcDbEntity
  8
BORDER
  6
CONTINUOUS
 62
     2
100
AcDbLine
 39
96.0
 10
30.058478
 20
35.79863
 30
0.0
 11
30.058478
 21
35.79863
 31
0.0
  0
LINE
  5
4DE
100
AcDbEntity
  8
BORDER
  6
CONTINUOUS
 62
     2
100
AcDbLine
 39
96.0
 10
29.589728
 20
35.79863
 30
0.0
 11
29.589728
 21
35.79863
 31
0.0
  0
LINE
  5
4DF
100
AcDbEntity
  8
BORDER
  6
CONTINUOUS
 62
     2
100
AcDbLine
 39
96.0
 10
31.230348
 20
36.26733
 30
0.0
 11
31.230348
 21
36.26733
 31
0.0
  0
LINE
  5
4E0
100
AcDbEntity
  8
BORDER
  6
CONTINUOUS
 62
     2
100
AcDbLine
 39
96.0
 10
30.761598
 20
36.26733
 30
0.0
 11
30.761598
 21
36.26733
 31
0.0
  0
LINE
  5
4E1
100
AcDbEntity
  8
BORDER
  6
CONTINUOUS
 62
     2
100
AcDbLine
 39
96.0
 10
30.292848
 20
36.26733
 30
0.0
 11
30.292848
 21
36.26733
 31
0.0
  0
LINE
  5
4E2
100
AcDbEntity
  8
BORDER
  6
CONTINUOUS
 62
     2
100
AcDbLine
 39
96.0
 10
29.824098
 20
36.26733
 30
0.0
 11
29.824098
 21
36.26733
 31
0.0
  0
LINE
  5
4E3
100
AcDbEntity
  8
BORDER
  6
CONTINUOUS
 62
     2
100
AcDbLine
 39
96.0
 10
30.995978
 20
36.73613
 30
0.0
 11
30.995978
 21
36.73613
 31
0.0
  0
LINE
  5
4E4
100
AcDbEntity
  8
BORDER
  6
CONTINUOUS
 62
     2
100
AcDbLine
 39
96.0
 10
30.527228
 20
36.73613
 30
0.0
 11
30.527228
 21
36.73613
 31
0.0
  0
LINE
  5
4E5
100
AcDbEntity
  8
BORDER
  6
CONTINUOUS
 62
     2
100
AcDbLine
 39
96.0
 10
30.058478
 20
36.73613
 30
0.0
 11
30.058478
 21
36.73613
 31
0.0
  0
LINE
  5
4E6
100
AcDbEntity
  8
BORDER
  6
CONTINUOUS
 62
     2
100
AcDbLine
 39
96.0
 10
29.589728
 20
36.73613
 30
0.0
 11
29.589728
 21
36.73613
 31
0.0
  0
LINE
  5
4E7
100
AcDbEntity
  8
BORDER
  6
CONTINUOUS
 62
     2
100
AcDbLine
 39
96.0
 10
31.230348
 20
37.20483
 30
0.0
 11
31.230348
 21
37.20483
 31
0.0
  0
LINE
  5
4E8
100
AcDbEntity
  8
BORDER
  6
CONTINUOUS
 62
     2
100
AcDbLine
 39
96.0
 10
30.761598
 20
37.20483
 30
0.0
 11
30.761598
 21
37.20483
 31
0.0
  0
LINE
  5
4E9
100
AcDbEntity
  8
BORDER
  6
CONTINUOUS
 62
     2
100
AcDbLine
 39
96.0
 10
30.292848
 20
37.20483
 30
0.0
 11
30.292848
 21
37.20483
 31
0.0
  0
LINE
  5
4EA
100
AcDbEntity
  8
BORDER
  6
CONTINUOUS
 62
     2
100
AcDbLine
 39
96.0
 10
29.824098
 20
37.20483
 30
0.0
 11
29.824098
 21
37.20483
 31
0.0
  0
LINE
  5
4EB
100
AcDbEntity
  8
BORDER
  6
CONTINUOUS
 62
     2
100
AcDbLine
 39
96.0
 10
30.995978
 20
37.67363
 30
0.0
 11
30.995978
 21
37.67363
 31
0.0
  0
LINE
  5
4EC
100
AcDbEntity
  8
BORDER
  6
CONTINUOUS
 62
     2
100
AcDbLine
 39
96.0
 10
30.527228
 20
37.67363
 30
0.0
 11
30.527228
 21
37.67363
 31
0.0
  0
LINE
  5
4ED
100
AcDbEntity
  8
BORDER
  6
CONTINUOUS
 62
     2
100
AcDbLine
 39
96.0
 10
30.058478
 20
37.67363
 30
0.0
 11
30.058478
 21
37.67363
 31
0.0
  0
LINE
  5
4EE
100
AcDbEntity
  8
BORDER
  6
CONTINUOUS
 62
     2
100
AcDbLine
 39
96.0
 10
29.589728
 20
37.67363
 30
0.0
 11
29.589728
 21
37.67363
 31
0.0
  0
LINE
  5
4EF
100
AcDbEntity
  8
BORDER
  6
CONTINUOUS
 62
     2
100
AcDbLine
 39
96.0
 10
31.230348
 20
38.14233
 30
0.0
 11
31.230348
 21
38.14233
 31
0.0
  0
LINE
  5
4F0
100
AcDbEntity
  8
BORDER
  6
CONTINUOUS
 62
     2
100
AcDbLine
 39
96.0
 10
30.761598
 20
38.14233
 30
0.0
 11
30.761598
 21
38.14233
 31
0.0
  0
LINE
  5
4F1
100
AcDbEntity
  8
BORDER
  6
CONTINUOUS
 62
     2
100
AcDbLine
 39
96.0
 10
30.292848
 20
38.14233
 30
0.0
 11
30.292848
 21
38.14233
 31
0.0
  0
LINE
  5
4F2
100
AcDbEntity
  8
BORDER
  6
CONTINUOUS
 62
     2
100
AcDbLine
 39
96.0
 10
29.824098
 20
38.14233
 30
0.0
 11
29.824098
 21
38.14233
 31
0.0
  0
LINE
  5
4F3
100
AcDbEntity
  8
BORDER
  6
CONTINUOUS
 62
     2
100
AcDbLine
 39
96.0
 10
30.995978
 20
38.61113
 30
0.0
 11
30.995978
 21
38.61113
 31
0.0
  0
LINE
  5
4F4
100
AcDbEntity
  8
BORDER
  6
CONTINUOUS
 62
     2
100
AcDbLine
 39
96.0
 10
30.527228
 20
38.61113
 30
0.0
 11
30.527228
 21
38.61113
 31
0.0
  0
LINE
  5
4F5
100
AcDbEntity
  8
BORDER
  6
CONTINUOUS
 62
     2
100
AcDbLine
 39
96.0
 10
30.058478
 20
38.61113
 30
0.0
 11
30.058478
 21
38.61113
 31
0.0
  0
LINE
  5
4F6
100
AcDbEntity
  8
BORDER
  6
CONTINUOUS
 62
     2
100
AcDbLine
 39
96.0
 10
29.589728
 20
38.61113
 30
0.0
 11
29.589728
 21
38.61113
 31
0.0
  0
LINE
  5
4F7
100
AcDbEntity
  8
BORDER
  6
CONTINUOUS
 62
     2
100
AcDbLine
 39
96.0
 10
31.230348
 20
39.07983
 30
0.0
 11
31.230348
 21
39.07983
 31
0.0
  0
LINE
  5
4F8
100
AcDbEntity
  8
BORDER
  6
CONTINUOUS
 62
     2
100
AcDbLine
 39
96.0
 10
30.761598
 20
39.07983
 30
0.0
 11
30.761598
 21
39.07983
 31
0.0
  0
LINE
  5
4F9
100
AcDbEntity
  8
BORDER
  6
CONTINUOUS
 62
     2
100
AcDbLine
 39
96.0
 10
30.292848
 20
39.07983
 30
0.0
 11
30.292848
 21
39.07983
 31
0.0
  0
LINE
  5
4FA
100
AcDbEntity
  8
BORDER
  6
CONTINUOUS
 62
     2
100
AcDbLine
 39
96.0
 10
29.824098
 20
39.07983
 30
0.0
 11
29.824098
 21
39.07983
 31
0.0
  0
LINE
  5
4FB
100
AcDbEntity
  8
BORDER
  6
CONTINUOUS
 62
     2
100
AcDbLine
 39
96.0
 10
30.995978
 20
39.54863
 30
0.0
 11
30.995978
 21
39.54863
 31
0.0
  0
LINE
  5
4FC
100
AcDbEntity
  8
BORDER
  6
CONTINUOUS
 62
     2
100
AcDbLine
 39
96.0
 10
30.527228
 20
39.54863
 30
0.0
 11
30.527228
 21
39.54863
 31
0.0
  0
LINE
  5
4FD
100
AcDbEntity
  8
BORDER
  6
CONTINUOUS
 62
     2
100
AcDbLine
 39
96.0
 10
30.058478
 20
39.54863
 30
0.0
 11
30.058478
 21
39.54863
 31
0.0
  0
LINE
  5
4FE
100
AcDbEntity
  8
BORDER
  6
CONTINUOUS
 62
     2
100
AcDbLine
 39
96.0
 10
29.589728
 20
39.54863
 30
0.0
 11
29.589728
 21
39.54863
 31
0.0
  0
LINE
  5
4FF
100
AcDbEntity
  8
BORDER
  6
CONTINUOUS
 62
     1
100
AcDbLine
 39
96.0
 10
37.443978
 20
28.99803
 30
0.0
 11
37.454718
 21
29.05953
 31
0.0
  0
LINE
  5
500
100
AcDbEntity
  8
BORDER
  6
CONTINUOUS
 62
     1
100
AcDbLine
 39
96.0
 10
37.009888
 20
26.53601
 30
0.0
 11
37.020638
 21
26.59753
 31
0.0
  0
LINE
  5
501
100
AcDbEntity
  8
BORDER
  6
CONTINUOUS
 62
     1
100
AcDbLine
 39
96.0
 10
36.284308
 20
36.81823
 30
0.0
 11
36.295048
 21
36.87973
 31
0.0
  0
LINE
  5
502
100
AcDbEntity
  8
BORDER
  6
CONTINUOUS
 62
     1
100
AcDbLine
 39
96.0
 10
35.850228
 20
34.35623
 30
0.0
 11
35.860968
 21
34.41773
 31
0.0
  0
LINE
  5
503
100
AcDbEntity
  8
BORDER
  6
CONTINUOUS
 62
     1
100
AcDbLine
 39
96.0
 10
35.416138
 20
31.89413
 30
0.0
 11
35.426888
 21
31.95573
 31
0.0
  0
LINE
  5
504
100
AcDbEntity
  8
BORDER
  6
CONTINUOUS
 62
     1
100
AcDbLine
 39
96.0
 10
34.982058
 20
29.43213
 30
0.0
 11
34.992798
 21
29.49363
 31
0.0
  0
LINE
  5
505
100
AcDbEntity
  8
BORDER
  6
CONTINUOUS
 62
     1
100
AcDbLine
 39
96.0
 10
33.388558
 20
34.79033
 30
0.0
 11
33.399298
 21
34.85183
 31
0.0
  0
LINE
  5
506
100
AcDbEntity
  8
BORDER
  6
CONTINUOUS
 62
     1
100
AcDbLine
 39
96.0
 10
32.954468
 20
32.32823
 30
0.0
 11
32.965218
 21
32.38973
 31
0.0
  0
LINE
  5
507
100
AcDbEntity
  8
BORDER
  6
CONTINUOUS
 62
     1
100
AcDbLine
 39
96.0
 10
32.520388
 20
29.86623
 30
0.0
 11
32.531128
 21
29.92773
 31
0.0
  0
LINE
  5
508
100
AcDbEntity
  8
BORDER
  6
CONTINUOUS
 62
     1
100
AcDbLine
 39
96.0
 10
32.086308
 20
27.40417
 30
0.0
 11
32.097048
 21
27.46573
 31
0.0
  0
LINE
  5
509
100
AcDbEntity
  8
BORDER
  6
CONTINUOUS
 62
     1
100
AcDbLine
 39
96.0
 10
31.360718
 20
37.68643
 30
0.0
 11
31.371468
 21
37.74793
 31
0.0
  0
LINE
  5
50A
100
AcDbEntity
  8
BORDER
  6
CONTINUOUS
 62
     1
100
AcDbLine
 39
96.0
 10
37.365608
 20
27.39441
 30
0.0
 11
37.401498
 21
27.44563
 31
0.0
  0
LINE
  5
50B
100
AcDbEntity
  8
BORDER
  6
CONTINUOUS
 62
     1
100
AcDbLine
 39
96.0
 10
36.752078
 20
30.87613
 30
0.0
 11
36.787968
 21
30.92723
 31
0.0
  0
LINE
  5
50C
100
AcDbEntity
  8
BORDER
  6
CONTINUOUS
 62
     1
100
AcDbLine
 39
96.0
 10
35.317998
 20
28.82823
 30
0.0
 11
35.353888
 21
28.87943
 31
0.0
  0
LINE
  5
50D
100
AcDbEntity
  8
BORDER
  6
CONTINUOUS
 62
     1
100
AcDbLine
 39
96.0
 10
36.138308
 20
34.35793
 30
0.0
 11
36.174198
 21
34.40903
 31
0.0
  0
LINE
  5
50E
100
AcDbEntity
  8
BORDER
  6
CONTINUOUS
 62
     1
100
AcDbLine
 39
96.0
 10
34.704228
 20
32.31003
 30
0.0
 11
34.740118
 21
32.36123
 31
0.0
  0
LINE
  5
50F
100
AcDbEntity
  8
BORDER
  6
CONTINUOUS
 62
     1
100
AcDbLine
 39
96.0
 10
33.270148
 20
30.26213
 30
0.0
 11
33.306038
 21
30.31333
 31
0.0
  0
LINE
  5
510
100
AcDbEntity
  8
BORDER
  6
CONTINUOUS
 62
     1
100
AcDbLine
 39
96.0
 10
31.836068
 20
28.21423
 30
0.0
 11
31.871948
 21
28.26543
 31
0.0
  0
LINE
  5
511
100
AcDbEntity
  8
BORDER
  6
CONTINUOUS
 62
     1
100
AcDbLine
 39
96.0
 10
34.090458
 20
35.79173
 30
0.0
 11
34.126348
 21
35.84293
 31
0.0
  0
LINE
  5
512
100
AcDbEntity
  8
BORDER
  6
CONTINUOUS
 62
     1
100
AcDbLine
 39
96.0
 10
32.656378
 20
33.74393
 30
0.0
 11
32.692268
 21
33.79503
 31
0.0
  0
LINE
  5
513
100
AcDbEntity
  8
BORDER
  6
CONTINUOUS
 62
     1
100
AcDbLine
 39
96.0
 10
32.042358
 20
37.22573
 30
0.0
 11
32.078248
 21
37.27693
 31
0.0
  0
LINE
  5
514
100
AcDbEntity
  8
BORDER
  6
CONTINUOUS
 62
     1
100
AcDbLine
 39
96.0
 10
36.699838
 20
26.97693
 30
0.0
 11
36.758668
 21
26.99829
 31
0.0
  0
LINE
  5
515
100
AcDbEntity
  8
BORDER
  6
CONTINUOUS
 62
     1
100
AcDbLine
 39
96.0
 10
35.608848
 20
28.14493
 30
0.0
 11
35.667678
 21
28.16633
 31
0.0
  0
LINE
  5
516
100
AcDbEntity
  8
BORDER
  6
CONTINUOUS
 62
     1
100
AcDbLine
 39
96.0
 10
33.495728
 20
28.47103
 30
0.0
 11
33.554568
 21
28.49243
 31
0.0
  0
LINE
  5
517
100
AcDbEntity
  8
BORDER
  6
CONTINUOUS
 62
     1
100
AcDbLine
 39
96.0
 10
37.339478
 20
32.53043
 30
0.0
 11
37.398318
 21
32.55173
 31
0.0
  0
LINE
  5
518
100
AcDbEntity
  8
BORDER
  6
CONTINUOUS
 62
     1
100
AcDbLine
 39
96.0
 10
34.990118
 20
31.67533
 30
0.0
 11
35.048958
 21
31.69673
 31
0.0
  0
LINE
  5
519
100
AcDbEntity
  8
BORDER
  6
CONTINUOUS
 62
     1
100
AcDbLine
 39
96.0
 10
32.640748
 20
30.82033
 30
0.0
 11
32.699588
 21
30.84163
 31
0.0
  0
LINE
  5
51A
100
AcDbEntity
  8
BORDER
  6
CONTINUOUS
 62
     1
100
AcDbLine
 39
96.0
 10
36.484498
 20
34.87963
 30
0.0
 11
36.543338
 21
34.90103
 31
0.0
  0
LINE
  5
51B
100
AcDbEntity
  8
BORDER
  6
CONTINUOUS
 62
     1
100
AcDbLine
 39
96.0
 10
34.135138
 20
34.02463
 30
0.0
 11
34.193978
 21
34.04593
 31
0.0
  0
LINE
  5
51C
100
AcDbEntity
  8
BORDER
  6
CONTINUOUS
 62
     1
100
AcDbLine
 39
96.0
 10
31.785768
 20
33.16953
 30
0.0
 11
31.844608
 21
33.19093
 31
0.0
  0
LINE
  5
51D
100
AcDbEntity
  8
BORDER
  6
CONTINUOUS
 62
     1
100
AcDbLine
 39
96.0
 10
33.280158
 20
36.37393
 30
0.0
 11
33.338998
 21
36.39523
 31
0.0
  0
LINE
  5
51E
100
AcDbEntity
  8
BORDER
  6
CONTINUOUS
 62
     3
100
AcDbLine
 39
96.0
 10
37.502328
 20
24.68439
 30
0.0
 11
39.377328
 21
24.68439
 31
0.0
  0
LINE
  5
51F
100
AcDbEntity
  8
BORDER
  6
CONTINUOUS
 62
     3
100
AcDbLine
 39
96.0
 10
37.502328
 20
39.68443
 30
0.0
 11
29.377328
 21
39.68443
 31
0.0
  0
LINE
  5
520
100
AcDbEntity
  8
BORDER
  6
CONTINUOUS
 62
     3
100
AcDbLine
 39
96.0
 10
37.502328
 20
24.68439
 30
0.0
 11
37.502328
 21
31.426042
 31
0.0
  0
LINE
  5
521
100
AcDbEntity
  8
BORDER
  6
CONTINUOUS
 62
     3
100
AcDbLine
 39
96.0
 10
31.252328
 20
39.68443
 30
0.0
 11
31.252328
 21
24.68439
 31
0.0
  0
LINE
  5
522
100
AcDbEntity
  8
BORDER
  6
CONTINUOUS
 62
     3
100
AcDbLine
 39
96.0
 10
29.377328
 20
39.68443
 30
0.0
 11
29.377328
 21
24.68439
 31
0.0
  0
LINE
  5
523
100
AcDbEntity
  8
BORDER
  6
CONTINUOUS
 62
     3
100
AcDbLine
 39
96.0
 10
39.377328
 20
39.68443
 30
0.0
 11
37.502328
 21
39.68443
 31
0.0
  0
LINE
  5
524
100
AcDbEntity
  8
BORDER
  6
CONTINUOUS
 62
     3
100
AcDbLine
 39
96.0
 10
39.377328
 20
24.68439
 30
0.0
 11
39.377328
 21
39.68443
 31
0.0
  0
LINE
  5
525
100
AcDbEntity
  8
BORDER
  6
CONTINUOUS
 62
     3
100
AcDbLine
 39
96.0
 10
29.377328
 20
24.68439
 30
0.0
 11
31.252328
 21
24.68439
 31
0.0
  0
LINE
  5
526
100
AcDbEntity
  8
BORDER
  6
CONTINUOUS
 62
     3
100
AcDbLine
 39
96.0
 10
31.252328
 20
24.68439
 30
0.0
 11
29.377328
 21
24.68439
 31
0.0
  0
LINE
  5
527
100
AcDbEntity
  8
BORDER
  6
CONTINUOUS
 62
     3
100
AcDbLine
 39
96.0
 10
39.377328
 20
24.68439
 30
0.0
 11
37.502328
 21
24.68439
 31
0.0
  0
LINE
  5
528
100
AcDbEntity
  8
BORDER
  6
CONTINUOUS
 62
    14
100
AcDbLine
 39
96.0
 10
68.667868
 20
40.57283
 30
0.0
 11
57.300854
 21
34.102427
 31
0.0
  0
LINE
  5
529
100
AcDbEntity
  8
BORDER
  6
CONTINUOUS
 62
    14
100
AcDbLine
 39
96.0
 10
54.940207
 20
43.925627
 30
0.0
 11
43.510798
 21
36.309235
 31
0.0
  0
LINE
  5
52A
100
AcDbEntity
  8
BORDER
  6
CONTINUOUS
 62
    14
100
AcDbLine
 39
96.0
 10
50.130998
 20
32.77843
 30
0.0
 11
50.130998
 21
34.63893
 31
0.0
  0
LINE
  5
52B
100
AcDbEntity
  8
BORDER
  6
CONTINUOUS
 62
    14
100
AcDbLine
 39
96.0
 10
51.902978
 20
32.77843
 30
0.0
 11
51.902978
 21
34.63893
 31
0.0
  0
LINE
  5
52C
100
AcDbEntity
  8
BORDER
  6
CONTINUOUS
 62
    14
100
AcDbLine
 39
96.0
 10
53.674698
 20
32.77843
 30
0.0
 11
53.674698
 21
34.63893
 31
0.0
  0
LINE
  5
52D
100
AcDbEntity
  8
BORDER
  6
CONTINUOUS
 62
    14
100
AcDbLine
 39
96.0
 10
60.762348
 20
32.77843
 30
0.0
 11
60.762348
 21
34.63893
 31
0.0
  0
LINE
  5
52E
100
AcDbEntity
  8
BORDER
  6
CONTINUOUS
 62
    14
100
AcDbLine
 39
96.0
 10
58.990378
 20
32.77843
 30
0.0
 11
58.990378
 21
34.63893
 31
0.0
  0
LINE
  5
52F
100
AcDbEntity
  8
BORDER
  6
CONTINUOUS
 62
    14
100
AcDbLine
 39
96.0
 10
57.218648
 20
32.77843
 30
0.0
 11
57.218648
 21
34.63893
 31
0.0
  0
LINE
  5
530
100
AcDbEntity
  8
BORDER
  6
CONTINUOUS
 62
    14
100
AcDbLine
 39
96.0
 10
55.446678
 20
32.77843
 30
0.0
 11
55.446678
 21
34.63893
 31
0.0
  0
LINE
  5
531
100
AcDbEntity
  8
BORDER
  6
CONTINUOUS
 62
     3
100
AcDbLine
 39
96.0
 10
61.358048
 20
33.13283
 30
0.0
 11
49.358048
 21
33.13283
 31
0.0
  0
LINE
  5
532
100
AcDbEntity
  8
BORDER
  6
CONTINUOUS
 62
    14
100
AcDbLine
 39
96.0
 10
39.673873
 20
33.13283
 30
0.0
 11
41.583303
 21
35.75853
 31
0.0
  0
LINE
  5
533
100
AcDbEntity
  8
BORDER
  6
CONTINUOUS
 62
    14
100
AcDbLine
 39
96.0
 10
54.008123
 20
39.30843
 30
0.0
 11
54.557433
 21
37.38533
 31
0.0
  0
LINE
  5
534
100
AcDbEntity
  8
BORDER
  6
CONTINUOUS
 62
    14
100
AcDbLine
 39
96.0
 10
41.583303
 20
35.75853
 30
0.0
 11
54.008123
 21
39.30843
 31
0.0
  0
LINE
  5
535
100
AcDbEntity
  8
BORDER
  6
CONTINUOUS
 62
    14
100
AcDbLine
 39
96.0
 10
39.673873
 20
33.13283
 30
0.0
 11
54.557433
 21
37.38533
 31
0.0
  0
LINE
  5
536
100
AcDbEntity
  8
BORDER
  6
CONTINUOUS
 62
     3
100
AcDbLine
 39
96.0
 10
32.766728
 20
33.13283
 30
0.0
 11
39.673873
 21
33.13283
 31
0.0
  0
LINE
  5
537
100
AcDbEntity
  8
BORDER
  6
CONTINUOUS
 62
    14
100
AcDbLine
 39
96.0
 10
57.017597
 20
43.056227
 30
0.0
 11
53.385277
 21
43.056227
 31
0.0
  0
LINE
  5
538
100
AcDbEntity
  8
BORDER
  6
CONTINUOUS
 62
    14
100
AcDbLine
 39
96.0
 10
65.829978
 20
36.32223
 30
0.0
 11
68.221828
 21
35.17043
 31
0.0
  0
LINE
  5
539
100
AcDbEntity
  8
BORDER
  6
CONTINUOUS
 62
    14
100
AcDbLine
 39
96.0
 10
70.436668
 20
39.51153
 30
0.0
 11
65.829978
 21
36.32223
 31
0.0
  0
LINE
  5
53A
100
AcDbEntity
  8
BORDER
  6
CONTINUOUS
 62
    14
100
AcDbLine
 39
96.0
 10
68.221828
 20
40.84053
 30
0.0
 11
70.436668
 21
39.51153
 31
0.0
  0
LINE
  5
53B
100
AcDbEntity
  8
BORDER
  6
CONTINUOUS
 62
    14
100
AcDbLine
 39
96.0
 10
68.221828
 20
40.84053
 30
0.0
 11
68.221828
 21
45.396315
 31
0.0
  0
LINE
  5
53C
100
AcDbEntity
  8
BORDER
  6
CONTINUOUS
 62
    14
100
AcDbLine
 39
96.0
 10
68.221828
 20
32.06973
 30
0.0
 11
68.221828
 21
35.17043
 31
0.0
  0
LINE
  5
53D
100
AcDbEntity
  8
BORDER
  6
CONTINUOUS
 62
    14
100
AcDbLine
 39
96.0
 10
39.377328
 20
33.43443
 30
0.0
 11
39.893199
 21
33.43443
 31
0.0
  0
LINE
  5
53E
100
AcDbEntity
  8
BORDER
  6
CONTINUOUS
 62
    14
100
AcDbLine
 39
96.0
 10
31.356469
 20
42.425627
 30
0.0
 11
37.335024
 21
42.425627
 31
0.0
  0
LINE
  5
53F
100
AcDbEntity
  8
BORDER
  6
CONTINUOUS
 62
    11
100
AcDbLine
 39
96.0
 10
34.263897
 20
44.925627
 30
0.0
 11
34.263897
 21
41.488127
 31
0.0
  0
LINE
  5
540
100
AcDbEntity
  8
BORDER
  6
CONTINUOUS
 62
    11
100
AcDbLine
 39
96.0
 10
31.356469
 20
44.300627
 30
0.0
 11
68.221828
 21
44.300627
 31
0.0
  0
LINE
  5
541
100
AcDbEntity
  8
BORDER
  6
CONTINUOUS
 62
    11
100
AcDbLine
 39
96.0
 10
67.282007
 20
43.925627
 30
0.0
 11
68.032007
 21
44.675627
 31
0.0
  0
LINE
  5
542
100
AcDbEntity
  8
BORDER
  6
CONTINUOUS
 62
    11
100
AcDbLine
 39
96.0
 10
65.293727
 20
43.925627
 30
0.0
 11
66.043727
 21
44.675627
 31
0.0
  0
LINE
  5
543
100
AcDbEntity
  8
BORDER
  6
CONTINUOUS
 62
    11
100
AcDbLine
 39
96.0
 10
63.305447
 20
43.925627
 30
0.0
 11
64.055447
 21
44.675627
 31
0.0
  0
LINE
  5
544
100
AcDbEntity
  8
BORDER
  6
CONTINUOUS
 62
    11
100
AcDbLine
 39
96.0
 10
61.317157
 20
43.925627
 30
0.0
 11
62.067157
 21
44.675627
 31
0.0
  0
LINE
  5
545
100
AcDbEntity
  8
BORDER
  6
CONTINUOUS
 62
    11
100
AcDbLine
 39
96.0
 10
59.327907
 20
43.925627
 30
0.0
 11
60.077907
 21
44.675627
 31
0.0
  0
LINE
  5
546
100
AcDbEntity
  8
BORDER
  6
CONTINUOUS
 62
    11
100
AcDbLine
 39
96.0
 10
57.339617
 20
43.925627
 30
0.0
 11
58.090597
 21
44.675627
 31
0.0
  0
LINE
  5
547
100
AcDbEntity
  8
BORDER
  6
CONTINUOUS
 62
    11
100
AcDbLine
 39
96.0
 10
55.351337
 20
43.925627
 30
0.0
 11
56.101337
 21
44.675627
 31
0.0
  0
LINE
  5
548
100
AcDbEntity
  8
BORDER
  6
CONTINUOUS
 62
    11
100
AcDbLine
 39
96.0
 10
53.363057
 20
43.925627
 30
0.0
 11
54.113057
 21
44.675627
 31
0.0
  0
LINE
  5
549
100
AcDbEntity
  8
BORDER
  6
CONTINUOUS
 62
    11
100
AcDbLine
 39
96.0
 10
51.373797
 20
43.925627
 30
0.0
 11
52.123797
 21
44.675627
 31
0.0
  0
LINE
  5
54A
100
AcDbEntity
  8
BORDER
  6
CONTINUOUS
 62
    11
100
AcDbLine
 39
96.0
 10
49.385517
 20
43.925627
 30
0.0
 11
50.136497
 21
44.675627
 31
0.0
  0
LINE
  5
54B
100
AcDbEntity
  8
BORDER
  6
CONTINUOUS
 62
    11
100
AcDbLine
 39
96.0
 10
47.397237
 20
43.925627
 30
0.0
 11
48.147237
 21
44.675627
 31
0.0
  0
LINE
  5
54C
100
AcDbEntity
  8
BORDER
  6
CONTINUOUS
 62
    11
100
AcDbLine
 39
96.0
 10
45.408957
 20
43.925627
 30
0.0
 11
46.158957
 21
44.675627
 31
0.0
  0
LINE
  5
54D
100
AcDbEntity
  8
BORDER
  6
CONTINUOUS
 62
    11
100
AcDbLine
 39
96.0
 10
43.419687
 20
43.925627
 30
0.0
 11
44.169687
 21
44.675627
 31
0.0
  0
LINE
  5
54E
100
AcDbEntity
  8
BORDER
  6
CONTINUOUS
 62
    11
100
AcDbLine
 39
96.0
 10
41.432377
 20
43.925627
 30
0.0
 11
42.182377
 21
44.675627
 31
0.0
  0
LINE
  5
54F
100
AcDbEntity
  8
BORDER
  6
CONTINUOUS
 62
    11
100
AcDbLine
 39
96.0
 10
39.443127
 20
43.925627
 30
0.0
 11
40.193127
 21
44.675627
 31
0.0
  0
LINE
  5
550
100
AcDbEntity
  8
BORDER
  6
CONTINUOUS
 62
    11
100
AcDbLine
 39
96.0
 10
37.454837
 20
43.925627
 30
0.0
 11
38.204837
 21
44.675627
 31
0.0
  0
LINE
  5
551
100
AcDbEntity
  8
BORDER
  6
CONTINUOUS
 62
    11
100
AcDbLine
 39
96.0
 10
35.465587
 20
43.925627
 30
0.0
 11
36.216557
 21
44.675627
 31
0.0
  0
LINE
  5
552
100
AcDbEntity
  8
BORDER
  6
CONTINUOUS
 62
    11
100
AcDbLine
 39
96.0
 10
33.478277
 20
43.925627
 30
0.0
 11
34.228277
 21
44.675627
 31
0.0
  0
LINE
  5
553
100
AcDbEntity
  8
BORDER
  6
CONTINUOUS
 62
    11
100
AcDbLine
 39
96.0
 10
56.440207
 20
43.925627
 30
0.0
 11
54.940207
 21
40.425627
 31
0.0
  0
LINE
  5
554
100
AcDbEntity
  8
BORDER
  6
CONTINUOUS
 62
    11
100
AcDbLine
 39
96.0
 10
56.440207
 20
40.425627
 30
0.0
 11
54.940207
 21
43.925627
 31
0.0
  0
LINE
  5
555
100
AcDbEntity
  8
BORDER
  6
CONTINUOUS
 62
    11
100
AcDbLine
 39
96.0
 10
54.940207
 20
40.425627
 30
0.0
 11
56.440207
 21
40.425627
 31
0.0
  0
LINE
  5
556
100
AcDbEntity
  8
BORDER
  6
CONTINUOUS
 62
    11
100
AcDbLine
 39
96.0
 10
56.440207
 20
17.93439
 30
0.0
 11
54.940207
 21
14.43439
 31
0.0
  0
LINE
  5
557
100
AcDbEntity
  8
BORDER
  6
CONTINUOUS
 62
    11
100
AcDbLine
 39
96.0
 10
54.940207
 20
17.93439
 30
0.0
 11
56.440207
 21
14.43439
 31
0.0
  0
LINE
  5
558
100
AcDbEntity
  8
BORDER
  6
CONTINUOUS
 62
    11
100
AcDbLine
 39
96.0
 10
54.940207
 20
17.93439
 30
0.0
 11
56.440207
 21
17.93439
 31
0.0
  0
LINE
  5
559
100
AcDbEntity
  8
BORDER
  6
CONTINUOUS
 62
    11
100
AcDbLine
 39
96.0
 10
54.940207
 20
14.43439
 30
0.0
 11
56.440207
 21
14.43439
 31
0.0
  0
LINE
  5
55A
100
AcDbEntity
  8
BORDER
  6
CONTINUOUS
 62
    11
100
AcDbLine
 39
96.0
 10
56.440207
 20
43.925627
 30
0.0
 11
56.440207
 21
14.43439
 31
0.0
  0
LINE
  5
55B
100
AcDbEntity
  8
BORDER
  6
CONTINUOUS
 62
    11
100
AcDbLine
 39
96.0
 10
54.940207
 20
43.925627
 30
0.0
 11
54.940207
 21
14.43439
 31
0.0
  0
LINE
  5
55C
100
AcDbEntity
  8
BORDER
  6
CONTINUOUS
 62
     3
100
AcDbLine
 39
96.0
 10
34.662327
 20
42.371527
 30
0.0
 11
34.662327
 21
32.392127
 31
0.0
  0
LINE
  5
55D
100
AcDbEntity
  8
BORDER
  6
CONTINUOUS
 62
    11
100
AcDbLine
 39
96.0
 10
35.168347
 20
41.848827
 30
0.0
 11
35.168347
 21
42.411327
 31
0.0
  0
LINE
  5
55E
100
AcDbEntity
  8
BORDER
  6
CONTINUOUS
 62
    11
100
AcDbLine
 39
96.0
 10
34.230847
 20
41.848827
 30
0.0
 11
35.168347
 21
41.848827
 31
0.0
  0
LINE
  5
55F
100
AcDbEntity
  8
BORDER
  6
CONTINUOUS
 62
    11
100
AcDbLine
 39
96.0
 10
34.230847
 20
42.411327
 30
0.0
 11
34.230847
 21
41.848827
 31
0.0
  0
LINE
  5
560
100
AcDbEntity
  8
BORDER
  6
CONTINUOUS
 62
    11
100
AcDbLine
 39
96.0
 10
31.356469
 20
44.675627
 30
0.0
 11
68.221828
 21
44.675627
 31
0.0
  0
LINE
  5
561
100
AcDbEntity
  8
BORDER
  6
CONTINUOUS
 62
    11
100
AcDbLine
 39
96.0
 10
31.356469
 20
43.925627
 30
0.0
 11
68.221828
 21
43.925627
 31
0.0
  0
LINE
  5
562
100
AcDbEntity
  8
BORDER
  6
CONTINUOUS
 62
    11
100
AcDbLine
 39
96.0
 10
37.356469
 20
39.68443
 30
0.0
 11
31.356469
 21
42.411327
 31
0.0
  0
LINE
  5
563
100
AcDbEntity
  8
BORDER
  6
CONTINUOUS
 62
    11
100
AcDbLine
 39
96.0
 10
31.356469
 20
39.68443
 30
0.0
 11
37.356469
 21
42.411327
 31
0.0
  0
LINE
  5
564
100
AcDbEntity
  8
BORDER
  6
CONTINUOUS
 62
    11
100
AcDbLine
 39
96.0
 10
31.356469
 20
44.675627
 30
0.0
 11
31.356469
 21
39.68443
 31
0.0
  0
LINE
  5
565
100
AcDbEntity
  8
BORDER
  6
CONTINUOUS
 62
    11
100
AcDbLine
 39
96.0
 10
37.356469
 20
39.68443
 30
0.0
 11
37.356469
 21
42.411327
 31
0.0
  0
TEXT
  5
566
100
AcDbEntity
  8
BORDER
  6
CONTINUOUS
 62
    15
100
AcDbText
 10
-0.163848
 20
3.273427
 30
0.0
 40
1.124955
  1
REQUIRED, PER DESIGN)
  7
ROMAN
100
AcDbText
  0
TEXT
  5
567
100
AcDbEntity
  8
BORDER
  6
CONTINUOUS
 62
    15
100
AcDbText
 10
1.298875
 20
5.268403
 30
0.0
 40
1.124955
  1
(MIN. #4 @ 30" O.C.)
  7
ROMAN
100
AcDbText
  0
TEXT
  5
568
100
AcDbEntity
  8
BORDER
  6
CONTINUOUS
 62
    15
100
AcDbText
 10
-0.214277
 20
10.862895
 30
0.0
 40
1.124955
  1
REQUIRED, PER DESIGN)
  7
ROMAN
100
AcDbText
  0
TEXT
  5
569
100
AcDbEntity
  8
BORDER
  6
CONTINUOUS
 62
    15
100
AcDbText
 10
1.811411
 20
12.992671
 30
0.0
 40
1.124955
  1
(MIN. #4 @ 30" O.C.
  7
ROMAN
100
AcDbText
  0
TEXT
  5
56A
100
AcDbEntity
  8
BORDER
  6
CONTINUOUS
 62
    15
100
AcDbText
 10
8.834309
 20
37.218895
 30
0.0
 40
1.124955
  1
RASTRA SHELL
  7
ROMAN
100
AcDbText
  0
TEXT
  5
56B
100
AcDbEntity
  8
BORDER
  6
CONTINUOUS
 62
    15
100
AcDbText
 10
8.632111
 20
14.895507
 30
0.0
 40
1.124955
  1
HORIZ. REINF.
  7
ROMAN
100
AcDbText
  0
TEXT
  5
56C
100
AcDbEntity
  8
BORDER
  6
CONTINUOUS
 62
    15
100
AcDbText
 10
10.546682
 20
6.853797
 30
0.0
 40
1.124955
  1
VERT. REINF.
  7
ROMAN
100
AcDbText
  0
TEXT
  5
56D
100
AcDbEntity
  8
BORDER
  6
CONTINUOUS
 62
    11
100
AcDbText
 10
8.557638
 20
21.260544
 30
0.0
 40
1.125
  1
NOTCH PANEL
  7
ROMAN
100
AcDbText
  0
TEXT
  5
56E
100
AcDbEntity
  8
BORDER
  6
CONTINUOUS
 62
    11
100
AcDbText
 10
8.557638
 20
19.60925
 30
0.0
 40
1.125
  1
@ ANCHORAGE
  7
ROMAN
100
AcDbText
  0
TEXT
  5
56F
100
AcDbEntity
  8
BORDER
  6
CONTINUOUS
 62
    11
100
AcDbText
 10
9.323874
 20
24.471385
 30
0.0
 40
1.125
  1
@ 45" O.C.)
  7
ROMAN
100
AcDbText
  0
TEXT
  5
570
100
AcDbEntity
  8
BORDER
  6
CONTINUOUS
 62
    11
100
AcDbText
 10
9.323874
 20
26.458153
 30
0.0
 40
1.125
  1
(MIN. 1/2"%%C A.B. 
  7
ROMAN
100
AcDbText
  0
TEXT
  5
571
100
AcDbEntity
  8
BORDER
  6
CONTINUOUS
 62
    11
100
AcDbText
 10
9.323874
 20
28.386863
 30
0.0
 40
1.125
  1
ANCHOR BOLTS
  7
ROMAN
100
AcDbText
  0
TEXT
  5
572
100
AcDbEntity
  8
BORDER
  6
CONTINUOUS
 62
    11
100
AcDbText
 10
9.323874
 20
30.315573
 30
0.0
 40
1.125
  1
COUNTERSUNK
  7
ROMAN
100
AcDbText
  0
TEXT
  5
573
100
AcDbEntity
  8
BORDER
  6
CONTINUOUS
 62
    11
100
AcDbText
 10
9.323874
 20
32.244293
 30
0.0
 40
1.125
  1
4x PL. WITH
  7
ROMAN
100
AcDbText
  0
TEXT
  5
574
100
AcDbEntity
  8
BORDER
  6
CONTINUOUS
 62
    11
100
AcDbText
 10
62.437888
 20
14.66217
 30
0.0
 40
1.125
  1
PREFAB. TRUSSES
  7
ROMAN
100
AcDbText
  0
TEXT
  5
575
100
AcDbEntity
  8
BORDER
  6
CONTINUOUS
 62
    11
100
AcDbText
 10
63.323628
 20
21.92688
 30
0.0
 40
1.125
  1
STRAP 
  7
ROMAN
100
AcDbText
  0
LINE
  5
576
100
AcDbEntity
  8
BORDER
  6
CONTINUOUS
 62
    14
100
AcDbLine
 10
67.576318
 20
27.95123
 30
0.0
 11
65.804348
 21
27.95123
 31
0.0
  0
LINE
  5
577
100
AcDbEntity
  8
BORDER
  6
CONTINUOUS
 62
    15
100
AcDbLine
 10
42.947148
 20
5.59411
 30
0.0
 11
40.346808
 21
7.28442
 31
0.0
  0
TEXT
  5
578
100
AcDbEntity
  8
BORDER
  6
CONTINUOUS
 62
    11
100
AcDbText
 10
44.187628
 20
4.70813
 30
0.0
 40
1.125
  1
RASTRA WALL
  7
ROMAN
100
AcDbText
  0
LINE
  5
579
100
AcDbEntity
  8
BORDER
  6
CONTINUOUS
 62
    15
100
AcDbLine
 10
44.010378
 20
5.59411
 30
0.0
 11
42.947148
 21
5.59411
 31
0.0
  0
LEADER
  5
57A
100
AcDbEntity
  8
BORDER
  6
CONTINUOUS
 62
    11
100
AcDbLeader
  3
STANDARD
 76
     3
 10
36.426267
 20
33.889686
 30
0.0
 10
45.7914
 20
52.980038
 30
0.0
 10
47.678556
 20
52.980038
 30
0.0
 77
    11
211
-1.0
221
0.0
231
0.0
1001
ACAD
1000
DSTYLE
1002
{
1070
    78
1070
     1
1070
   140
1040
6.0
1070
    73
1070
     0
1070
    77
1070
     1
1070
   173
1070
     1
1070
    42
1040
6.0
1070
    44
1040
0.0
1070
    43
1040
24.0
1070
   141
1040
3.0
1070
     7
1000
_CLOSEDBLANK
1070
     6
1000
_CLOSEDBLANK
1070
    41
1040
1.5
1002
}
  0
LINE
  5
57B
100
AcDbEntity
  8
0
  6
HIDDEN
 62
    13
100
AcDbLine
 39
96.0
 10
37.502328
 20
34.43798
 30
0.0
 11
37.502328
 21
31.426042
 31
0.0
  0
LINE
  5
57C
100
AcDbEntity
  8
BORDER
  6
CONTINUOUS
 62
    11
100
AcDbLine
 10
20.977876
 20
32.931793
 30
0.0
 11
31.311171
 21
39.085393
 31
0.0
  0
LEADER
  5
57D
100
AcDbEntity
  8
RF-SW
 62
    13
100
AcDbLeader
  3
ARCHITECTURAL
 76
     3
 10
34.596819
 20
15.370731
 30
0.0
 10
22.940319
 20
7.33089
 30
0.0
 10
21.151051
 20
7.33089
 30
0.0
 77
    13
1001
ACAD
1000
DSTYLE
1002
{
1070
    40
1040
12.0
1070
   173
1070
     1
1070
     7
1000
_CLOSEDBLANK
1070
     6
1000
_CLOSEDBLANK
1002
}
  0
LEADER
  5
57E
100
AcDbEntity
  8
RF-SW
 62
    13
100
AcDbLeader
  3
ARCHITECTURAL
 76
     3
 10
33.656097
 20
22.70387
 30
0.0
 10
22.469958
 20
15.628711
 30
0.0
 10
20.68069
 20
15.628711
 30
0.0
 77
    13
1001
ACAD
1000
DSTYLE
1002
{
1070
    40
1040
12.0
1070
   173
1070
     1
1070
     7
1000
_CLOSEDBLANK
1070
     6
1000
_CLOSEDBLANK
1002
}
  0
LEADER
  5
57F
100
AcDbEntity
  8
BORDER
  6
CONTINUOUS
 62
    11
100
AcDbLeader
  3
STANDARD
 76
     3
 10
37.508004
 20
32.53043
 30
0.0
 10
22.153252
 20
21.882837
 30
0.0
 10
20.266096
 20
21.882837
 30
0.0
 77
    11
1001
ACAD
1000
DSTYLE
1002
{
1070
    78
1070
     1
1070
   140
1040
6.0
1070
    73
1070
     0
1070
    77
1070
     1
1070
   173
1070
     1
1070
    42
1040
6.0
1070
    44
1040
0.0
1070
    43
1040
24.0
1070
   141
1040
3.0
1070
     7
1000
_CLOSEDBLANK
1070
     6
1000
_CLOSEDBLANK
1070
    41
1040
1.5
1002
}
  0
LINE
  5
580
100
AcDbEntity
  8
BORDER
  6
CONTINUOUS
 62
    11
100
AcDbLine
 10
20.290376
 20
32.931793
 30
0.0
 11
20.977876
 21
32.931793
 31
0.0
  0
LINE
  5
581
100
AcDbEntity
  8
BORDER
  6
CONTINUOUS
 62
    15
100
AcDbLine
 10
40.551148
 20
7.59881
 30
0.0
 11
40.142458
 21
6.97003
 31
0.0
  0
LINE
  5
582
100
AcDbEntity
  8
BORDER
  6
CONTINUOUS
 62
    15
100
AcDbLine
 10
39.403448
 20
7.89752
 30
0.0
 11
40.142458
 21
6.97003
 31
0.0
  0
LINE
  5
583
100
AcDbEntity
  8
BORDER
  6
CONTINUOUS
 62
    15
100
AcDbLine
 10
39.403448
 20
7.89752
 30
0.0
 11
40.551148
 21
7.59881
 31
0.0
  0
LEADER
  5
584
100
AcDbEntity
  8
RF-SW
 62
    13
100
AcDbLeader
  3
ARCHITECTURAL
 76
     3
 10
29.589728
 20
42.368615
 30
0.0
 10
22.672156
 20
37.952099
 30
0.0
 10
20.882887
 20
37.952099
 30
0.0
 77
    13
1001
ACAD
1000
DSTYLE
1002
{
1070
    40
1040
12.0
1070
   173
1070
     1
1070
     7
1000
_CLOSEDBLANK
1070
     6
1000
_CLOSEDBLANK
1002
}
  0
TEXT
  5
585
100
AcDbEntity
  8
BORDER
  6
CONTINUOUS
 62
    11
100
AcDbText
 10
21.316222
 20
47.800627
 30
0.0
 40
1.125
  1
BOUND. NAIL
  7
ROMAN
100
AcDbText
  0
LINE
  5
586
100
AcDbEntity
  8
BORDER
  6
CONTINUOUS
 62
    11
100
AcDbLine
 10
33.006665
 20
48.363127
 30
0.0
 11
33.888764
 21
45.920862
 31
0.0
  0
LINE
  5
587
100
AcDbEntity
  8
BORDER
  6
CONTINUOUS
 62
    11
100
AcDbLine
 10
32.260076
 20
39.690564
 30
0.0
 11
31.105611
 21
39.415761
 31
0.0
  0
LINE
  5
588
100
AcDbEntity
  8
BORDER
  6
CONTINUOUS
 62
    11
100
AcDbLine
 10
32.260076
 20
39.690564
 30
0.0
 11
31.502063
 21
38.778599
 31
0.0
  0
LINE
  5
589
100
AcDbEntity
  8
BORDER
  6
CONTINUOUS
 62
    11
100
AcDbLine
 10
31.502063
 20
38.778599
 30
0.0
 11
31.105611
 21
39.415761
 31
0.0
  0
LINE
  5
58A
100
AcDbEntity
  8
BORDER
  6
CONTINUOUS
 62
    11
100
AcDbLine
 10
34.270737
 20
44.863127
 30
0.0
 11
34.241978
 21
46.048175
 31
0.0
  0
LINE
  5
58B
100
AcDbEntity
  8
BORDER
  6
CONTINUOUS
 62
    11
100
AcDbLine
 10
34.241978
 20
46.048175
 30
0.0
 11
33.535611
 21
45.79363
 31
0.0
  0
LINE
  5
58C
100
AcDbEntity
  8
BORDER
  6
CONTINUOUS
 62
    11
100
AcDbLine
 10
34.270737
 20
44.863127
 30
0.0
 11
33.535611
 21
45.79363
 31
0.0
  0
LINE
  5
58D
100
AcDbEntity
  8
BORDER
  6
CONTINUOUS
 62
    11
100
AcDbLine
 10
32.258186
 20
48.363127
 30
0.0
 11
33.006665
 21
48.363127
 31
0.0
  0
LINE
  5
58E
100
AcDbEntity
  8
BORDER
  6
CONTINUOUS
 62
    14
100
AcDbLine
 10
42.327028
 20
34.12333
 30
0.0
 11
42.057748
 21
32.96843
 31
0.0
  0
LINE
  5
58F
100
AcDbEntity
  8
BORDER
  6
CONTINUOUS
 62
    14
100
AcDbLine
 10
42.327028
 20
34.12333
 30
0.0
 11
42.804568
 21
33.03783
 31
0.0
  0
TEXT
  5
590
100
AcDbEntity
  8
BORDER
  6
CONTINUOUS
 62
    11
100
AcDbText
 10
43.655888
 20
26.37707
 30
0.0
 40
1.125
  1
ANCHORAGE
  7
ROMAN
100
AcDbText
  0
TEXT
  5
591
100
AcDbEntity
  8
BORDER
  6
CONTINUOUS
 62
    11
100
AcDbText
 10
43.655888
 20
28.3056
 30
0.0
 40
1.125
  1
WALL/ROOF
  7
ROMAN
100
AcDbText
  0
LINE
  5
592
100
AcDbEntity
  8
BORDER
  6
CONTINUOUS
 62
    14
100
AcDbLine
 10
42.804568
 20
33.03783
 30
0.0
 11
42.057748
 21
32.96843
 31
0.0
  0
LINE
  5
593
100
AcDbEntity
  8
BORDER
  6
CONTINUOUS
 62
    14
100
AcDbLine
 10
42.799438
 20
29.04393
 30
0.0
 11
42.431278
 21
33.00313
 31
0.0
  0
LINE
  5
594
100
AcDbEntity
  8
BORDER
  6
CONTINUOUS
 62
    14
100
AcDbLine
 10
43.330938
 20
29.04393
 30
0.0
 11
42.799438
 21
29.04393
 31
0.0
  0
LINE
  5
595
100
AcDbEntity
  8
BORDER
  6
CONTINUOUS
 62
    14
100
AcDbLine
 10
60.488668
 20
15.37091
 30
0.0
 11
57.117578
 21
16.58453
 31
0.0
  0
LINE
  5
596
100
AcDbEntity
  8
BORDER
  6
CONTINUOUS
 62
    14
100
AcDbLine
 10
56.058978
 20
16.96564
 30
0.0
 11
56.990378
 21
16.23175
 31
0.0
  0
LINE
  5
597
100
AcDbEntity
  8
BORDER
  6
CONTINUOUS
 62
    14
100
AcDbLine
 10
56.058978
 20
16.96564
 30
0.0
 11
57.244528
 21
16.93744
 31
0.0
  0
LINE
  5
598
100
AcDbEntity
  8
BORDER
  6
CONTINUOUS
 62
    14
100
AcDbLine
 10
57.244528
 20
16.93744
 30
0.0
 11
56.990378
 21
16.23175
 31
0.0
  0
LINE
  5
599
100
AcDbEntity
  8
BORDER
  6
CONTINUOUS
 62
    14
100
AcDbLine
 10
62.260638
 20
15.19378
 30
0.0
 11
60.488668
 21
15.37091
 31
0.0
  0
LINE
  5
59A
100
AcDbEntity
  8
BORDER
  6
CONTINUOUS
 62
    14
100
AcDbLine
 10
61.551898
 20
22.63568
 30
0.0
 11
58.369278
 21
32.02423
 31
0.0
  0
LINE
  5
59B
100
AcDbEntity
  8
BORDER
  6
CONTINUOUS
 62
    14
100
AcDbLine
 10
58.724508
 20
32.14463
 30
0.0
 11
58.014058
 21
31.90383
 31
0.0
  0
LINE
  5
59C
100
AcDbEntity
  8
BORDER
  6
CONTINUOUS
 62
    14
100
AcDbLine
 10
58.007958
 20
33.08963
 30
0.0
 11
58.014058
 21
31.90383
 31
0.0
  0
LINE
  5
59D
100
AcDbEntity
  8
BORDER
  6
CONTINUOUS
 62
    14
100
AcDbLine
 10
58.007958
 20
33.08963
 30
0.0
 11
58.724508
 21
32.14463
 31
0.0
  0
LINE
  5
59E
100
AcDbEntity
  8
BORDER
  6
CONTINUOUS
 62
    14
100
AcDbLine
 10
62.792138
 20
22.63568
 30
0.0
 11
61.551898
 21
22.63568
 31
0.0
  0
LINE
  5
59F
100
AcDbEntity
  8
BORDER
  6
CONTINUOUS
 62
    14
100
AcDbLine
 10
64.594628
 20
32.33973
 30
0.0
 11
63.890518
 21
32.08153
 31
0.0
  0
LINE
  5
5A0
100
AcDbEntity
  8
BORDER
  6
CONTINUOUS
 62
    14
100
AcDbLine
 10
63.855368
 20
33.26693
 30
0.0
 11
63.890518
 21
32.08153
 31
0.0
  0
LINE
  5
5A1
100
AcDbEntity
  8
BORDER
  6
CONTINUOUS
 62
    14
100
AcDbLine
 10
63.855368
 20
33.26693
 30
0.0
 11
64.594628
 21
32.33973
 31
0.0
  0
LINE
  5
5A2
100
AcDbEntity
  8
BORDER
  6
CONTINUOUS
 62
    14
100
AcDbLine
 10
65.804348
 20
27.95123
 30
0.0
 11
64.242578
 21
32.21063
 31
0.0
  0
TEXT
  5
5A3
100
AcDbEntity
  8
BORDER
  6
CONTINUOUS
 62
    11
100
AcDbText
 10
47.775122
 20
52.43214
 30
0.0
 40
1.125
  1
CHORD REINF.
  7
ROMAN
100
AcDbText
  0
TEXT
  5
5A4
100
AcDbEntity
  8
BORDER
  6
CONTINUOUS
 62
    11
100
AcDbText
 10
67.925964
 20
25.63424
 30
0.0
 40
1.125
  1
& ANCHORAGE
  7
ROMAN
100
AcDbText
  0
TEXT
  5
5A5
100
AcDbEntity
  8
BORDER
  6
CONTINUOUS
 62
    11
100
AcDbText
 10
67.930568
 20
27.41974
 30
0.0
 40
1.125
  1
2 X BLK'G @ STRAP
  7
ROMAN
100
AcDbText
  0
ENDBLK
  5
5A7
100
AcDbEntity
  8
0
100
AcDbBlockEnd
  0
ENDSEC
  0
SECTION
  2
ENTITIES
  0
TEXT
  5
2B
100
AcDbEntity
  8
DRAWING
100
AcDbText
 10
13.700543
 20
5.086431
 30
0.0
 40
2.5
  1
FLOOR WALL CONNECTION
  7
TITLE
 72
     1
 11
39.414829
 21
5.086431
 31
0.0
100
AcDbText
  0
LINE
  5
5AA
100
AcDbEntity
  8
BORDER
  6
CONTINUOUS
 62
     7
100
AcDbLine
 39
96.0
 10
56.621679
 20
45.971442
 30
0.0
 11
66.874247
 21
45.971442
 31
0.0
  0
LINE
  5
5AB
100
AcDbEntity
  8
0
  6
CONTINUOUS
100
AcDbLine
 39
96.0
 10
52.769454
 20
46.686095
 30
0.0
 11
51.983107
 21
45.900229
 31
0.0
  0
LINE
  5
5AC
100
AcDbEntity
  8
0
  6
CONTINUOUS
100
AcDbLine
 39
96.0
 10
51.983107
 20
45.900229
 30
0.0
 11
53.512116
 21
45.900229
 31
0.0
  0
LINE
  5
5AD
100
AcDbEntity
  8
0
  6
CONTINUOUS
100
AcDbLine
 39
96.0
 10
56.692936
 20
45.900229
 30
0.0
 11
55.163928
 21
45.900229
 31
0.0
  0
LINE
  5
5AE
100
AcDbEntity
  8
0
  6
CONTINUOUS
100
AcDbLine
 39
96.0
 10
55.906589
 20
46.686095
 30
0.0
 11
56.692936
 21
45.900229
 31
0.0
  0
LINE
  5
5AF
100
AcDbEntity
  8
0
  6
CONTINUOUS
100
AcDbLine
 39
96.0
 10
55.906589
 20
55.636236
 30
0.0
 11
55.906589
 21
46.686095
 31
0.0
  0
LINE
  5
5B0
100
AcDbEntity
  8
0
  6
CONTINUOUS
100
AcDbLine
 39
96.0
 10
55.163928
 20
45.900229
 30
0.0
 11
55.163928
 21
56.596739
 31
0.0
  0
LINE
  5
5B1
100
AcDbEntity
  8
0
  6
CONTINUOUS
100
AcDbLine
 39
96.0
 10
55.163928
 20
56.401831
 30
0.0
 11
55.906589
 21
55.636236
 31
0.0
  0
LINE
  5
5B2
100
AcDbEntity
  8
0
  6
CONTINUOUS
100
AcDbLine
 39
96.0
 10
55.163928
 20
56.596739
 30
0.0
 11
54.377581
 21
56.596739
 31
0.0
  0
LINE
  5
5B3
100
AcDbEntity
  8
0
  6
CONTINUOUS
100
AcDbLine
 39
96.0
 10
53.512116
 20
56.596739
 30
0.0
 11
54.298463
 21
56.596739
 31
0.0
  0
LINE
  5
5B4
100
AcDbEntity
  8
0
  6
CONTINUOUS
100
AcDbLine
 39
96.0
 10
52.769454
 20
55.636236
 30
0.0
 11
52.769454
 21
46.686095
 31
0.0
  0
LINE
  5
5B5
100
AcDbEntity
  8
0
  6
CONTINUOUS
100
AcDbLine
 39
96.0
 10
53.512116
 20
45.900229
 30
0.0
 11
53.512116
 21
56.596739
 31
0.0
  0
LINE
  5
5B6
100
AcDbEntity
  8
0
  6
CONTINUOUS
100
AcDbLine
 39
96.0
 10
53.512116
 20
56.401831
 30
0.0
 11
52.769454
 21
55.636236
 31
0.0
  0
ARC
  5
5B7
100
AcDbEntity
  8
BORDER
  6
CONTINUOUS
 62
     3
100
AcDbCircle
 39
96.0
 10
33.029747
 20
52.24047
 30
0.0
 40
3.0
100
AcDbArc
 50
180.0
 51
0.0
  0
ARC
  5
5B8
100
AcDbEntity
  8
BORDER
  6
CONTINUOUS
 62
     3
100
AcDbCircle
 39
96.0
 10
33.029747
 20
37.221402
 30
0.0
 40
3.0
100
AcDbArc
 50
0.0
 51
180.0
  0
LINE
  5
5B9
100
AcDbEntity
  8
BORDER
  6
CONTINUOUS
 62
     2
100
AcDbLine
 39
96.0
 10
28.242147
 20
56.780627
 30
0.0
 11
28.242147
 21
56.780627
 31
0.0
  0
LINE
  5
5BA
100
AcDbEntity
  8
BORDER
  6
CONTINUOUS
 62
     2
100
AcDbLine
 39
96.0
 10
28.710897
 20
56.780627
 30
0.0
 11
28.710897
 21
56.780627
 31
0.0
  0
LINE
  5
5BB
100
AcDbEntity
  8
BORDER
  6
CONTINUOUS
 62
     2
100
AcDbLine
 39
96.0
 10
29.179647
 20
56.780627
 30
0.0
 11
29.179647
 21
56.780627
 31
0.0
  0
LINE
  5
5BC
100
AcDbEntity
  8
BORDER
  6
CONTINUOUS
 62
     2
100
AcDbLine
 39
96.0
 10
29.648397
 20
56.780627
 30
0.0
 11
29.648397
 21
56.780627
 31
0.0
  0
LINE
  5
5BD
100
AcDbEntity
  8
BORDER
  6
CONTINUOUS
 62
     2
100
AcDbLine
 39
96.0
 10
28.476517
 20
56.311827
 30
0.0
 11
28.476517
 21
56.311827
 31
0.0
  0
LINE
  5
5BE
100
AcDbEntity
  8
BORDER
  6
CONTINUOUS
 62
     2
100
AcDbLine
 39
96.0
 10
28.945267
 20
56.311827
 30
0.0
 11
28.945267
 21
56.311827
 31
0.0
  0
LINE
  5
5BF
100
AcDbEntity
  8
BORDER
  6
CONTINUOUS
 62
     2
100
AcDbLine
 39
96.0
 10
29.414017
 20
56.311827
 30
0.0
 11
29.414017
 21
56.311827
 31
0.0
  0
LINE
  5
5C0
100
AcDbEntity
  8
BORDER
  6
CONTINUOUS
 62
     2
100
AcDbLine
 39
96.0
 10
29.882767
 20
56.311827
 30
0.0
 11
29.882767
 21
56.311827
 31
0.0
  0
LINE
  5
5C1
100
AcDbEntity
  8
BORDER
  6
CONTINUOUS
 62
     2
100
AcDbLine
 39
96.0
 10
28.242147
 20
55.843127
 30
0.0
 11
28.242147
 21
55.843127
 31
0.0
  0
LINE
  5
5C2
100
AcDbEntity
  8
BORDER
  6
CONTINUOUS
 62
     2
100
AcDbLine
 39
96.0
 10
28.710897
 20
55.843127
 30
0.0
 11
28.710897
 21
55.843127
 31
0.0
  0
LINE
  5
5C3
100
AcDbEntity
  8
BORDER
  6
CONTINUOUS
 62
     2
100
AcDbLine
 39
96.0
 10
29.179647
 20
55.843127
 30
0.0
 11
29.179647
 21
55.843127
 31
0.0
  0
LINE
  5
5C4
100
AcDbEntity
  8
BORDER
  6
CONTINUOUS
 62
     2
100
AcDbLine
 39
96.0
 10
29.648397
 20
55.843127
 30
0.0
 11
29.648397
 21
55.843127
 31
0.0
  0
LINE
  5
5C5
100
AcDbEntity
  8
BORDER
  6
CONTINUOUS
 62
     2
100
AcDbLine
 39
96.0
 10
28.476517
 20
55.374327
 30
0.0
 11
28.476517
 21
55.374327
 31
0.0
  0
LINE
  5
5C6
100
AcDbEntity
  8
BORDER
  6
CONTINUOUS
 62
     2
100
AcDbLine
 39
96.0
 10
28.945267
 20
55.374327
 30
0.0
 11
28.945267
 21
55.374327
 31
0.0
  0
LINE
  5
5C7
100
AcDbEntity
  8
BORDER
  6
CONTINUOUS
 62
     2
100
AcDbLine
 39
96.0
 10
29.414017
 20
55.374327
 30
0.0
 11
29.414017
 21
55.374327
 31
0.0
  0
LINE
  5
5C8
100
AcDbEntity
  8
BORDER
  6
CONTINUOUS
 62
     2
100
AcDbLine
 39
96.0
 10
29.882767
 20
55.374327
 30
0.0
 11
29.882767
 21
55.374327
 31
0.0
  0
LINE
  5
5C9
100
AcDbEntity
  8
BORDER
  6
CONTINUOUS
 62
     2
100
AcDbLine
 39
96.0
 10
28.242147
 20
54.905627
 30
0.0
 11
28.242147
 21
54.905627
 31
0.0
  0
LINE
  5
5CA
100
AcDbEntity
  8
BORDER
  6
CONTINUOUS
 62
     2
100
AcDbLine
 39
96.0
 10
28.710897
 20
54.905627
 30
0.0
 11
28.710897
 21
54.905627
 31
0.0
  0
LINE
  5
5CB
100
AcDbEntity
  8
BORDER
  6
CONTINUOUS
 62
     2
100
AcDbLine
 39
96.0
 10
29.179647
 20
54.905627
 30
0.0
 11
29.179647
 21
54.905627
 31
0.0
  0
LINE
  5
5CC
100
AcDbEntity
  8
BORDER
  6
CONTINUOUS
 62
     2
100
AcDbLine
 39
96.0
 10
29.648397
 20
54.905627
 30
0.0
 11
29.648397
 21
54.905627
 31
0.0
  0
LINE
  5
5CD
100
AcDbEntity
  8
BORDER
  6
CONTINUOUS
 62
     2
100
AcDbLine
 39
96.0
 10
28.476517
 20
54.436827
 30
0.0
 11
28.476517
 21
54.436827
 31
0.0
  0
LINE
  5
5CE
100
AcDbEntity
  8
BORDER
  6
CONTINUOUS
 62
     2
100
AcDbLine
 39
96.0
 10
28.945267
 20
54.436827
 30
0.0
 11
28.945267
 21
54.436827
 31
0.0
  0
LINE
  5
5CF
100
AcDbEntity
  8
BORDER
  6
CONTINUOUS
 62
     2
100
AcDbLine
 39
96.0
 10
29.414017
 20
54.436827
 30
0.0
 11
29.414017
 21
54.436827
 31
0.0
  0
LINE
  5
5D0
100
AcDbEntity
  8
BORDER
  6
CONTINUOUS
 62
     2
100
AcDbLine
 39
96.0
 10
29.882767
 20
54.436827
 30
0.0
 11
29.882767
 21
54.436827
 31
0.0
  0
LINE
  5
5D1
100
AcDbEntity
  8
BORDER
  6
CONTINUOUS
 62
     2
100
AcDbLine
 39
96.0
 10
28.242147
 20
53.968127
 30
0.0
 11
28.242147
 21
53.968127
 31
0.0
  0
LINE
  5
5D2
100
AcDbEntity
  8
BORDER
  6
CONTINUOUS
 62
     2
100
AcDbLine
 39
96.0
 10
28.710897
 20
53.968127
 30
0.0
 11
28.710897
 21
53.968127
 31
0.0
  0
LINE
  5
5D3
100
AcDbEntity
  8
BORDER
  6
CONTINUOUS
 62
     2
100
AcDbLine
 39
96.0
 10
29.179647
 20
53.968127
 30
0.0
 11
29.179647
 21
53.968127
 31
0.0
  0
LINE
  5
5D4
100
AcDbEntity
  8
BORDER
  6
CONTINUOUS
 62
     2
100
AcDbLine
 39
96.0
 10
29.648397
 20
53.968127
 30
0.0
 11
29.648397
 21
53.968127
 31
0.0
  0
LINE
  5
5D5
100
AcDbEntity
  8
BORDER
  6
CONTINUOUS
 62
     2
100
AcDbLine
 39
96.0
 10
28.476517
 20
53.499327
 30
0.0
 11
28.476517
 21
53.499327
 31
0.0
  0
LINE
  5
5D6
100
AcDbEntity
  8
BORDER
  6
CONTINUOUS
 62
     2
100
AcDbLine
 39
96.0
 10
28.945267
 20
53.499327
 30
0.0
 11
28.945267
 21
53.499327
 31
0.0
  0
LINE
  5
5D7
100
AcDbEntity
  8
BORDER
  6
CONTINUOUS
 62
     2
100
AcDbLine
 39
96.0
 10
29.414017
 20
53.499327
 30
0.0
 11
29.414017
 21
53.499327
 31
0.0
  0
LINE
  5
5D8
100
AcDbEntity
  8
BORDER
  6
CONTINUOUS
 62
     2
100
AcDbLine
 39
96.0
 10
29.882767
 20
53.499327
 30
0.0
 11
29.882767
 21
53.499327
 31
0.0
  0
LINE
  5
5D9
100
AcDbEntity
  8
BORDER
  6
CONTINUOUS
 62
     2
100
AcDbLine
 39
96.0
 10
28.242147
 20
53.030627
 30
0.0
 11
28.242147
 21
53.030627
 31
0.0
  0
LINE
  5
5DA
100
AcDbEntity
  8
BORDER
  6
CONTINUOUS
 62
     2
100
AcDbLine
 39
96.0
 10
28.710897
 20
53.030627
 30
0.0
 11
28.710897
 21
53.030627
 31
0.0
  0
LINE
  5
5DB
100
AcDbEntity
  8
BORDER
  6
CONTINUOUS
 62
     2
100
AcDbLine
 39
96.0
 10
29.179647
 20
53.030627
 30
0.0
 11
29.179647
 21
53.030627
 31
0.0
  0
LINE
  5
5DC
100
AcDbEntity
  8
BORDER
  6
CONTINUOUS
 62
     2
100
AcDbLine
 39
96.0
 10
29.648397
 20
53.030627
 30
0.0
 11
29.648397
 21
53.030627
 31
0.0
  0
LINE
  5
5DD
100
AcDbEntity
  8
BORDER
  6
CONTINUOUS
 62
     2
100
AcDbLine
 39
96.0
 10
28.476517
 20
52.561827
 30
0.0
 11
28.476517
 21
52.561827
 31
0.0
  0
LINE
  5
5DE
100
AcDbEntity
  8
BORDER
  6
CONTINUOUS
 62
     2
100
AcDbLine
 39
96.0
 10
28.945267
 20
52.561827
 30
0.0
 11
28.945267
 21
52.561827
 31
0.0
  0
LINE
  5
5DF
100
AcDbEntity
  8
BORDER
  6
CONTINUOUS
 62
     2
100
AcDbLine
 39
96.0
 10
29.414017
 20
52.561827
 30
0.0
 11
29.414017
 21
52.561827
 31
0.0
  0
LINE
  5
5E0
100
AcDbEntity
  8
BORDER
  6
CONTINUOUS
 62
     2
100
AcDbLine
 39
96.0
 10
29.882767
 20
52.561827
 30
0.0
 11
29.882767
 21
52.561827
 31
0.0
  0
LINE
  5
5E1
100
AcDbEntity
  8
BORDER
  6
CONTINUOUS
 62
     2
100
AcDbLine
 39
96.0
 10
28.242147
 20
52.093127
 30
0.0
 11
28.242147
 21
52.093127
 31
0.0
  0
LINE
  5
5E2
100
AcDbEntity
  8
BORDER
  6
CONTINUOUS
 62
     2
100
AcDbLine
 39
96.0
 10
28.710897
 20
52.093127
 30
0.0
 11
28.710897
 21
52.093127
 31
0.0
  0
LINE
  5
5E3
100
AcDbEntity
  8
BORDER
  6
CONTINUOUS
 62
     2
100
AcDbLine
 39
96.0
 10
29.179647
 20
52.093127
 30
0.0
 11
29.179647
 21
52.093127
 31
0.0
  0
LINE
  5
5E4
100
AcDbEntity
  8
BORDER
  6
CONTINUOUS
 62
     2
100
AcDbLine
 39
96.0
 10
29.648397
 20
52.093127
 30
0.0
 11
29.648397
 21
52.093127
 31
0.0
  0
LINE
  5
5E5
100
AcDbEntity
  8
BORDER
  6
CONTINUOUS
 62
     3
100
AcDbLine
 39
96.0
 10
28.029747
 20
57.205654
 30
0.0
 11
30.008888
 21
57.212639
 31
0.0
  0
LINE
  5
5E6
100
AcDbEntity
  8
BORDER
  6
CONTINUOUS
 62
     3
100
AcDbLine
 39
96.0
 10
28.029747
 20
52.221442
 30
0.0
 11
28.029747
 21
57.205654
 31
0.0
  0
LINE
  5
5E7
100
AcDbEntity
  8
BORDER
  6
CONTINUOUS
 62
     3
100
AcDbLine
 39
96.0
 10
30.142416
 20
56.462639
 30
0.0
 11
30.892416
 21
57.212639
 31
0.0
  0
LINE
  5
5E8
100
AcDbEntity
  8
0
  6
CONTINUOUS
 62
     7
100
AcDbLine
 39
96.0
 10
31.658787
 20
46.426698
 30
0.0
 11
35.078686
 21
46.426698
 31
0.0
  0
CIRCLE
  5
5E9
100
AcDbEntity
  8
BORDER
  6
CONTINUOUS
 62
     7
100
AcDbCircle
 39
96.0
 10
34.287948
 20
46.412242
 30
0.0
 40
0.375
  0
LINE
  5
5EA
100
AcDbEntity
  8
BORDER
  6
CONTINUOUS
 62
     7
100
AcDbLine
 39
96.0
 10
39.073532
 20
46.697389
 30
0.0
 11
38.029747
 21
45.971442
 31
0.0
  0
LINE
  5
5EB
100
AcDbEntity
  8
BORDER
  6
CONTINUOUS
 62
     3
100
AcDbLine
 39
96.0
 10
36.154747
 20
46.974992
 30
0.0
 11
36.154747
 21
52.221442
 31
0.0
  0
LINE
  5
5EC
100
AcDbEntity
  8
BORDER
  6
CONTINUOUS
 62
     3
100
AcDbLine
 39
96.0
 10
36.154747
 20
43.963054
 30
0.0
 11
38.029747
 21
43.963054
 31
0.0
  0
LINE
  5
5ED
100
AcDbEntity
  8
BORDER
  6
CONTINUOUS
 62
     3
100
AcDbLine
 39
96.0
 10
36.154747
 20
46.974992
 30
0.0
 11
38.029747
 21
46.974992
 31
0.0
  0
LINE
  5
5EE
100
AcDbEntity
  8
BORDER
  6
CONTINUOUS
 62
     7
100
AcDbLine
 39
96.0
 10
39.381878
 20
45.971442
 30
0.0
 11
52.054365
 21
45.971442
 31
0.0
  0
LINE
  5
5EF
100
AcDbEntity
  8
BORDER
  6
CONTINUOUS
 62
     3
100
AcDbLine
 39
96.0
 10
31.418318
 20
54.924839
 30
0.0
 11
34.918318
 21
56.424839
 31
0.0
  0
LINE
  5
5F0
100
AcDbEntity
  8
BORDER
  6
CONTINUOUS
 62
     7
100
AcDbLine
 39
96.0
 10
31.418318
 20
54.924839
 30
0.0
 11
34.918318
 21
54.924839
 31
0.0
  0
LINE
  5
5F1
100
AcDbEntity
  8
BORDER
  6
CONTINUOUS
 62
     7
100
AcDbLine
 39
96.0
 10
31.418318
 20
56.424839
 30
0.0
 11
31.418318
 21
54.924839
 31
0.0
  0
LINE
  5
5F2
100
AcDbEntity
  8
BORDER
  6
CONTINUOUS
 62
     7
100
AcDbLine
 39
96.0
 10
34.918318
 20
56.424839
 30
0.0
 11
31.418318
 21
56.424839
 31
0.0
  0
LINE
  5
5F3
100
AcDbEntity
  8
BORDER
  6
CONTINUOUS
 62
     7
100
AcDbLine
 39
96.0
 10
34.918318
 20
54.924839
 30
0.0
 11
34.918318
 21
56.424839
 31
0.0
  0
CIRCLE
  5
5F4
100
AcDbEntity
  8
BORDER
  6
CONTINUOUS
 62
     7
100
AcDbCircle
 39
96.0
 10
32.158557
 20
46.412242
 30
0.0
 40
0.375
  0
CIRCLE
  5
5F5
100
AcDbEntity
  8
BORDER
  6
CONTINUOUS
 62
     7
100
AcDbCircle
 39
96.0
 10
32.631057
 20
35.156942
 30
0.0
 40
0.375
  0
CIRCLE
  5
5F6
100
AcDbEntity
  8
BORDER
  6
CONTINUOUS
 62
     7
100
AcDbCircle
 39
96.0
 10
32.631057
 20
20.156942
 30
0.0
 40
0.375
  0
LINE
  5
5F7
100
AcDbEntity
  8
BORDER
  6
CONTINUOUS
 62
     7
100
AcDbLine
 39
96.0
 10
33.242147
 20
51.530942
 30
0.0
 11
33.242147
 21
13.943562
 31
0.0
  0
LINE
  5
5F8
100
AcDbEntity
  8
BORDER
  6
CONTINUOUS
 62
     7
100
AcDbLine
 39
96.0
 10
33.314746
 20
44.929139
 30
0.0
 11
34.765676
 21
44.929139
 31
0.0
  0
LINE
  5
5F9
100
AcDbEntity
  8
BORDER
  6
CONTINUOUS
 62
     7
100
AcDbLine
 39
96.0
 10
31.419147
 20
45.669842
 30
0.0
 11
31.419147
 21
47.014642
 31
0.0
  0
LINE
  5
5FA
100
AcDbEntity
  8
BORDER
  6
CONTINUOUS
 62
     3
100
AcDbLine
 39
96.0
 10
34.083207
 20
12.537012
 30
0.0
 11
34.733107
 21
14.190762
 31
0.0
  0
LINE
  5
5FB
100
AcDbEntity
  8
BORDER
  6
CONTINUOUS
 62
     3
100
AcDbLine
 39
96.0
 10
32.134237
 20
15.844502
 30
0.0
 11
34.083207
 21
12.537012
 31
0.0
  0
LINE
  5
5FC
100
AcDbEntity
  8
BORDER
  6
CONTINUOUS
 62
     3
100
AcDbLine
 39
96.0
 10
31.307327
 20
14.190762
 30
0.0
 11
32.134237
 21
15.844502
 31
0.0
  0
LINE
  5
5FD
100
AcDbEntity
  8
BORDER
  6
CONTINUOUS
 62
     3
100
AcDbLine
 39
96.0
 10
31.307327
 20
14.190762
 30
0.0
 11
26.877647
 21
14.190762
 31
0.0
  0
LINE
  5
5FE
100
AcDbEntity
  8
BORDER
  6
CONTINUOUS
 62
     3
100
AcDbLine
 39
96.0
 10
39.162797
 20
14.190762
 30
0.0
 11
34.733107
 21
14.190762
 31
0.0
  0
LINE
  5
5FF
100
AcDbEntity
  8
BORDER
  6
CONTINUOUS
 62
    10
100
AcDbLine
 39
96.0
 10
32.134967
 20
19.960782
 30
0.0
 11
32.121297
 21
19.883812
 31
0.0
  0
LINE
  5
600
100
AcDbEntity
  8
BORDER
  6
CONTINUOUS
 62
    10
100
AcDbLine
 39
96.0
 10
33.280227
 20
20.933552
 30
0.0
 11
33.235307
 21
20.869532
 31
0.0
  0
LINE
  5
601
100
AcDbEntity
  8
BORDER
  6
CONTINUOUS
 62
    10
100
AcDbLine
 39
96.0
 10
33.549027
 20
20.100792
 30
0.0
 11
33.475547
 21
20.074062
 31
0.0
  0
LINE
  5
602
100
AcDbEntity
  8
BORDER
  6
CONTINUOUS
 62
     3
100
AcDbLine
 39
96.0
 10
36.154747
 20
22.221402
 30
0.0
 11
38.029747
 21
22.221402
 31
0.0
  0
LINE
  5
603
100
AcDbEntity
  8
BORDER
  6
CONTINUOUS
 62
     3
100
AcDbLine
 39
96.0
 10
28.029747
 20
22.221402
 30
0.0
 11
29.904747
 21
22.221402
 31
0.0
  0
LINE
  5
604
100
AcDbEntity
  8
BORDER
  6
CONTINUOUS
 62
     2
100
AcDbLine
 39
96.0
 10
37.617147
 20
14.585652
 30
0.0
 11
37.617147
 21
14.585652
 31
0.0
  0
LINE
  5
605
100
AcDbEntity
  8
BORDER
  6
CONTINUOUS
 62
     2
100
AcDbLine
 39
96.0
 10
37.148397
 20
14.585652
 30
0.0
 11
37.148397
 21
14.585652
 31
0.0
  0
LINE
  5
606
100
AcDbEntity
  8
BORDER
  6
CONTINUOUS
 62
     2
100
AcDbLine
 39
96.0
 10
36.679647
 20
14.585652
 30
0.0
 11
36.679647
 21
14.585652
 31
0.0
  0
LINE
  5
607
100
AcDbEntity
  8
BORDER
  6
CONTINUOUS
 62
     2
100
AcDbLine
 39
96.0
 10
36.210897
 20
14.585652
 30
0.0
 11
36.210897
 21
14.585652
 31
0.0
  0
LINE
  5
608
100
AcDbEntity
  8
BORDER
  6
CONTINUOUS
 62
     2
100
AcDbLine
 39
96.0
 10
37.851517
 20
15.054402
 30
0.0
 11
37.851517
 21
15.054402
 31
0.0
  0
LINE
  5
609
100
AcDbEntity
  8
BORDER
  6
CONTINUOUS
 62
     2
100
AcDbLine
 39
96.0
 10
37.382767
 20
15.054402
 30
0.0
 11
37.382767
 21
15.054402
 31
0.0
  0
LINE
  5
60A
100
AcDbEntity
  8
BORDER
  6
CONTINUOUS
 62
     2
100
AcDbLine
 39
96.0
 10
36.914017
 20
15.054402
 30
0.0
 11
36.914017
 21
15.054402
 31
0.0
  0
LINE
  5
60B
100
AcDbEntity
  8
BORDER
  6
CONTINUOUS
 62
     2
100
AcDbLine
 39
96.0
 10
36.445267
 20
15.054402
 30
0.0
 11
36.445267
 21
15.054402
 31
0.0
  0
LINE
  5
60C
100
AcDbEntity
  8
BORDER
  6
CONTINUOUS
 62
     2
100
AcDbLine
 39
96.0
 10
37.617147
 20
15.523152
 30
0.0
 11
37.617147
 21
15.523152
 31
0.0
  0
LINE
  5
60D
100
AcDbEntity
  8
BORDER
  6
CONTINUOUS
 62
     2
100
AcDbLine
 39
96.0
 10
37.148397
 20
15.523152
 30
0.0
 11
37.148397
 21
15.523152
 31
0.0
  0
LINE
  5
60E
100
AcDbEntity
  8
BORDER
  6
CONTINUOUS
 62
     2
100
AcDbLine
 39
96.0
 10
36.679647
 20
15.523152
 30
0.0
 11
36.679647
 21
15.523152
 31
0.0
  0
LINE
  5
60F
100
AcDbEntity
  8
BORDER
  6
CONTINUOUS
 62
     2
100
AcDbLine
 39
96.0
 10
36.210897
 20
15.523152
 30
0.0
 11
36.210897
 21
15.523152
 31
0.0
  0
LINE
  5
610
100
AcDbEntity
  8
BORDER
  6
CONTINUOUS
 62
     2
100
AcDbLine
 39
96.0
 10
37.851517
 20
15.991902
 30
0.0
 11
37.851517
 21
15.991902
 31
0.0
  0
LINE
  5
611
100
AcDbEntity
  8
BORDER
  6
CONTINUOUS
 62
     2
100
AcDbLine
 39
96.0
 10
37.382767
 20
15.991902
 30
0.0
 11
37.382767
 21
15.991902
 31
0.0
  0
LINE
  5
612
100
AcDbEntity
  8
BORDER
  6
CONTINUOUS
 62
     2
100
AcDbLine
 39
96.0
 10
36.914017
 20
15.991902
 30
0.0
 11
36.914017
 21
15.991902
 31
0.0
  0
LINE
  5
613
100
AcDbEntity
  8
BORDER
  6
CONTINUOUS
 62
     2
100
AcDbLine
 39
96.0
 10
36.445267
 20
15.991902
 30
0.0
 11
36.445267
 21
15.991902
 31
0.0
  0
LINE
  5
614
100
AcDbEntity
  8
BORDER
  6
CONTINUOUS
 62
     2
100
AcDbLine
 39
96.0
 10
37.617147
 20
16.460652
 30
0.0
 11
37.617147
 21
16.460652
 31
0.0
  0
LINE
  5
615
100
AcDbEntity
  8
BORDER
  6
CONTINUOUS
 62
     2
100
AcDbLine
 39
96.0
 10
37.148397
 20
16.460652
 30
0.0
 11
37.148397
 21
16.460652
 31
0.0
  0
LINE
  5
616
100
AcDbEntity
  8
BORDER
  6
CONTINUOUS
 62
     2
100
AcDbLine
 39
96.0
 10
36.679647
 20
16.460652
 30
0.0
 11
36.679647
 21
16.460652
 31
0.0
  0
LINE
  5
617
100
AcDbEntity
  8
BORDER
  6
CONTINUOUS
 62
     2
100
AcDbLine
 39
96.0
 10
36.210897
 20
16.460652
 30
0.0
 11
36.210897
 21
16.460652
 31
0.0
  0
LINE
  5
618
100
AcDbEntity
  8
BORDER
  6
CONTINUOUS
 62
     2
100
AcDbLine
 39
96.0
 10
37.851517
 20
16.929402
 30
0.0
 11
37.851517
 21
16.929402
 31
0.0
  0
LINE
  5
619
100
AcDbEntity
  8
BORDER
  6
CONTINUOUS
 62
     2
100
AcDbLine
 39
96.0
 10
37.382767
 20
16.929402
 30
0.0
 11
37.382767
 21
16.929402
 31
0.0
  0
LINE
  5
61A
100
AcDbEntity
  8
BORDER
  6
CONTINUOUS
 62
     2
100
AcDbLine
 39
96.0
 10
36.914017
 20
16.929402
 30
0.0
 11
36.914017
 21
16.929402
 31
0.0
  0
LINE
  5
61B
100
AcDbEntity
  8
BORDER
  6
CONTINUOUS
 62
     2
100
AcDbLine
 39
96.0
 10
36.445267
 20
16.929402
 30
0.0
 11
36.445267
 21
16.929402
 31
0.0
  0
LINE
  5
61C
100
AcDbEntity
  8
BORDER
  6
CONTINUOUS
 62
     2
100
AcDbLine
 39
96.0
 10
37.617147
 20
17.398152
 30
0.0
 11
37.617147
 21
17.398152
 31
0.0
  0
LINE
  5
61D
100
AcDbEntity
  8
BORDER
  6
CONTINUOUS
 62
     2
100
AcDbLine
 39
96.0
 10
37.148397
 20
17.398152
 30
0.0
 11
37.148397
 21
17.398152
 31
0.0
  0
LINE
  5
61E
100
AcDbEntity
  8
BORDER
  6
CONTINUOUS
 62
     2
100
AcDbLine
 39
96.0
 10
36.679647
 20
17.398152
 30
0.0
 11
36.679647
 21
17.398152
 31
0.0
  0
LINE
  5
61F
100
AcDbEntity
  8
BORDER
  6
CONTINUOUS
 62
     2
100
AcDbLine
 39
96.0
 10
36.210897
 20
17.398152
 30
0.0
 11
36.210897
 21
17.398152
 31
0.0
  0
LINE
  5
620
100
AcDbEntity
  8
BORDER
  6
CONTINUOUS
 62
     2
100
AcDbLine
 39
96.0
 10
37.851517
 20
17.866902
 30
0.0
 11
37.851517
 21
17.866902
 31
0.0
  0
LINE
  5
621
100
AcDbEntity
  8
BORDER
  6
CONTINUOUS
 62
     2
100
AcDbLine
 39
96.0
 10
37.382767
 20
17.866902
 30
0.0
 11
37.382767
 21
17.866902
 31
0.0
  0
LINE
  5
622
100
AcDbEntity
  8
BORDER
  6
CONTINUOUS
 62
     2
100
AcDbLine
 39
96.0
 10
36.914017
 20
17.866902
 30
0.0
 11
36.914017
 21
17.866902
 31
0.0
  0
LINE
  5
623
100
AcDbEntity
  8
BORDER
  6
CONTINUOUS
 62
     2
100
AcDbLine
 39
96.0
 10
36.445267
 20
17.866902
 30
0.0
 11
36.445267
 21
17.866902
 31
0.0
  0
LINE
  5
624
100
AcDbEntity
  8
BORDER
  6
CONTINUOUS
 62
     2
100
AcDbLine
 39
96.0
 10
37.617147
 20
18.335652
 30
0.0
 11
37.617147
 21
18.335652
 31
0.0
  0
LINE
  5
625
100
AcDbEntity
  8
BORDER
  6
CONTINUOUS
 62
     2
100
AcDbLine
 39
96.0
 10
37.148397
 20
18.335652
 30
0.0
 11
37.148397
 21
18.335652
 31
0.0
  0
LINE
  5
626
100
AcDbEntity
  8
BORDER
  6
CONTINUOUS
 62
     2
100
AcDbLine
 39
96.0
 10
36.679647
 20
18.335652
 30
0.0
 11
36.679647
 21
18.335652
 31
0.0
  0
LINE
  5
627
100
AcDbEntity
  8
BORDER
  6
CONTINUOUS
 62
     2
100
AcDbLine
 39
96.0
 10
36.210897
 20
18.335652
 30
0.0
 11
36.210897
 21
18.335652
 31
0.0
  0
LINE
  5
628
100
AcDbEntity
  8
BORDER
  6
CONTINUOUS
 62
     2
100
AcDbLine
 39
96.0
 10
37.851517
 20
18.804402
 30
0.0
 11
37.851517
 21
18.804402
 31
0.0
  0
LINE
  5
629
100
AcDbEntity
  8
BORDER
  6
CONTINUOUS
 62
     2
100
AcDbLine
 39
96.0
 10
37.382767
 20
18.804402
 30
0.0
 11
37.382767
 21
18.804402
 31
0.0
  0
LINE
  5
62A
100
AcDbEntity
  8
BORDER
  6
CONTINUOUS
 62
     2
100
AcDbLine
 39
96.0
 10
36.914017
 20
18.804402
 30
0.0
 11
36.914017
 21
18.804402
 31
0.0
  0
LINE
  5
62B
100
AcDbEntity
  8
BORDER
  6
CONTINUOUS
 62
     2
100
AcDbLine
 39
96.0
 10
36.445267
 20
18.804402
 30
0.0
 11
36.445267
 21
18.804402
 31
0.0
  0
LINE
  5
62C
100
AcDbEntity
  8
BORDER
  6
CONTINUOUS
 62
     2
100
AcDbLine
 39
96.0
 10
37.617147
 20
19.273152
 30
0.0
 11
37.617147
 21
19.273152
 31
0.0
  0
LINE
  5
62D
100
AcDbEntity
  8
BORDER
  6
CONTINUOUS
 62
     2
100
AcDbLine
 39
96.0
 10
37.148397
 20
19.273152
 30
0.0
 11
37.148397
 21
19.273152
 31
0.0
  0
LINE
  5
62E
100
AcDbEntity
  8
BORDER
  6
CONTINUOUS
 62
     2
100
AcDbLine
 39
96.0
 10
36.679647
 20
19.273152
 30
0.0
 11
36.679647
 21
19.273152
 31
0.0
  0
LINE
  5
62F
100
AcDbEntity
  8
BORDER
  6
CONTINUOUS
 62
     2
100
AcDbLine
 39
96.0
 10
36.210897
 20
19.273152
 30
0.0
 11
36.210897
 21
19.273152
 31
0.0
  0
LINE
  5
630
100
AcDbEntity
  8
BORDER
  6
CONTINUOUS
 62
     2
100
AcDbLine
 39
96.0
 10
37.851517
 20
19.741902
 30
0.0
 11
37.851517
 21
19.741902
 31
0.0
  0
LINE
  5
631
100
AcDbEntity
  8
BORDER
  6
CONTINUOUS
 62
     2
100
AcDbLine
 39
96.0
 10
37.382767
 20
19.741902
 30
0.0
 11
37.382767
 21
19.741902
 31
0.0
  0
LINE
  5
632
100
AcDbEntity
  8
BORDER
  6
CONTINUOUS
 62
     2
100
AcDbLine
 39
96.0
 10
36.914017
 20
19.741902
 30
0.0
 11
36.914017
 21
19.741902
 31
0.0
  0
LINE
  5
633
100
AcDbEntity
  8
BORDER
  6
CONTINUOUS
 62
     2
100
AcDbLine
 39
96.0
 10
36.445267
 20
19.741902
 30
0.0
 11
36.445267
 21
19.741902
 31
0.0
  0
LINE
  5
634
100
AcDbEntity
  8
BORDER
  6
CONTINUOUS
 62
     2
100
AcDbLine
 39
96.0
 10
37.617147
 20
20.210652
 30
0.0
 11
37.617147
 21
20.210652
 31
0.0
  0
LINE
  5
635
100
AcDbEntity
  8
BORDER
  6
CONTINUOUS
 62
     2
100
AcDbLine
 39
96.0
 10
37.148397
 20
20.210652
 30
0.0
 11
37.148397
 21
20.210652
 31
0.0
  0
LINE
  5
636
100
AcDbEntity
  8
BORDER
  6
CONTINUOUS
 62
     2
100
AcDbLine
 39
96.0
 10
36.679647
 20
20.210652
 30
0.0
 11
36.679647
 21
20.210652
 31
0.0
  0
LINE
  5
637
100
AcDbEntity
  8
BORDER
  6
CONTINUOUS
 62
     2
100
AcDbLine
 39
96.0
 10
36.210897
 20
20.210652
 30
0.0
 11
36.210897
 21
20.210652
 31
0.0
  0
LINE
  5
638
100
AcDbEntity
  8
BORDER
  6
CONTINUOUS
 62
     2
100
AcDbLine
 39
96.0
 10
37.851517
 20
20.679402
 30
0.0
 11
37.851517
 21
20.679402
 31
0.0
  0
LINE
  5
639
100
AcDbEntity
  8
BORDER
  6
CONTINUOUS
 62
     2
100
AcDbLine
 39
96.0
 10
37.382767
 20
20.679402
 30
0.0
 11
37.382767
 21
20.679402
 31
0.0
  0
LINE
  5
63A
100
AcDbEntity
  8
BORDER
  6
CONTINUOUS
 62
     2
100
AcDbLine
 39
96.0
 10
36.914017
 20
20.679402
 30
0.0
 11
36.914017
 21
20.679402
 31
0.0
  0
LINE
  5
63B
100
AcDbEntity
  8
BORDER
  6
CONTINUOUS
 62
     2
100
AcDbLine
 39
96.0
 10
36.445267
 20
20.679402
 30
0.0
 11
36.445267
 21
20.679402
 31
0.0
  0
LINE
  5
63C
100
AcDbEntity
  8
BORDER
  6
CONTINUOUS
 62
     2
100
AcDbLine
 39
96.0
 10
37.617147
 20
21.148152
 30
0.0
 11
37.617147
 21
21.148152
 31
0.0
  0
LINE
  5
63D
100
AcDbEntity
  8
BORDER
  6
CONTINUOUS
 62
     2
100
AcDbLine
 39
96.0
 10
37.148397
 20
21.148152
 30
0.0
 11
37.148397
 21
21.148152
 31
0.0
  0
LINE
  5
63E
100
AcDbEntity
  8
BORDER
  6
CONTINUOUS
 62
     2
100
AcDbLine
 39
96.0
 10
36.679647
 20
21.148152
 30
0.0
 11
36.679647
 21
21.148152
 31
0.0
  0
LINE
  5
63F
100
AcDbEntity
  8
BORDER
  6
CONTINUOUS
 62
     2
100
AcDbLine
 39
96.0
 10
36.210897
 20
21.148152
 30
0.0
 11
36.210897
 21
21.148152
 31
0.0
  0
LINE
  5
640
100
AcDbEntity
  8
BORDER
  6
CONTINUOUS
 62
     2
100
AcDbLine
 39
96.0
 10
37.851517
 20
21.616902
 30
0.0
 11
37.851517
 21
21.616902
 31
0.0
  0
LINE
  5
641
100
AcDbEntity
  8
BORDER
  6
CONTINUOUS
 62
     2
100
AcDbLine
 39
96.0
 10
37.382767
 20
21.616902
 30
0.0
 11
37.382767
 21
21.616902
 31
0.0
  0
LINE
  5
642
100
AcDbEntity
  8
BORDER
  6
CONTINUOUS
 62
     2
100
AcDbLine
 39
96.0
 10
36.914017
 20
21.616902
 30
0.0
 11
36.914017
 21
21.616902
 31
0.0
  0
LINE
  5
643
100
AcDbEntity
  8
BORDER
  6
CONTINUOUS
 62
     2
100
AcDbLine
 39
96.0
 10
36.445267
 20
21.616902
 30
0.0
 11
36.445267
 21
21.616902
 31
0.0
  0
LINE
  5
644
100
AcDbEntity
  8
BORDER
  6
CONTINUOUS
 62
     2
100
AcDbLine
 39
96.0
 10
37.617147
 20
22.085652
 30
0.0
 11
37.617147
 21
22.085652
 31
0.0
  0
LINE
  5
645
100
AcDbEntity
  8
BORDER
  6
CONTINUOUS
 62
     2
100
AcDbLine
 39
96.0
 10
37.148397
 20
22.085652
 30
0.0
 11
37.148397
 21
22.085652
 31
0.0
  0
LINE
  5
646
100
AcDbEntity
  8
BORDER
  6
CONTINUOUS
 62
     2
100
AcDbLine
 39
96.0
 10
36.679647
 20
22.085652
 30
0.0
 11
36.679647
 21
22.085652
 31
0.0
  0
LINE
  5
647
100
AcDbEntity
  8
BORDER
  6
CONTINUOUS
 62
     2
100
AcDbLine
 39
96.0
 10
36.210897
 20
22.085652
 30
0.0
 11
36.210897
 21
22.085652
 31
0.0
  0
LINE
  5
648
100
AcDbEntity
  8
BORDER
  6
CONTINUOUS
 62
     2
100
AcDbLine
 39
96.0
 10
29.648397
 20
14.585652
 30
0.0
 11
29.648397
 21
14.585652
 31
0.0
  0
LINE
  5
649
100
AcDbEntity
  8
BORDER
  6
CONTINUOUS
 62
     2
100
AcDbLine
 39
96.0
 10
29.179647
 20
14.585652
 30
0.0
 11
29.179647
 21
14.585652
 31
0.0
  0
LINE
  5
64A
100
AcDbEntity
  8
BORDER
  6
CONTINUOUS
 62
     2
100
AcDbLine
 39
96.0
 10
28.710897
 20
14.585652
 30
0.0
 11
28.710897
 21
14.585652
 31
0.0
  0
LINE
  5
64B
100
AcDbEntity
  8
BORDER
  6
CONTINUOUS
 62
     2
100
AcDbLine
 39
96.0
 10
28.242147
 20
14.585652
 30
0.0
 11
28.242147
 21
14.585652
 31
0.0
  0
LINE
  5
64C
100
AcDbEntity
  8
BORDER
  6
CONTINUOUS
 62
     2
100
AcDbLine
 39
96.0
 10
29.882767
 20
15.054402
 30
0.0
 11
29.882767
 21
15.054402
 31
0.0
  0
LINE
  5
64D
100
AcDbEntity
  8
BORDER
  6
CONTINUOUS
 62
     2
100
AcDbLine
 39
96.0
 10
29.414017
 20
15.054402
 30
0.0
 11
29.414017
 21
15.054402
 31
0.0
  0
LINE
  5
64E
100
AcDbEntity
  8
BORDER
  6
CONTINUOUS
 62
     2
100
AcDbLine
 39
96.0
 10
28.945267
 20
15.054402
 30
0.0
 11
28.945267
 21
15.054402
 31
0.0
  0
LINE
  5
64F
100
AcDbEntity
  8
BORDER
  6
CONTINUOUS
 62
     2
100
AcDbLine
 39
96.0
 10
28.476517
 20
15.054402
 30
0.0
 11
28.476517
 21
15.054402
 31
0.0
  0
LINE
  5
650
100
AcDbEntity
  8
BORDER
  6
CONTINUOUS
 62
     2
100
AcDbLine
 39
96.0
 10
29.648397
 20
15.523152
 30
0.0
 11
29.648397
 21
15.523152
 31
0.0
  0
LINE
  5
651
100
AcDbEntity
  8
BORDER
  6
CONTINUOUS
 62
     2
100
AcDbLine
 39
96.0
 10
29.179647
 20
15.523152
 30
0.0
 11
29.179647
 21
15.523152
 31
0.0
  0
LINE
  5
652
100
AcDbEntity
  8
BORDER
  6
CONTINUOUS
 62
     2
100
AcDbLine
 39
96.0
 10
28.710897
 20
15.523152
 30
0.0
 11
28.710897
 21
15.523152
 31
0.0
  0
LINE
  5
653
100
AcDbEntity
  8
BORDER
  6
CONTINUOUS
 62
     2
100
AcDbLine
 39
96.0
 10
28.242147
 20
15.523152
 30
0.0
 11
28.242147
 21
15.523152
 31
0.0
  0
LINE
  5
654
100
AcDbEntity
  8
BORDER
  6
CONTINUOUS
 62
     2
100
AcDbLine
 39
96.0
 10
29.882767
 20
15.991902
 30
0.0
 11
29.882767
 21
15.991902
 31
0.0
  0
LINE
  5
655
100
AcDbEntity
  8
BORDER
  6
CONTINUOUS
 62
     2
100
AcDbLine
 39
96.0
 10
29.414017
 20
15.991902
 30
0.0
 11
29.414017
 21
15.991902
 31
0.0
  0
LINE
  5
656
100
AcDbEntity
  8
BORDER
  6
CONTINUOUS
 62
     2
100
AcDbLine
 39
96.0
 10
28.945267
 20
15.991902
 30
0.0
 11
28.945267
 21
15.991902
 31
0.0
  0
LINE
  5
657
100
AcDbEntity
  8
BORDER
  6
CONTINUOUS
 62
     2
100
AcDbLine
 39
96.0
 10
28.476517
 20
15.991902
 30
0.0
 11
28.476517
 21
15.991902
 31
0.0
  0
LINE
  5
658
100
AcDbEntity
  8
BORDER
  6
CONTINUOUS
 62
     2
100
AcDbLine
 39
96.0
 10
29.648397
 20
16.460652
 30
0.0
 11
29.648397
 21
16.460652
 31
0.0
  0
LINE
  5
659
100
AcDbEntity
  8
BORDER
  6
CONTINUOUS
 62
     2
100
AcDbLine
 39
96.0
 10
29.179647
 20
16.460652
 30
0.0
 11
29.179647
 21
16.460652
 31
0.0
  0
LINE
  5
65A
100
AcDbEntity
  8
BORDER
  6
CONTINUOUS
 62
     2
100
AcDbLine
 39
96.0
 10
28.710897
 20
16.460652
 30
0.0
 11
28.710897
 21
16.460652
 31
0.0
  0
LINE
  5
65B
100
AcDbEntity
  8
BORDER
  6
CONTINUOUS
 62
     2
100
AcDbLine
 39
96.0
 10
28.242147
 20
16.460652
 30
0.0
 11
28.242147
 21
16.460652
 31
0.0
  0
LINE
  5
65C
100
AcDbEntity
  8
BORDER
  6
CONTINUOUS
 62
     2
100
AcDbLine
 39
96.0
 10
29.882767
 20
16.929402
 30
0.0
 11
29.882767
 21
16.929402
 31
0.0
  0
LINE
  5
65D
100
AcDbEntity
  8
BORDER
  6
CONTINUOUS
 62
     2
100
AcDbLine
 39
96.0
 10
29.414017
 20
16.929402
 30
0.0
 11
29.414017
 21
16.929402
 31
0.0
  0
LINE
  5
65E
100
AcDbEntity
  8
BORDER
  6
CONTINUOUS
 62
     2
100
AcDbLine
 39
96.0
 10
28.945267
 20
16.929402
 30
0.0
 11
28.945267
 21
16.929402
 31
0.0
  0
LINE
  5
65F
100
AcDbEntity
  8
BORDER
  6
CONTINUOUS
 62
     2
100
AcDbLine
 39
96.0
 10
28.476517
 20
16.929402
 30
0.0
 11
28.476517
 21
16.929402
 31
0.0
  0
LINE
  5
660
100
AcDbEntity
  8
BORDER
  6
CONTINUOUS
 62
     2
100
AcDbLine
 39
96.0
 10
29.648397
 20
17.398152
 30
0.0
 11
29.648397
 21
17.398152
 31
0.0
  0
LINE
  5
661
100
AcDbEntity
  8
BORDER
  6
CONTINUOUS
 62
     2
100
AcDbLine
 39
96.0
 10
29.179647
 20
17.398152
 30
0.0
 11
29.179647
 21
17.398152
 31
0.0
  0
LINE
  5
662
100
AcDbEntity
  8
BORDER
  6
CONTINUOUS
 62
     2
100
AcDbLine
 39
96.0
 10
28.710897
 20
17.398152
 30
0.0
 11
28.710897
 21
17.398152
 31
0.0
  0
LINE
  5
663
100
AcDbEntity
  8
BORDER
  6
CONTINUOUS
 62
     2
100
AcDbLine
 39
96.0
 10
28.242147
 20
17.398152
 30
0.0
 11
28.242147
 21
17.398152
 31
0.0
  0
LINE
  5
664
100
AcDbEntity
  8
BORDER
  6
CONTINUOUS
 62
     2
100
AcDbLine
 39
96.0
 10
29.882767
 20
17.866902
 30
0.0
 11
29.882767
 21
17.866902
 31
0.0
  0
LINE
  5
665
100
AcDbEntity
  8
BORDER
  6
CONTINUOUS
 62
     2
100
AcDbLine
 39
96.0
 10
29.414017
 20
17.866902
 30
0.0
 11
29.414017
 21
17.866902
 31
0.0
  0
LINE
  5
666
100
AcDbEntity
  8
BORDER
  6
CONTINUOUS
 62
     2
100
AcDbLine
 39
96.0
 10
28.945267
 20
17.866902
 30
0.0
 11
28.945267
 21
17.866902
 31
0.0
  0
LINE
  5
667
100
AcDbEntity
  8
BORDER
  6
CONTINUOUS
 62
     2
100
AcDbLine
 39
96.0
 10
28.476517
 20
17.866902
 30
0.0
 11
28.476517
 21
17.866902
 31
0.0
  0
LINE
  5
668
100
AcDbEntity
  8
BORDER
  6
CONTINUOUS
 62
     2
100
AcDbLine
 39
96.0
 10
29.648397
 20
18.335652
 30
0.0
 11
29.648397
 21
18.335652
 31
0.0
  0
LINE
  5
669
100
AcDbEntity
  8
BORDER
  6
CONTINUOUS
 62
     2
100
AcDbLine
 39
96.0
 10
29.179647
 20
18.335652
 30
0.0
 11
29.179647
 21
18.335652
 31
0.0
  0
LINE
  5
66A
100
AcDbEntity
  8
BORDER
  6
CONTINUOUS
 62
     2
100
AcDbLine
 39
96.0
 10
28.710897
 20
18.335652
 30
0.0
 11
28.710897
 21
18.335652
 31
0.0
  0
LINE
  5
66B
100
AcDbEntity
  8
BORDER
  6
CONTINUOUS
 62
     2
100
AcDbLine
 39
96.0
 10
28.242147
 20
18.335652
 30
0.0
 11
28.242147
 21
18.335652
 31
0.0
  0
LINE
  5
66C
100
AcDbEntity
  8
BORDER
  6
CONTINUOUS
 62
     2
100
AcDbLine
 39
96.0
 10
29.882767
 20
18.804402
 30
0.0
 11
29.882767
 21
18.804402
 31
0.0
  0
LINE
  5
66D
100
AcDbEntity
  8
BORDER
  6
CONTINUOUS
 62
     2
100
AcDbLine
 39
96.0
 10
29.414017
 20
18.804402
 30
0.0
 11
29.414017
 21
18.804402
 31
0.0
  0
LINE
  5
66E
100
AcDbEntity
  8
BORDER
  6
CONTINUOUS
 62
     2
100
AcDbLine
 39
96.0
 10
28.945267
 20
18.804402
 30
0.0
 11
28.945267
 21
18.804402
 31
0.0
  0
LINE
  5
66F
100
AcDbEntity
  8
BORDER
  6
CONTINUOUS
 62
     2
100
AcDbLine
 39
96.0
 10
28.476517
 20
18.804402
 30
0.0
 11
28.476517
 21
18.804402
 31
0.0
  0
LINE
  5
670
100
AcDbEntity
  8
BORDER
  6
CONTINUOUS
 62
     2
100
AcDbLine
 39
96.0
 10
29.648397
 20
19.273152
 30
0.0
 11
29.648397
 21
19.273152
 31
0.0
  0
LINE
  5
671
100
AcDbEntity
  8
BORDER
  6
CONTINUOUS
 62
     2
100
AcDbLine
 39
96.0
 10
29.179647
 20
19.273152
 30
0.0
 11
29.179647
 21
19.273152
 31
0.0
  0
LINE
  5
672
100
AcDbEntity
  8
BORDER
  6
CONTINUOUS
 62
     2
100
AcDbLine
 39
96.0
 10
28.710897
 20
19.273152
 30
0.0
 11
28.710897
 21
19.273152
 31
0.0
  0
LINE
  5
673
100
AcDbEntity
  8
BORDER
  6
CONTINUOUS
 62
     2
100
AcDbLine
 39
96.0
 10
28.242147
 20
19.273152
 30
0.0
 11
28.242147
 21
19.273152
 31
0.0
  0
LINE
  5
674
100
AcDbEntity
  8
BORDER
  6
CONTINUOUS
 62
     2
100
AcDbLine
 39
96.0
 10
29.882767
 20
19.741902
 30
0.0
 11
29.882767
 21
19.741902
 31
0.0
  0
LINE
  5
675
100
AcDbEntity
  8
BORDER
  6
CONTINUOUS
 62
     2
100
AcDbLine
 39
96.0
 10
29.414017
 20
19.741902
 30
0.0
 11
29.414017
 21
19.741902
 31
0.0
  0
LINE
  5
676
100
AcDbEntity
  8
BORDER
  6
CONTINUOUS
 62
     2
100
AcDbLine
 39
96.0
 10
28.945267
 20
19.741902
 30
0.0
 11
28.945267
 21
19.741902
 31
0.0
  0
LINE
  5
677
100
AcDbEntity
  8
BORDER
  6
CONTINUOUS
 62
     2
100
AcDbLine
 39
96.0
 10
28.476517
 20
19.741902
 30
0.0
 11
28.476517
 21
19.741902
 31
0.0
  0
LINE
  5
678
100
AcDbEntity
  8
BORDER
  6
CONTINUOUS
 62
     2
100
AcDbLine
 39
96.0
 10
29.648397
 20
20.210652
 30
0.0
 11
29.648397
 21
20.210652
 31
0.0
  0
LINE
  5
679
100
AcDbEntity
  8
BORDER
  6
CONTINUOUS
 62
     2
100
AcDbLine
 39
96.0
 10
29.179647
 20
20.210652
 30
0.0
 11
29.179647
 21
20.210652
 31
0.0
  0
LINE
  5
67A
100
AcDbEntity
  8
BORDER
  6
CONTINUOUS
 62
     2
100
AcDbLine
 39
96.0
 10
28.710897
 20
20.210652
 30
0.0
 11
28.710897
 21
20.210652
 31
0.0
  0
LINE
  5
67B
100
AcDbEntity
  8
BORDER
  6
CONTINUOUS
 62
     2
100
AcDbLine
 39
96.0
 10
28.242147
 20
20.210652
 30
0.0
 11
28.242147
 21
20.210652
 31
0.0
  0
LINE
  5
67C
100
AcDbEntity
  8
BORDER
  6
CONTINUOUS
 62
     2
100
AcDbLine
 39
96.0
 10
29.882767
 20
20.679402
 30
0.0
 11
29.882767
 21
20.679402
 31
0.0
  0
LINE
  5
67D
100
AcDbEntity
  8
BORDER
  6
CONTINUOUS
 62
     2
100
AcDbLine
 39
96.0
 10
29.414017
 20
20.679402
 30
0.0
 11
29.414017
 21
20.679402
 31
0.0
  0
LINE
  5
67E
100
AcDbEntity
  8
BORDER
  6
CONTINUOUS
 62
     2
100
AcDbLine
 39
96.0
 10
28.945267
 20
20.679402
 30
0.0
 11
28.945267
 21
20.679402
 31
0.0
  0
LINE
  5
67F
100
AcDbEntity
  8
BORDER
  6
CONTINUOUS
 62
     2
100
AcDbLine
 39
96.0
 10
28.476517
 20
20.679402
 30
0.0
 11
28.476517
 21
20.679402
 31
0.0
  0
LINE
  5
680
100
AcDbEntity
  8
BORDER
  6
CONTINUOUS
 62
     2
100
AcDbLine
 39
96.0
 10
29.648397
 20
21.148152
 30
0.0
 11
29.648397
 21
21.148152
 31
0.0
  0
LINE
  5
681
100
AcDbEntity
  8
BORDER
  6
CONTINUOUS
 62
     2
100
AcDbLine
 39
96.0
 10
29.179647
 20
21.148152
 30
0.0
 11
29.179647
 21
21.148152
 31
0.0
  0
LINE
  5
682
100
AcDbEntity
  8
BORDER
  6
CONTINUOUS
 62
     2
100
AcDbLine
 39
96.0
 10
28.710897
 20
21.148152
 30
0.0
 11
28.710897
 21
21.148152
 31
0.0
  0
LINE
  5
683
100
AcDbEntity
  8
BORDER
  6
CONTINUOUS
 62
     2
100
AcDbLine
 39
96.0
 10
28.242147
 20
21.148152
 30
0.0
 11
28.242147
 21
21.148152
 31
0.0
  0
LINE
  5
684
100
AcDbEntity
  8
BORDER
  6
CONTINUOUS
 62
     2
100
AcDbLine
 39
96.0
 10
29.882767
 20
21.616902
 30
0.0
 11
29.882767
 21
21.616902
 31
0.0
  0
LINE
  5
685
100
AcDbEntity
  8
BORDER
  6
CONTINUOUS
 62
     2
100
AcDbLine
 39
96.0
 10
29.414017
 20
21.616902
 30
0.0
 11
29.414017
 21
21.616902
 31
0.0
  0
LINE
  5
686
100
AcDbEntity
  8
BORDER
  6
CONTINUOUS
 62
     2
100
AcDbLine
 39
96.0
 10
28.945267
 20
21.616902
 30
0.0
 11
28.945267
 21
21.616902
 31
0.0
  0
LINE
  5
687
100
AcDbEntity
  8
BORDER
  6
CONTINUOUS
 62
     2
100
AcDbLine
 39
96.0
 10
28.476517
 20
21.616902
 30
0.0
 11
28.476517
 21
21.616902
 31
0.0
  0
LINE
  5
688
100
AcDbEntity
  8
BORDER
  6
CONTINUOUS
 62
     2
100
AcDbLine
 39
96.0
 10
29.648397
 20
22.085652
 30
0.0
 11
29.648397
 21
22.085652
 31
0.0
  0
LINE
  5
689
100
AcDbEntity
  8
BORDER
  6
CONTINUOUS
 62
     2
100
AcDbLine
 39
96.0
 10
29.179647
 20
22.085652
 30
0.0
 11
29.179647
 21
22.085652
 31
0.0
  0
LINE
  5
68A
100
AcDbEntity
  8
BORDER
  6
CONTINUOUS
 62
     2
100
AcDbLine
 39
96.0
 10
28.710897
 20
22.085652
 30
0.0
 11
28.710897
 21
22.085652
 31
0.0
  0
LINE
  5
68B
100
AcDbEntity
  8
BORDER
  6
CONTINUOUS
 62
     2
100
AcDbLine
 39
96.0
 10
28.242147
 20
22.085652
 30
0.0
 11
28.242147
 21
22.085652
 31
0.0
  0
LINE
  5
68C
100
AcDbEntity
  8
BORDER
  6
CONTINUOUS
 62
     1
100
AcDbLine
 39
96.0
 10
34.936727
 20
19.355252
 30
0.0
 11
34.947467
 21
19.416832
 31
0.0
  0
LINE
  5
68D
100
AcDbEntity
  8
BORDER
  6
CONTINUOUS
 62
     1
100
AcDbLine
 39
96.0
 10
34.502647
 20
16.893212
 30
0.0
 11
34.513387
 21
16.954792
 31
0.0
  0
LINE
  5
68E
100
AcDbEntity
  8
BORDER
  6
CONTINUOUS
 62
     1
100
AcDbLine
 39
96.0
 10
34.068557
 20
14.431172
 30
0.0
 11
34.079307
 21
14.492762
 31
0.0
  0
LINE
  5
68F
100
AcDbEntity
  8
BORDER
  6
CONTINUOUS
 62
     1
100
AcDbLine
 39
96.0
 10
32.040977
 20
17.327292
 30
0.0
 11
32.051717
 21
17.388882
 31
0.0
  0
LINE
  5
690
100
AcDbEntity
  8
BORDER
  6
CONTINUOUS
 62
     1
100
AcDbLine
 39
96.0
 10
31.606887
 20
14.865262
 30
0.0
 11
31.617637
 21
14.926842
 31
0.0
  0
LINE
  5
691
100
AcDbEntity
  8
BORDER
  6
CONTINUOUS
 62
     1
100
AcDbLine
 39
96.0
 10
30.013137
 20
20.223352
 30
0.0
 11
30.023887
 21
20.284932
 31
0.0
  0
LINE
  5
692
100
AcDbEntity
  8
BORDER
  6
CONTINUOUS
 62
     1
100
AcDbLine
 39
96.0
 10
34.790727
 20
16.894862
 30
0.0
 11
34.826617
 21
16.946132
 31
0.0
  0
LINE
  5
693
100
AcDbEntity
  8
BORDER
  6
CONTINUOUS
 62
     1
100
AcDbLine
 39
96.0
 10
33.356647
 20
14.847012
 30
0.0
 11
33.392537
 21
14.898212
 31
0.0
  0
LINE
  5
694
100
AcDbEntity
  8
BORDER
  6
CONTINUOUS
 62
     1
100
AcDbLine
 39
96.0
 10
32.742877
 20
18.328762
 30
0.0
 11
32.778767
 21
18.379962
 31
0.0
  0
LINE
  5
695
100
AcDbEntity
  8
BORDER
  6
CONTINUOUS
 62
     1
100
AcDbLine
 39
96.0
 10
31.308797
 20
16.280842
 30
0.0
 11
31.344687
 21
16.332112
 31
0.0
  0
LINE
  5
696
100
AcDbEntity
  8
BORDER
  6
CONTINUOUS
 62
     1
100
AcDbLine
 39
96.0
 10
30.694777
 20
19.762722
 30
0.0
 11
30.730667
 21
19.813922
 31
0.0
  0
LINE
  5
697
100
AcDbEntity
  8
BORDER
  6
CONTINUOUS
 62
     1
100
AcDbLine
 39
96.0
 10
35.991897
 20
15.067402
 30
0.0
 11
36.050737
 21
15.088772
 31
0.0
  0
LINE
  5
698
100
AcDbEntity
  8
BORDER
  6
CONTINUOUS
 62
     1
100
AcDbLine
 39
96.0
 10
33.642537
 20
14.212362
 30
0.0
 11
33.701377
 21
14.233722
 31
0.0
  0
LINE
  5
699
100
AcDbEntity
  8
BORDER
  6
CONTINUOUS
 62
     1
100
AcDbLine
 39
96.0
 10
35.136917
 20
17.416652
 30
0.0
 11
35.195757
 21
17.438012
 31
0.0
  0
LINE
  5
69A
100
AcDbEntity
  8
BORDER
  6
CONTINUOUS
 62
     1
100
AcDbLine
 39
96.0
 10
32.787557
 20
16.561612
 30
0.0
 11
32.846397
 21
16.582972
 31
0.0
  0
LINE
  5
69B
100
AcDbEntity
  8
BORDER
  6
CONTINUOUS
 62
     1
100
AcDbLine
 39
96.0
 10
30.438187
 20
15.706562
 30
0.0
 11
30.497027
 21
15.727932
 31
0.0
  0
LINE
  5
69C
100
AcDbEntity
  8
BORDER
  6
CONTINUOUS
 62
     1
100
AcDbLine
 39
96.0
 10
31.932577
 20
18.910852
 30
0.0
 11
31.991417
 21
18.932212
 31
0.0
  0
LINE
  5
69D
100
AcDbEntity
  8
BORDER
  6
CONTINUOUS
 62
     3
100
AcDbLine
 39
96.0
 10
29.904747
 20
22.221402
 30
0.0
 11
28.029747
 21
22.221402
 31
0.0
  0
ARC
  5
69E
100
AcDbEntity
  8
BORDER
  6
CONTINUOUS
 62
     3
100
AcDbCircle
 39
96.0
 10
33.029747
 20
22.221402
 30
0.0
 40
3.0
100
AcDbArc
 50
180.0
 51
0.0
  0
LINE
  5
69F
100
AcDbEntity
  8
BORDER
  6
CONTINUOUS
 62
     3
100
AcDbLine
 39
96.0
 10
36.154747
 20
14.190762
 30
0.0
 11
36.154747
 21
22.221402
 31
0.0
  0
LINE
  5
6A0
100
AcDbEntity
  8
BORDER
  6
CONTINUOUS
 62
     3
100
AcDbLine
 39
96.0
 10
29.904747
 20
22.221402
 30
0.0
 11
29.904747
 21
14.190762
 31
0.0
  0
LINE
  5
6A1
100
AcDbEntity
  8
BORDER
  6
CONTINUOUS
 62
     3
100
AcDbLine
 39
96.0
 10
28.029747
 20
22.221402
 30
0.0
 11
28.029747
 21
14.190762
 31
0.0
  0
LINE
  5
6A2
100
AcDbEntity
  8
BORDER
  6
CONTINUOUS
 62
     3
100
AcDbLine
 39
96.0
 10
38.029747
 20
22.221402
 30
0.0
 11
36.154747
 21
22.221402
 31
0.0
  0
LINE
  5
6A3
100
AcDbEntity
  8
BORDER
  6
CONTINUOUS
 62
     3
100
AcDbLine
 39
96.0
 10
38.029747
 20
14.190762
 30
0.0
 11
38.029747
 21
22.221402
 31
0.0
  0
LINE
  5
6A4
100
AcDbEntity
  8
BORDER
  6
CONTINUOUS
 62
     1
100
AcDbLine
 39
96.0
 10
33.356647
 20
23.172932
 30
0.0
 11
33.392537
 21
23.224142
 31
0.0
  0
LINE
  5
6A5
100
AcDbEntity
  8
BORDER
  6
CONTINUOUS
 62
     1
100
AcDbLine
 39
96.0
 10
34.068557
 20
22.757102
 30
0.0
 11
34.079307
 21
22.818622
 31
0.0
  0
LINE
  5
6A6
100
AcDbEntity
  8
BORDER
  6
CONTINUOUS
 62
     1
100
AcDbLine
 39
96.0
 10
33.642537
 20
22.538292
 30
0.0
 11
33.701377
 21
22.559652
 31
0.0
  0
LINE
  5
6A7
100
AcDbEntity
  8
BORDER
  6
CONTINUOUS
 62
    10
100
AcDbLine
 39
96.0
 10
32.134967
 20
34.960712
 30
0.0
 11
32.121297
 21
34.883812
 31
0.0
  0
LINE
  5
6A8
100
AcDbEntity
  8
BORDER
  6
CONTINUOUS
 62
    10
100
AcDbLine
 39
96.0
 10
33.280227
 20
35.933492
 30
0.0
 11
33.235307
 21
35.869532
 31
0.0
  0
LINE
  5
6A9
100
AcDbEntity
  8
BORDER
  6
CONTINUOUS
 62
    10
100
AcDbLine
 39
96.0
 10
33.549027
 20
35.100852
 30
0.0
 11
33.475547
 21
35.074122
 31
0.0
  0
LINE
  5
6AA
100
AcDbEntity
  8
BORDER
  6
CONTINUOUS
 62
    10
100
AcDbLine
 39
96.0
 10
33.581747
 20
25.170192
 30
0.0
 11
33.570757
 21
25.108662
 31
0.0
  0
LINE
  5
6AB
100
AcDbEntity
  8
BORDER
  6
CONTINUOUS
 62
    10
100
AcDbLine
 39
96.0
 10
31.230177
 20
22.109152
 30
0.0
 11
31.185257
 21
22.045192
 31
0.0
  0
LINE
  5
6AC
100
AcDbEntity
  8
BORDER
  6
CONTINUOUS
 62
    10
100
AcDbLine
 39
96.0
 10
33.022667
 20
24.669032
 30
0.0
 11
32.977737
 21
24.605002
 31
0.0
  0
LINE
  5
6AD
100
AcDbEntity
  8
BORDER
  6
CONTINUOUS
 62
    10
100
AcDbLine
 39
96.0
 10
30.882527
 20
24.153522
 30
0.0
 11
30.809037
 21
24.126792
 31
0.0
  0
LINE
  5
6AE
100
AcDbEntity
  8
BORDER
  6
CONTINUOUS
 62
     3
100
AcDbLine
 39
96.0
 10
36.154747
 20
37.221402
 30
0.0
 11
38.029747
 21
37.221402
 31
0.0
  0
LINE
  5
6AF
100
AcDbEntity
  8
BORDER
  6
CONTINUOUS
 62
     3
100
AcDbLine
 39
96.0
 10
28.029747
 20
37.221402
 30
0.0
 11
29.904747
 21
37.221402
 31
0.0
  0
LINE
  5
6B0
100
AcDbEntity
  8
BORDER
  6
CONTINUOUS
 62
     2
100
AcDbLine
 39
96.0
 10
37.851517
 20
22.554342
 30
0.0
 11
37.851517
 21
22.554342
 31
0.0
  0
LINE
  5
6B1
100
AcDbEntity
  8
BORDER
  6
CONTINUOUS
 62
     2
100
AcDbLine
 39
96.0
 10
37.382767
 20
22.554342
 30
0.0
 11
37.382767
 21
22.554342
 31
0.0
  0
LINE
  5
6B2
100
AcDbEntity
  8
BORDER
  6
CONTINUOUS
 62
     2
100
AcDbLine
 39
96.0
 10
36.914017
 20
22.554342
 30
0.0
 11
36.914017
 21
22.554342
 31
0.0
  0
LINE
  5
6B3
100
AcDbEntity
  8
BORDER
  6
CONTINUOUS
 62
     2
100
AcDbLine
 39
96.0
 10
36.445267
 20
22.554342
 30
0.0
 11
36.445267
 21
22.554342
 31
0.0
  0
LINE
  5
6B4
100
AcDbEntity
  8
BORDER
  6
CONTINUOUS
 62
     2
100
AcDbLine
 39
96.0
 10
37.617147
 20
23.023092
 30
0.0
 11
37.617147
 21
23.023092
 31
0.0
  0
LINE
  5
6B5
100
AcDbEntity
  8
BORDER
  6
CONTINUOUS
 62
     2
100
AcDbLine
 39
96.0
 10
37.148397
 20
23.023092
 30
0.0
 11
37.148397
 21
23.023092
 31
0.0
  0
LINE
  5
6B6
100
AcDbEntity
  8
BORDER
  6
CONTINUOUS
 62
     2
100
AcDbLine
 39
96.0
 10
36.679647
 20
23.023092
 30
0.0
 11
36.679647
 21
23.023092
 31
0.0
  0
LINE
  5
6B7
100
AcDbEntity
  8
BORDER
  6
CONTINUOUS
 62
     2
100
AcDbLine
 39
96.0
 10
36.210897
 20
23.023092
 30
0.0
 11
36.210897
 21
23.023092
 31
0.0
  0
LINE
  5
6B8
100
AcDbEntity
  8
BORDER
  6
CONTINUOUS
 62
     2
100
AcDbLine
 39
96.0
 10
37.851517
 20
23.491842
 30
0.0
 11
37.851517
 21
23.491842
 31
0.0
  0
LINE
  5
6B9
100
AcDbEntity
  8
BORDER
  6
CONTINUOUS
 62
     2
100
AcDbLine
 39
96.0
 10
37.382767
 20
23.491842
 30
0.0
 11
37.382767
 21
23.491842
 31
0.0
  0
LINE
  5
6BA
100
AcDbEntity
  8
BORDER
  6
CONTINUOUS
 62
     2
100
AcDbLine
 39
96.0
 10
36.914017
 20
23.491842
 30
0.0
 11
36.914017
 21
23.491842
 31
0.0
  0
LINE
  5
6BB
100
AcDbEntity
  8
BORDER
  6
CONTINUOUS
 62
     2
100
AcDbLine
 39
96.0
 10
36.445267
 20
23.491842
 30
0.0
 11
36.445267
 21
23.491842
 31
0.0
  0
LINE
  5
6BC
100
AcDbEntity
  8
BORDER
  6
CONTINUOUS
 62
     2
100
AcDbLine
 39
96.0
 10
37.617147
 20
23.960592
 30
0.0
 11
37.617147
 21
23.960592
 31
0.0
  0
LINE
  5
6BD
100
AcDbEntity
  8
BORDER
  6
CONTINUOUS
 62
     2
100
AcDbLine
 39
96.0
 10
37.148397
 20
23.960592
 30
0.0
 11
37.148397
 21
23.960592
 31
0.0
  0
LINE
  5
6BE
100
AcDbEntity
  8
BORDER
  6
CONTINUOUS
 62
     2
100
AcDbLine
 39
96.0
 10
36.679647
 20
23.960592
 30
0.0
 11
36.679647
 21
23.960592
 31
0.0
  0
LINE
  5
6BF
100
AcDbEntity
  8
BORDER
  6
CONTINUOUS
 62
     2
100
AcDbLine
 39
96.0
 10
36.210897
 20
23.960592
 30
0.0
 11
36.210897
 21
23.960592
 31
0.0
  0
LINE
  5
6C0
100
AcDbEntity
  8
BORDER
  6
CONTINUOUS
 62
     2
100
AcDbLine
 39
96.0
 10
37.851517
 20
24.429342
 30
0.0
 11
37.851517
 21
24.429342
 31
0.0
  0
LINE
  5
6C1
100
AcDbEntity
  8
BORDER
  6
CONTINUOUS
 62
     2
100
AcDbLine
 39
96.0
 10
37.382767
 20
24.429342
 30
0.0
 11
37.382767
 21
24.429342
 31
0.0
  0
LINE
  5
6C2
100
AcDbEntity
  8
BORDER
  6
CONTINUOUS
 62
     2
100
AcDbLine
 39
96.0
 10
36.914017
 20
24.429342
 30
0.0
 11
36.914017
 21
24.429342
 31
0.0
  0
LINE
  5
6C3
100
AcDbEntity
  8
BORDER
  6
CONTINUOUS
 62
     2
100
AcDbLine
 39
96.0
 10
36.445267
 20
24.429342
 30
0.0
 11
36.445267
 21
24.429342
 31
0.0
  0
LINE
  5
6C4
100
AcDbEntity
  8
BORDER
  6
CONTINUOUS
 62
     2
100
AcDbLine
 39
96.0
 10
37.617147
 20
24.898092
 30
0.0
 11
37.617147
 21
24.898092
 31
0.0
  0
LINE
  5
6C5
100
AcDbEntity
  8
BORDER
  6
CONTINUOUS
 62
     2
100
AcDbLine
 39
96.0
 10
37.148397
 20
24.898092
 30
0.0
 11
37.148397
 21
24.898092
 31
0.0
  0
LINE
  5
6C6
100
AcDbEntity
  8
BORDER
  6
CONTINUOUS
 62
     2
100
AcDbLine
 39
96.0
 10
36.679647
 20
24.898092
 30
0.0
 11
36.679647
 21
24.898092
 31
0.0
  0
LINE
  5
6C7
100
AcDbEntity
  8
BORDER
  6
CONTINUOUS
 62
     2
100
AcDbLine
 39
96.0
 10
36.210897
 20
24.898092
 30
0.0
 11
36.210897
 21
24.898092
 31
0.0
  0
LINE
  5
6C8
100
AcDbEntity
  8
BORDER
  6
CONTINUOUS
 62
     2
100
AcDbLine
 39
96.0
 10
37.851517
 20
25.366842
 30
0.0
 11
37.851517
 21
25.366842
 31
0.0
  0
LINE
  5
6C9
100
AcDbEntity
  8
BORDER
  6
CONTINUOUS
 62
     2
100
AcDbLine
 39
96.0
 10
37.382767
 20
25.366842
 30
0.0
 11
37.382767
 21
25.366842
 31
0.0
  0
LINE
  5
6CA
100
AcDbEntity
  8
BORDER
  6
CONTINUOUS
 62
     2
100
AcDbLine
 39
96.0
 10
36.914017
 20
25.366842
 30
0.0
 11
36.914017
 21
25.366842
 31
0.0
  0
LINE
  5
6CB
100
AcDbEntity
  8
BORDER
  6
CONTINUOUS
 62
     2
100
AcDbLine
 39
96.0
 10
36.445267
 20
25.366842
 30
0.0
 11
36.445267
 21
25.366842
 31
0.0
  0
LINE
  5
6CC
100
AcDbEntity
  8
BORDER
  6
CONTINUOUS
 62
     2
100
AcDbLine
 39
96.0
 10
37.617147
 20
25.835592
 30
0.0
 11
37.617147
 21
25.835592
 31
0.0
  0
LINE
  5
6CD
100
AcDbEntity
  8
BORDER
  6
CONTINUOUS
 62
     2
100
AcDbLine
 39
96.0
 10
37.148397
 20
25.835592
 30
0.0
 11
37.148397
 21
25.835592
 31
0.0
  0
LINE
  5
6CE
100
AcDbEntity
  8
BORDER
  6
CONTINUOUS
 62
     2
100
AcDbLine
 39
96.0
 10
36.679647
 20
25.835592
 30
0.0
 11
36.679647
 21
25.835592
 31
0.0
  0
LINE
  5
6CF
100
AcDbEntity
  8
BORDER
  6
CONTINUOUS
 62
     2
100
AcDbLine
 39
96.0
 10
36.210897
 20
25.835592
 30
0.0
 11
36.210897
 21
25.835592
 31
0.0
  0
LINE
  5
6D0
100
AcDbEntity
  8
BORDER
  6
CONTINUOUS
 62
     2
100
AcDbLine
 39
96.0
 10
37.851517
 20
26.304342
 30
0.0
 11
37.851517
 21
26.304342
 31
0.0
  0
LINE
  5
6D1
100
AcDbEntity
  8
BORDER
  6
CONTINUOUS
 62
     2
100
AcDbLine
 39
96.0
 10
37.382767
 20
26.304342
 30
0.0
 11
37.382767
 21
26.304342
 31
0.0
  0
LINE
  5
6D2
100
AcDbEntity
  8
BORDER
  6
CONTINUOUS
 62
     2
100
AcDbLine
 39
96.0
 10
36.914017
 20
26.304342
 30
0.0
 11
36.914017
 21
26.304342
 31
0.0
  0
LINE
  5
6D3
100
AcDbEntity
  8
BORDER
  6
CONTINUOUS
 62
     2
100
AcDbLine
 39
96.0
 10
36.445267
 20
26.304342
 30
0.0
 11
36.445267
 21
26.304342
 31
0.0
  0
LINE
  5
6D4
100
AcDbEntity
  8
BORDER
  6
CONTINUOUS
 62
     2
100
AcDbLine
 39
96.0
 10
37.617147
 20
26.773092
 30
0.0
 11
37.617147
 21
26.773092
 31
0.0
  0
LINE
  5
6D5
100
AcDbEntity
  8
BORDER
  6
CONTINUOUS
 62
     2
100
AcDbLine
 39
96.0
 10
37.148397
 20
26.773092
 30
0.0
 11
37.148397
 21
26.773092
 31
0.0
  0
LINE
  5
6D6
100
AcDbEntity
  8
BORDER
  6
CONTINUOUS
 62
     2
100
AcDbLine
 39
96.0
 10
36.679647
 20
26.773092
 30
0.0
 11
36.679647
 21
26.773092
 31
0.0
  0
LINE
  5
6D7
100
AcDbEntity
  8
BORDER
  6
CONTINUOUS
 62
     2
100
AcDbLine
 39
96.0
 10
36.210897
 20
26.773092
 30
0.0
 11
36.210897
 21
26.773092
 31
0.0
  0
LINE
  5
6D8
100
AcDbEntity
  8
BORDER
  6
CONTINUOUS
 62
     2
100
AcDbLine
 39
96.0
 10
37.851517
 20
27.241842
 30
0.0
 11
37.851517
 21
27.241842
 31
0.0
  0
LINE
  5
6D9
100
AcDbEntity
  8
BORDER
  6
CONTINUOUS
 62
     2
100
AcDbLine
 39
96.0
 10
37.382767
 20
27.241842
 30
0.0
 11
37.382767
 21
27.241842
 31
0.0
  0
LINE
  5
6DA
100
AcDbEntity
  8
BORDER
  6
CONTINUOUS
 62
     2
100
AcDbLine
 39
96.0
 10
36.914017
 20
27.241842
 30
0.0
 11
36.914017
 21
27.241842
 31
0.0
  0
LINE
  5
6DB
100
AcDbEntity
  8
BORDER
  6
CONTINUOUS
 62
     2
100
AcDbLine
 39
96.0
 10
36.445267
 20
27.241842
 30
0.0
 11
36.445267
 21
27.241842
 31
0.0
  0
LINE
  5
6DC
100
AcDbEntity
  8
BORDER
  6
CONTINUOUS
 62
     2
100
AcDbLine
 39
96.0
 10
37.617147
 20
27.710592
 30
0.0
 11
37.617147
 21
27.710592
 31
0.0
  0
LINE
  5
6DD
100
AcDbEntity
  8
BORDER
  6
CONTINUOUS
 62
     2
100
AcDbLine
 39
96.0
 10
37.148397
 20
27.710592
 30
0.0
 11
37.148397
 21
27.710592
 31
0.0
  0
LINE
  5
6DE
100
AcDbEntity
  8
BORDER
  6
CONTINUOUS
 62
     2
100
AcDbLine
 39
96.0
 10
36.679647
 20
27.710592
 30
0.0
 11
36.679647
 21
27.710592
 31
0.0
  0
LINE
  5
6DF
100
AcDbEntity
  8
BORDER
  6
CONTINUOUS
 62
     2
100
AcDbLine
 39
96.0
 10
36.210897
 20
27.710592
 30
0.0
 11
36.210897
 21
27.710592
 31
0.0
  0
LINE
  5
6E0
100
AcDbEntity
  8
BORDER
  6
CONTINUOUS
 62
     2
100
AcDbLine
 39
96.0
 10
37.851517
 20
28.179342
 30
0.0
 11
37.851517
 21
28.179342
 31
0.0
  0
LINE
  5
6E1
100
AcDbEntity
  8
BORDER
  6
CONTINUOUS
 62
     2
100
AcDbLine
 39
96.0
 10
37.382767
 20
28.179342
 30
0.0
 11
37.382767
 21
28.179342
 31
0.0
  0
LINE
  5
6E2
100
AcDbEntity
  8
BORDER
  6
CONTINUOUS
 62
     2
100
AcDbLine
 39
96.0
 10
36.914017
 20
28.179342
 30
0.0
 11
36.914017
 21
28.179342
 31
0.0
  0
LINE
  5
6E3
100
AcDbEntity
  8
BORDER
  6
CONTINUOUS
 62
     2
100
AcDbLine
 39
96.0
 10
36.445267
 20
28.179342
 30
0.0
 11
36.445267
 21
28.179342
 31
0.0
  0
LINE
  5
6E4
100
AcDbEntity
  8
BORDER
  6
CONTINUOUS
 62
     2
100
AcDbLine
 39
96.0
 10
37.617147
 20
28.648092
 30
0.0
 11
37.617147
 21
28.648092
 31
0.0
  0
LINE
  5
6E5
100
AcDbEntity
  8
BORDER
  6
CONTINUOUS
 62
     2
100
AcDbLine
 39
96.0
 10
37.148397
 20
28.648092
 30
0.0
 11
37.148397
 21
28.648092
 31
0.0
  0
LINE
  5
6E6
100
AcDbEntity
  8
BORDER
  6
CONTINUOUS
 62
     2
100
AcDbLine
 39
96.0
 10
36.679647
 20
28.648092
 30
0.0
 11
36.679647
 21
28.648092
 31
0.0
  0
LINE
  5
6E7
100
AcDbEntity
  8
BORDER
  6
CONTINUOUS
 62
     2
100
AcDbLine
 39
96.0
 10
36.210897
 20
28.648092
 30
0.0
 11
36.210897
 21
28.648092
 31
0.0
  0
LINE
  5
6E8
100
AcDbEntity
  8
BORDER
  6
CONTINUOUS
 62
     2
100
AcDbLine
 39
96.0
 10
37.851517
 20
29.116842
 30
0.0
 11
37.851517
 21
29.116842
 31
0.0
  0
LINE
  5
6E9
100
AcDbEntity
  8
BORDER
  6
CONTINUOUS
 62
     2
100
AcDbLine
 39
96.0
 10
37.382767
 20
29.116842
 30
0.0
 11
37.382767
 21
29.116842
 31
0.0
  0
LINE
  5
6EA
100
AcDbEntity
  8
BORDER
  6
CONTINUOUS
 62
     2
100
AcDbLine
 39
96.0
 10
36.914017
 20
29.116842
 30
0.0
 11
36.914017
 21
29.116842
 31
0.0
  0
LINE
  5
6EB
100
AcDbEntity
  8
BORDER
  6
CONTINUOUS
 62
     2
100
AcDbLine
 39
96.0
 10
36.445267
 20
29.116842
 30
0.0
 11
36.445267
 21
29.116842
 31
0.0
  0
LINE
  5
6EC
100
AcDbEntity
  8
BORDER
  6
CONTINUOUS
 62
     2
100
AcDbLine
 39
96.0
 10
37.617147
 20
29.585592
 30
0.0
 11
37.617147
 21
29.585592
 31
0.0
  0
LINE
  5
6ED
100
AcDbEntity
  8
BORDER
  6
CONTINUOUS
 62
     2
100
AcDbLine
 39
96.0
 10
37.148397
 20
29.585592
 30
0.0
 11
37.148397
 21
29.585592
 31
0.0
  0
LINE
  5
6EE
100
AcDbEntity
  8
BORDER
  6
CONTINUOUS
 62
     2
100
AcDbLine
 39
96.0
 10
36.679647
 20
29.585592
 30
0.0
 11
36.679647
 21
29.585592
 31
0.0
  0
LINE
  5
6EF
100
AcDbEntity
  8
BORDER
  6
CONTINUOUS
 62
     2
100
AcDbLine
 39
96.0
 10
36.210897
 20
29.585592
 30
0.0
 11
36.210897
 21
29.585592
 31
0.0
  0
LINE
  5
6F0
100
AcDbEntity
  8
BORDER
  6
CONTINUOUS
 62
     2
100
AcDbLine
 39
96.0
 10
37.851517
 20
30.054342
 30
0.0
 11
37.851517
 21
30.054342
 31
0.0
  0
LINE
  5
6F1
100
AcDbEntity
  8
BORDER
  6
CONTINUOUS
 62
     2
100
AcDbLine
 39
96.0
 10
37.382767
 20
30.054342
 30
0.0
 11
37.382767
 21
30.054342
 31
0.0
  0
LINE
  5
6F2
100
AcDbEntity
  8
BORDER
  6
CONTINUOUS
 62
     2
100
AcDbLine
 39
96.0
 10
36.914017
 20
30.054342
 30
0.0
 11
36.914017
 21
30.054342
 31
0.0
  0
LINE
  5
6F3
100
AcDbEntity
  8
BORDER
  6
CONTINUOUS
 62
     2
100
AcDbLine
 39
96.0
 10
36.445267
 20
30.054342
 30
0.0
 11
36.445267
 21
30.054342
 31
0.0
  0
LINE
  5
6F4
100
AcDbEntity
  8
BORDER
  6
CONTINUOUS
 62
     2
100
AcDbLine
 39
96.0
 10
37.617147
 20
30.523092
 30
0.0
 11
37.617147
 21
30.523092
 31
0.0
  0
LINE
  5
6F5
100
AcDbEntity
  8
BORDER
  6
CONTINUOUS
 62
     2
100
AcDbLine
 39
96.0
 10
37.148397
 20
30.523092
 30
0.0
 11
37.148397
 21
30.523092
 31
0.0
  0
LINE
  5
6F6
100
AcDbEntity
  8
BORDER
  6
CONTINUOUS
 62
     2
100
AcDbLine
 39
96.0
 10
36.679647
 20
30.523092
 30
0.0
 11
36.679647
 21
30.523092
 31
0.0
  0
LINE
  5
6F7
100
AcDbEntity
  8
BORDER
  6
CONTINUOUS
 62
     2
100
AcDbLine
 39
96.0
 10
36.210897
 20
30.523092
 30
0.0
 11
36.210897
 21
30.523092
 31
0.0
  0
LINE
  5
6F8
100
AcDbEntity
  8
BORDER
  6
CONTINUOUS
 62
     2
100
AcDbLine
 39
96.0
 10
37.851517
 20
30.991842
 30
0.0
 11
37.851517
 21
30.991842
 31
0.0
  0
LINE
  5
6F9
100
AcDbEntity
  8
BORDER
  6
CONTINUOUS
 62
     2
100
AcDbLine
 39
96.0
 10
37.382767
 20
30.991842
 30
0.0
 11
37.382767
 21
30.991842
 31
0.0
  0
LINE
  5
6FA
100
AcDbEntity
  8
BORDER
  6
CONTINUOUS
 62
     2
100
AcDbLine
 39
96.0
 10
36.914017
 20
30.991842
 30
0.0
 11
36.914017
 21
30.991842
 31
0.0
  0
LINE
  5
6FB
100
AcDbEntity
  8
BORDER
  6
CONTINUOUS
 62
     2
100
AcDbLine
 39
96.0
 10
36.445267
 20
30.991842
 30
0.0
 11
36.445267
 21
30.991842
 31
0.0
  0
LINE
  5
6FC
100
AcDbEntity
  8
BORDER
  6
CONTINUOUS
 62
     2
100
AcDbLine
 39
96.0
 10
37.617147
 20
31.460592
 30
0.0
 11
37.617147
 21
31.460592
 31
0.0
  0
LINE
  5
6FD
100
AcDbEntity
  8
BORDER
  6
CONTINUOUS
 62
     2
100
AcDbLine
 39
96.0
 10
37.148397
 20
31.460592
 30
0.0
 11
37.148397
 21
31.460592
 31
0.0
  0
LINE
  5
6FE
100
AcDbEntity
  8
BORDER
  6
CONTINUOUS
 62
     2
100
AcDbLine
 39
96.0
 10
36.679647
 20
31.460592
 30
0.0
 11
36.679647
 21
31.460592
 31
0.0
  0
LINE
  5
6FF
100
AcDbEntity
  8
BORDER
  6
CONTINUOUS
 62
     2
100
AcDbLine
 39
96.0
 10
36.210897
 20
31.460592
 30
0.0
 11
36.210897
 21
31.460592
 31
0.0
  0
LINE
  5
700
100
AcDbEntity
  8
BORDER
  6
CONTINUOUS
 62
     2
100
AcDbLine
 39
96.0
 10
37.851517
 20
31.929342
 30
0.0
 11
37.851517
 21
31.929342
 31
0.0
  0
LINE
  5
701
100
AcDbEntity
  8
BORDER
  6
CONTINUOUS
 62
     2
100
AcDbLine
 39
96.0
 10
37.382767
 20
31.929342
 30
0.0
 11
37.382767
 21
31.929342
 31
0.0
  0
LINE
  5
702
100
AcDbEntity
  8
BORDER
  6
CONTINUOUS
 62
     2
100
AcDbLine
 39
96.0
 10
36.914017
 20
31.929342
 30
0.0
 11
36.914017
 21
31.929342
 31
0.0
  0
LINE
  5
703
100
AcDbEntity
  8
BORDER
  6
CONTINUOUS
 62
     2
100
AcDbLine
 39
96.0
 10
36.445267
 20
31.929342
 30
0.0
 11
36.445267
 21
31.929342
 31
0.0
  0
LINE
  5
704
100
AcDbEntity
  8
BORDER
  6
CONTINUOUS
 62
     2
100
AcDbLine
 39
96.0
 10
37.617147
 20
32.398092
 30
0.0
 11
37.617147
 21
32.398092
 31
0.0
  0
LINE
  5
705
100
AcDbEntity
  8
BORDER
  6
CONTINUOUS
 62
     2
100
AcDbLine
 39
96.0
 10
37.148397
 20
32.398092
 30
0.0
 11
37.148397
 21
32.398092
 31
0.0
  0
LINE
  5
706
100
AcDbEntity
  8
BORDER
  6
CONTINUOUS
 62
     2
100
AcDbLine
 39
96.0
 10
36.679647
 20
32.398092
 30
0.0
 11
36.679647
 21
32.398092
 31
0.0
  0
LINE
  5
707
100
AcDbEntity
  8
BORDER
  6
CONTINUOUS
 62
     2
100
AcDbLine
 39
96.0
 10
36.210897
 20
32.398092
 30
0.0
 11
36.210897
 21
32.398092
 31
0.0
  0
LINE
  5
708
100
AcDbEntity
  8
BORDER
  6
CONTINUOUS
 62
     2
100
AcDbLine
 39
96.0
 10
37.851517
 20
32.866842
 30
0.0
 11
37.851517
 21
32.866842
 31
0.0
  0
LINE
  5
709
100
AcDbEntity
  8
BORDER
  6
CONTINUOUS
 62
     2
100
AcDbLine
 39
96.0
 10
37.382767
 20
32.866842
 30
0.0
 11
37.382767
 21
32.866842
 31
0.0
  0
LINE
  5
70A
100
AcDbEntity
  8
BORDER
  6
CONTINUOUS
 62
     2
100
AcDbLine
 39
96.0
 10
36.914017
 20
32.866842
 30
0.0
 11
36.914017
 21
32.866842
 31
0.0
  0
LINE
  5
70B
100
AcDbEntity
  8
BORDER
  6
CONTINUOUS
 62
     2
100
AcDbLine
 39
96.0
 10
36.445267
 20
32.866842
 30
0.0
 11
36.445267
 21
32.866842
 31
0.0
  0
LINE
  5
70C
100
AcDbEntity
  8
BORDER
  6
CONTINUOUS
 62
     2
100
AcDbLine
 39
96.0
 10
37.617147
 20
33.335592
 30
0.0
 11
37.617147
 21
33.335592
 31
0.0
  0
LINE
  5
70D
100
AcDbEntity
  8
BORDER
  6
CONTINUOUS
 62
     2
100
AcDbLine
 39
96.0
 10
37.148397
 20
33.335592
 30
0.0
 11
37.148397
 21
33.335592
 31
0.0
  0
LINE
  5
70E
100
AcDbEntity
  8
BORDER
  6
CONTINUOUS
 62
     2
100
AcDbLine
 39
96.0
 10
36.679647
 20
33.335592
 30
0.0
 11
36.679647
 21
33.335592
 31
0.0
  0
LINE
  5
70F
100
AcDbEntity
  8
BORDER
  6
CONTINUOUS
 62
     2
100
AcDbLine
 39
96.0
 10
36.210897
 20
33.335592
 30
0.0
 11
36.210897
 21
33.335592
 31
0.0
  0
LINE
  5
710
100
AcDbEntity
  8
BORDER
  6
CONTINUOUS
 62
     2
100
AcDbLine
 39
96.0
 10
37.851517
 20
33.804342
 30
0.0
 11
37.851517
 21
33.804342
 31
0.0
  0
LINE
  5
711
100
AcDbEntity
  8
BORDER
  6
CONTINUOUS
 62
     2
100
AcDbLine
 39
96.0
 10
37.382767
 20
33.804342
 30
0.0
 11
37.382767
 21
33.804342
 31
0.0
  0
LINE
  5
712
100
AcDbEntity
  8
BORDER
  6
CONTINUOUS
 62
     2
100
AcDbLine
 39
96.0
 10
36.914017
 20
33.804342
 30
0.0
 11
36.914017
 21
33.804342
 31
0.0
  0
LINE
  5
713
100
AcDbEntity
  8
BORDER
  6
CONTINUOUS
 62
     2
100
AcDbLine
 39
96.0
 10
36.445267
 20
33.804342
 30
0.0
 11
36.445267
 21
33.804342
 31
0.0
  0
LINE
  5
714
100
AcDbEntity
  8
BORDER
  6
CONTINUOUS
 62
     2
100
AcDbLine
 39
96.0
 10
37.617147
 20
34.273092
 30
0.0
 11
37.617147
 21
34.273092
 31
0.0
  0
LINE
  5
715
100
AcDbEntity
  8
BORDER
  6
CONTINUOUS
 62
     2
100
AcDbLine
 39
96.0
 10
37.148397
 20
34.273092
 30
0.0
 11
37.148397
 21
34.273092
 31
0.0
  0
LINE
  5
716
100
AcDbEntity
  8
BORDER
  6
CONTINUOUS
 62
     2
100
AcDbLine
 39
96.0
 10
36.679647
 20
34.273092
 30
0.0
 11
36.679647
 21
34.273092
 31
0.0
  0
LINE
  5
717
100
AcDbEntity
  8
BORDER
  6
CONTINUOUS
 62
     2
100
AcDbLine
 39
96.0
 10
36.210897
 20
34.273092
 30
0.0
 11
36.210897
 21
34.273092
 31
0.0
  0
LINE
  5
718
100
AcDbEntity
  8
BORDER
  6
CONTINUOUS
 62
     2
100
AcDbLine
 39
96.0
 10
37.851517
 20
34.741842
 30
0.0
 11
37.851517
 21
34.741842
 31
0.0
  0
LINE
  5
719
100
AcDbEntity
  8
BORDER
  6
CONTINUOUS
 62
     2
100
AcDbLine
 39
96.0
 10
37.382767
 20
34.741842
 30
0.0
 11
37.382767
 21
34.741842
 31
0.0
  0
LINE
  5
71A
100
AcDbEntity
  8
BORDER
  6
CONTINUOUS
 62
     2
100
AcDbLine
 39
96.0
 10
36.914017
 20
34.741842
 30
0.0
 11
36.914017
 21
34.741842
 31
0.0
  0
LINE
  5
71B
100
AcDbEntity
  8
BORDER
  6
CONTINUOUS
 62
     2
100
AcDbLine
 39
96.0
 10
36.445267
 20
34.741842
 30
0.0
 11
36.445267
 21
34.741842
 31
0.0
  0
LINE
  5
71C
100
AcDbEntity
  8
BORDER
  6
CONTINUOUS
 62
     2
100
AcDbLine
 39
96.0
 10
37.617147
 20
35.210592
 30
0.0
 11
37.617147
 21
35.210592
 31
0.0
  0
LINE
  5
71D
100
AcDbEntity
  8
BORDER
  6
CONTINUOUS
 62
     2
100
AcDbLine
 39
96.0
 10
37.148397
 20
35.210592
 30
0.0
 11
37.148397
 21
35.210592
 31
0.0
  0
LINE
  5
71E
100
AcDbEntity
  8
BORDER
  6
CONTINUOUS
 62
     2
100
AcDbLine
 39
96.0
 10
36.679647
 20
35.210592
 30
0.0
 11
36.679647
 21
35.210592
 31
0.0
  0
LINE
  5
71F
100
AcDbEntity
  8
BORDER
  6
CONTINUOUS
 62
     2
100
AcDbLine
 39
96.0
 10
36.210897
 20
35.210592
 30
0.0
 11
36.210897
 21
35.210592
 31
0.0
  0
LINE
  5
720
100
AcDbEntity
  8
BORDER
  6
CONTINUOUS
 62
     2
100
AcDbLine
 39
96.0
 10
37.851517
 20
35.679342
 30
0.0
 11
37.851517
 21
35.679342
 31
0.0
  0
LINE
  5
721
100
AcDbEntity
  8
BORDER
  6
CONTINUOUS
 62
     2
100
AcDbLine
 39
96.0
 10
37.382767
 20
35.679342
 30
0.0
 11
37.382767
 21
35.679342
 31
0.0
  0
LINE
  5
722
100
AcDbEntity
  8
BORDER
  6
CONTINUOUS
 62
     2
100
AcDbLine
 39
96.0
 10
36.914017
 20
35.679342
 30
0.0
 11
36.914017
 21
35.679342
 31
0.0
  0
LINE
  5
723
100
AcDbEntity
  8
BORDER
  6
CONTINUOUS
 62
     2
100
AcDbLine
 39
96.0
 10
36.445267
 20
35.679342
 30
0.0
 11
36.445267
 21
35.679342
 31
0.0
  0
LINE
  5
724
100
AcDbEntity
  8
BORDER
  6
CONTINUOUS
 62
     2
100
AcDbLine
 39
96.0
 10
37.617147
 20
36.148092
 30
0.0
 11
37.617147
 21
36.148092
 31
0.0
  0
LINE
  5
725
100
AcDbEntity
  8
BORDER
  6
CONTINUOUS
 62
     2
100
AcDbLine
 39
96.0
 10
37.148397
 20
36.148092
 30
0.0
 11
37.148397
 21
36.148092
 31
0.0
  0
LINE
  5
726
100
AcDbEntity
  8
BORDER
  6
CONTINUOUS
 62
     2
100
AcDbLine
 39
96.0
 10
36.679647
 20
36.148092
 30
0.0
 11
36.679647
 21
36.148092
 31
0.0
  0
LINE
  5
727
100
AcDbEntity
  8
BORDER
  6
CONTINUOUS
 62
     2
100
AcDbLine
 39
96.0
 10
36.210897
 20
36.148092
 30
0.0
 11
36.210897
 21
36.148092
 31
0.0
  0
LINE
  5
728
100
AcDbEntity
  8
BORDER
  6
CONTINUOUS
 62
     2
100
AcDbLine
 39
96.0
 10
37.851517
 20
36.616842
 30
0.0
 11
37.851517
 21
36.616842
 31
0.0
  0
LINE
  5
729
100
AcDbEntity
  8
BORDER
  6
CONTINUOUS
 62
     2
100
AcDbLine
 39
96.0
 10
37.382767
 20
36.616842
 30
0.0
 11
37.382767
 21
36.616842
 31
0.0
  0
LINE
  5
72A
100
AcDbEntity
  8
BORDER
  6
CONTINUOUS
 62
     2
100
AcDbLine
 39
96.0
 10
36.914017
 20
36.616842
 30
0.0
 11
36.914017
 21
36.616842
 31
0.0
  0
LINE
  5
72B
100
AcDbEntity
  8
BORDER
  6
CONTINUOUS
 62
     2
100
AcDbLine
 39
96.0
 10
36.445267
 20
36.616842
 30
0.0
 11
36.445267
 21
36.616842
 31
0.0
  0
LINE
  5
72C
100
AcDbEntity
  8
BORDER
  6
CONTINUOUS
 62
     2
100
AcDbLine
 39
96.0
 10
37.617147
 20
37.085592
 30
0.0
 11
37.617147
 21
37.085592
 31
0.0
  0
LINE
  5
72D
100
AcDbEntity
  8
BORDER
  6
CONTINUOUS
 62
     2
100
AcDbLine
 39
96.0
 10
37.148397
 20
37.085592
 30
0.0
 11
37.148397
 21
37.085592
 31
0.0
  0
LINE
  5
72E
100
AcDbEntity
  8
BORDER
  6
CONTINUOUS
 62
     2
100
AcDbLine
 39
96.0
 10
36.679647
 20
37.085592
 30
0.0
 11
36.679647
 21
37.085592
 31
0.0
  0
LINE
  5
72F
100
AcDbEntity
  8
BORDER
  6
CONTINUOUS
 62
     2
100
AcDbLine
 39
96.0
 10
36.210897
 20
37.085592
 30
0.0
 11
36.210897
 21
37.085592
 31
0.0
  0
LINE
  5
730
100
AcDbEntity
  8
BORDER
  6
CONTINUOUS
 62
     2
100
AcDbLine
 39
96.0
 10
29.882767
 20
22.554342
 30
0.0
 11
29.882767
 21
22.554342
 31
0.0
  0
LINE
  5
731
100
AcDbEntity
  8
BORDER
  6
CONTINUOUS
 62
     2
100
AcDbLine
 39
96.0
 10
29.414017
 20
22.554342
 30
0.0
 11
29.414017
 21
22.554342
 31
0.0
  0
LINE
  5
732
100
AcDbEntity
  8
BORDER
  6
CONTINUOUS
 62
     2
100
AcDbLine
 39
96.0
 10
28.945267
 20
22.554342
 30
0.0
 11
28.945267
 21
22.554342
 31
0.0
  0
LINE
  5
733
100
AcDbEntity
  8
BORDER
  6
CONTINUOUS
 62
     2
100
AcDbLine
 39
96.0
 10
28.476517
 20
22.554342
 30
0.0
 11
28.476517
 21
22.554342
 31
0.0
  0
LINE
  5
734
100
AcDbEntity
  8
BORDER
  6
CONTINUOUS
 62
     2
100
AcDbLine
 39
96.0
 10
29.648397
 20
23.023092
 30
0.0
 11
29.648397
 21
23.023092
 31
0.0
  0
LINE
  5
735
100
AcDbEntity
  8
BORDER
  6
CONTINUOUS
 62
     2
100
AcDbLine
 39
96.0
 10
29.179647
 20
23.023092
 30
0.0
 11
29.179647
 21
23.023092
 31
0.0
  0
LINE
  5
736
100
AcDbEntity
  8
BORDER
  6
CONTINUOUS
 62
     2
100
AcDbLine
 39
96.0
 10
28.710897
 20
23.023092
 30
0.0
 11
28.710897
 21
23.023092
 31
0.0
  0
LINE
  5
737
100
AcDbEntity
  8
BORDER
  6
CONTINUOUS
 62
     2
100
AcDbLine
 39
96.0
 10
28.242147
 20
23.023092
 30
0.0
 11
28.242147
 21
23.023092
 31
0.0
  0
LINE
  5
738
100
AcDbEntity
  8
BORDER
  6
CONTINUOUS
 62
     2
100
AcDbLine
 39
96.0
 10
29.882767
 20
23.491842
 30
0.0
 11
29.882767
 21
23.491842
 31
0.0
  0
LINE
  5
739
100
AcDbEntity
  8
BORDER
  6
CONTINUOUS
 62
     2
100
AcDbLine
 39
96.0
 10
29.414017
 20
23.491842
 30
0.0
 11
29.414017
 21
23.491842
 31
0.0
  0
LINE
  5
73A
100
AcDbEntity
  8
BORDER
  6
CONTINUOUS
 62
     2
100
AcDbLine
 39
96.0
 10
28.945267
 20
23.491842
 30
0.0
 11
28.945267
 21
23.491842
 31
0.0
  0
LINE
  5
73B
100
AcDbEntity
  8
BORDER
  6
CONTINUOUS
 62
     2
100
AcDbLine
 39
96.0
 10
28.476517
 20
23.491842
 30
0.0
 11
28.476517
 21
23.491842
 31
0.0
  0
LINE
  5
73C
100
AcDbEntity
  8
BORDER
  6
CONTINUOUS
 62
     2
100
AcDbLine
 39
96.0
 10
29.648397
 20
23.960592
 30
0.0
 11
29.648397
 21
23.960592
 31
0.0
  0
LINE
  5
73D
100
AcDbEntity
  8
BORDER
  6
CONTINUOUS
 62
     2
100
AcDbLine
 39
96.0
 10
29.179647
 20
23.960592
 30
0.0
 11
29.179647
 21
23.960592
 31
0.0
  0
LINE
  5
73E
100
AcDbEntity
  8
BORDER
  6
CONTINUOUS
 62
     2
100
AcDbLine
 39
96.0
 10
28.710897
 20
23.960592
 30
0.0
 11
28.710897
 21
23.960592
 31
0.0
  0
LINE
  5
73F
100
AcDbEntity
  8
BORDER
  6
CONTINUOUS
 62
     2
100
AcDbLine
 39
96.0
 10
28.242147
 20
23.960592
 30
0.0
 11
28.242147
 21
23.960592
 31
0.0
  0
LINE
  5
740
100
AcDbEntity
  8
BORDER
  6
CONTINUOUS
 62
     2
100
AcDbLine
 39
96.0
 10
29.882767
 20
24.429342
 30
0.0
 11
29.882767
 21
24.429342
 31
0.0
  0
LINE
  5
741
100
AcDbEntity
  8
BORDER
  6
CONTINUOUS
 62
     2
100
AcDbLine
 39
96.0
 10
29.414017
 20
24.429342
 30
0.0
 11
29.414017
 21
24.429342
 31
0.0
  0
LINE
  5
742
100
AcDbEntity
  8
BORDER
  6
CONTINUOUS
 62
     2
100
AcDbLine
 39
96.0
 10
28.945267
 20
24.429342
 30
0.0
 11
28.945267
 21
24.429342
 31
0.0
  0
LINE
  5
743
100
AcDbEntity
  8
BORDER
  6
CONTINUOUS
 62
     2
100
AcDbLine
 39
96.0
 10
28.476517
 20
24.429342
 30
0.0
 11
28.476517
 21
24.429342
 31
0.0
  0
LINE
  5
744
100
AcDbEntity
  8
BORDER
  6
CONTINUOUS
 62
     2
100
AcDbLine
 39
96.0
 10
29.648397
 20
24.898092
 30
0.0
 11
29.648397
 21
24.898092
 31
0.0
  0
LINE
  5
745
100
AcDbEntity
  8
BORDER
  6
CONTINUOUS
 62
     2
100
AcDbLine
 39
96.0
 10
29.179647
 20
24.898092
 30
0.0
 11
29.179647
 21
24.898092
 31
0.0
  0
LINE
  5
746
100
AcDbEntity
  8
BORDER
  6
CONTINUOUS
 62
     2
100
AcDbLine
 39
96.0
 10
28.710897
 20
24.898092
 30
0.0
 11
28.710897
 21
24.898092
 31
0.0
  0
LINE
  5
747
100
AcDbEntity
  8
BORDER
  6
CONTINUOUS
 62
     2
100
AcDbLine
 39
96.0
 10
28.242147
 20
24.898092
 30
0.0
 11
28.242147
 21
24.898092
 31
0.0
  0
LINE
  5
748
100
AcDbEntity
  8
BORDER
  6
CONTINUOUS
 62
     2
100
AcDbLine
 39
96.0
 10
29.882767
 20
25.366842
 30
0.0
 11
29.882767
 21
25.366842
 31
0.0
  0
LINE
  5
749
100
AcDbEntity
  8
BORDER
  6
CONTINUOUS
 62
     2
100
AcDbLine
 39
96.0
 10
29.414017
 20
25.366842
 30
0.0
 11
29.414017
 21
25.366842
 31
0.0
  0
LINE
  5
74A
100
AcDbEntity
  8
BORDER
  6
CONTINUOUS
 62
     2
100
AcDbLine
 39
96.0
 10
28.945267
 20
25.366842
 30
0.0
 11
28.945267
 21
25.366842
 31
0.0
  0
LINE
  5
74B
100
AcDbEntity
  8
BORDER
  6
CONTINUOUS
 62
     2
100
AcDbLine
 39
96.0
 10
28.476517
 20
25.366842
 30
0.0
 11
28.476517
 21
25.366842
 31
0.0
  0
LINE
  5
74C
100
AcDbEntity
  8
BORDER
  6
CONTINUOUS
 62
     2
100
AcDbLine
 39
96.0
 10
29.648397
 20
25.835592
 30
0.0
 11
29.648397
 21
25.835592
 31
0.0
  0
LINE
  5
74D
100
AcDbEntity
  8
BORDER
  6
CONTINUOUS
 62
     2
100
AcDbLine
 39
96.0
 10
29.179647
 20
25.835592
 30
0.0
 11
29.179647
 21
25.835592
 31
0.0
  0
LINE
  5
74E
100
AcDbEntity
  8
BORDER
  6
CONTINUOUS
 62
     2
100
AcDbLine
 39
96.0
 10
28.710897
 20
25.835592
 30
0.0
 11
28.710897
 21
25.835592
 31
0.0
  0
LINE
  5
74F
100
AcDbEntity
  8
BORDER
  6
CONTINUOUS
 62
     2
100
AcDbLine
 39
96.0
 10
28.242147
 20
25.835592
 30
0.0
 11
28.242147
 21
25.835592
 31
0.0
  0
LINE
  5
750
100
AcDbEntity
  8
BORDER
  6
CONTINUOUS
 62
     2
100
AcDbLine
 39
96.0
 10
29.882767
 20
26.304342
 30
0.0
 11
29.882767
 21
26.304342
 31
0.0
  0
LINE
  5
751
100
AcDbEntity
  8
BORDER
  6
CONTINUOUS
 62
     2
100
AcDbLine
 39
96.0
 10
29.414017
 20
26.304342
 30
0.0
 11
29.414017
 21
26.304342
 31
0.0
  0
LINE
  5
752
100
AcDbEntity
  8
BORDER
  6
CONTINUOUS
 62
     2
100
AcDbLine
 39
96.0
 10
28.945267
 20
26.304342
 30
0.0
 11
28.945267
 21
26.304342
 31
0.0
  0
LINE
  5
753
100
AcDbEntity
  8
BORDER
  6
CONTINUOUS
 62
     2
100
AcDbLine
 39
96.0
 10
28.476517
 20
26.304342
 30
0.0
 11
28.476517
 21
26.304342
 31
0.0
  0
LINE
  5
754
100
AcDbEntity
  8
BORDER
  6
CONTINUOUS
 62
     2
100
AcDbLine
 39
96.0
 10
29.648397
 20
26.773092
 30
0.0
 11
29.648397
 21
26.773092
 31
0.0
  0
LINE
  5
755
100
AcDbEntity
  8
BORDER
  6
CONTINUOUS
 62
     2
100
AcDbLine
 39
96.0
 10
29.179647
 20
26.773092
 30
0.0
 11
29.179647
 21
26.773092
 31
0.0
  0
LINE
  5
756
100
AcDbEntity
  8
BORDER
  6
CONTINUOUS
 62
     2
100
AcDbLine
 39
96.0
 10
28.710897
 20
26.773092
 30
0.0
 11
28.710897
 21
26.773092
 31
0.0
  0
LINE
  5
757
100
AcDbEntity
  8
BORDER
  6
CONTINUOUS
 62
     2
100
AcDbLine
 39
96.0
 10
28.242147
 20
26.773092
 30
0.0
 11
28.242147
 21
26.773092
 31
0.0
  0
LINE
  5
758
100
AcDbEntity
  8
BORDER
  6
CONTINUOUS
 62
     2
100
AcDbLine
 39
96.0
 10
29.882767
 20
27.241842
 30
0.0
 11
29.882767
 21
27.241842
 31
0.0
  0
LINE
  5
759
100
AcDbEntity
  8
BORDER
  6
CONTINUOUS
 62
     2
100
AcDbLine
 39
96.0
 10
29.414017
 20
27.241842
 30
0.0
 11
29.414017
 21
27.241842
 31
0.0
  0
LINE
  5
75A
100
AcDbEntity
  8
BORDER
  6
CONTINUOUS
 62
     2
100
AcDbLine
 39
96.0
 10
28.945267
 20
27.241842
 30
0.0
 11
28.945267
 21
27.241842
 31
0.0
  0
LINE
  5
75B
100
AcDbEntity
  8
BORDER
  6
CONTINUOUS
 62
     2
100
AcDbLine
 39
96.0
 10
28.476517
 20
27.241842
 30
0.0
 11
28.476517
 21
27.241842
 31
0.0
  0
LINE
  5
75C
100
AcDbEntity
  8
BORDER
  6
CONTINUOUS
 62
     2
100
AcDbLine
 39
96.0
 10
29.648397
 20
27.710592
 30
0.0
 11
29.648397
 21
27.710592
 31
0.0
  0
LINE
  5
75D
100
AcDbEntity
  8
BORDER
  6
CONTINUOUS
 62
     2
100
AcDbLine
 39
96.0
 10
29.179647
 20
27.710592
 30
0.0
 11
29.179647
 21
27.710592
 31
0.0
  0
LINE
  5
75E
100
AcDbEntity
  8
BORDER
  6
CONTINUOUS
 62
     2
100
AcDbLine
 39
96.0
 10
28.710897
 20
27.710592
 30
0.0
 11
28.710897
 21
27.710592
 31
0.0
  0
LINE
  5
75F
100
AcDbEntity
  8
BORDER
  6
CONTINUOUS
 62
     2
100
AcDbLine
 39
96.0
 10
28.242147
 20
27.710592
 30
0.0
 11
28.242147
 21
27.710592
 31
0.0
  0
LINE
  5
760
100
AcDbEntity
  8
BORDER
  6
CONTINUOUS
 62
     2
100
AcDbLine
 39
96.0
 10
29.882767
 20
28.179342
 30
0.0
 11
29.882767
 21
28.179342
 31
0.0
  0
LINE
  5
761
100
AcDbEntity
  8
BORDER
  6
CONTINUOUS
 62
     2
100
AcDbLine
 39
96.0
 10
29.414017
 20
28.179342
 30
0.0
 11
29.414017
 21
28.179342
 31
0.0
  0
LINE
  5
762
100
AcDbEntity
  8
BORDER
  6
CONTINUOUS
 62
     2
100
AcDbLine
 39
96.0
 10
28.945267
 20
28.179342
 30
0.0
 11
28.945267
 21
28.179342
 31
0.0
  0
LINE
  5
763
100
AcDbEntity
  8
BORDER
  6
CONTINUOUS
 62
     2
100
AcDbLine
 39
96.0
 10
28.476517
 20
28.179342
 30
0.0
 11
28.476517
 21
28.179342
 31
0.0
  0
LINE
  5
764
100
AcDbEntity
  8
BORDER
  6
CONTINUOUS
 62
     2
100
AcDbLine
 39
96.0
 10
29.648397
 20
28.648092
 30
0.0
 11
29.648397
 21
28.648092
 31
0.0
  0
LINE
  5
765
100
AcDbEntity
  8
BORDER
  6
CONTINUOUS
 62
     2
100
AcDbLine
 39
96.0
 10
29.179647
 20
28.648092
 30
0.0
 11
29.179647
 21
28.648092
 31
0.0
  0
LINE
  5
766
100
AcDbEntity
  8
BORDER
  6
CONTINUOUS
 62
     2
100
AcDbLine
 39
96.0
 10
28.710897
 20
28.648092
 30
0.0
 11
28.710897
 21
28.648092
 31
0.0
  0
LINE
  5
767
100
AcDbEntity
  8
BORDER
  6
CONTINUOUS
 62
     2
100
AcDbLine
 39
96.0
 10
28.242147
 20
28.648092
 30
0.0
 11
28.242147
 21
28.648092
 31
0.0
  0
LINE
  5
768
100
AcDbEntity
  8
BORDER
  6
CONTINUOUS
 62
     2
100
AcDbLine
 39
96.0
 10
29.882767
 20
29.116842
 30
0.0
 11
29.882767
 21
29.116842
 31
0.0
  0
LINE
  5
769
100
AcDbEntity
  8
BORDER
  6
CONTINUOUS
 62
     2
100
AcDbLine
 39
96.0
 10
29.414017
 20
29.116842
 30
0.0
 11
29.414017
 21
29.116842
 31
0.0
  0
LINE
  5
76A
100
AcDbEntity
  8
BORDER
  6
CONTINUOUS
 62
     2
100
AcDbLine
 39
96.0
 10
28.945267
 20
29.116842
 30
0.0
 11
28.945267
 21
29.116842
 31
0.0
  0
LINE
  5
76B
100
AcDbEntity
  8
BORDER
  6
CONTINUOUS
 62
     2
100
AcDbLine
 39
96.0
 10
28.476517
 20
29.116842
 30
0.0
 11
28.476517
 21
29.116842
 31
0.0
  0
LINE
  5
76C
100
AcDbEntity
  8
BORDER
  6
CONTINUOUS
 62
     2
100
AcDbLine
 39
96.0
 10
29.648397
 20
29.585592
 30
0.0
 11
29.648397
 21
29.585592
 31
0.0
  0
LINE
  5
76D
100
AcDbEntity
  8
BORDER
  6
CONTINUOUS
 62
     2
100
AcDbLine
 39
96.0
 10
29.179647
 20
29.585592
 30
0.0
 11
29.179647
 21
29.585592
 31
0.0
  0
LINE
  5
76E
100
AcDbEntity
  8
BORDER
  6
CONTINUOUS
 62
     2
100
AcDbLine
 39
96.0
 10
28.710897
 20
29.585592
 30
0.0
 11
28.710897
 21
29.585592
 31
0.0
  0
LINE
  5
76F
100
AcDbEntity
  8
BORDER
  6
CONTINUOUS
 62
     2
100
AcDbLine
 39
96.0
 10
28.242147
 20
29.585592
 30
0.0
 11
28.242147
 21
29.585592
 31
0.0
  0
LINE
  5
770
100
AcDbEntity
  8
BORDER
  6
CONTINUOUS
 62
     2
100
AcDbLine
 39
96.0
 10
29.882767
 20
30.054342
 30
0.0
 11
29.882767
 21
30.054342
 31
0.0
  0
LINE
  5
771
100
AcDbEntity
  8
BORDER
  6
CONTINUOUS
 62
     2
100
AcDbLine
 39
96.0
 10
29.414017
 20
30.054342
 30
0.0
 11
29.414017
 21
30.054342
 31
0.0
  0
LINE
  5
772
100
AcDbEntity
  8
BORDER
  6
CONTINUOUS
 62
     2
100
AcDbLine
 39
96.0
 10
28.945267
 20
30.054342
 30
0.0
 11
28.945267
 21
30.054342
 31
0.0
  0
LINE
  5
773
100
AcDbEntity
  8
BORDER
  6
CONTINUOUS
 62
     2
100
AcDbLine
 39
96.0
 10
28.476517
 20
30.054342
 30
0.0
 11
28.476517
 21
30.054342
 31
0.0
  0
LINE
  5
774
100
AcDbEntity
  8
BORDER
  6
CONTINUOUS
 62
     2
100
AcDbLine
 39
96.0
 10
29.648397
 20
30.523092
 30
0.0
 11
29.648397
 21
30.523092
 31
0.0
  0
LINE
  5
775
100
AcDbEntity
  8
BORDER
  6
CONTINUOUS
 62
     2
100
AcDbLine
 39
96.0
 10
29.179647
 20
30.523092
 30
0.0
 11
29.179647
 21
30.523092
 31
0.0
  0
LINE
  5
776
100
AcDbEntity
  8
BORDER
  6
CONTINUOUS
 62
     2
100
AcDbLine
 39
96.0
 10
28.710897
 20
30.523092
 30
0.0
 11
28.710897
 21
30.523092
 31
0.0
  0
LINE
  5
777
100
AcDbEntity
  8
BORDER
  6
CONTINUOUS
 62
     2
100
AcDbLine
 39
96.0
 10
28.242147
 20
30.523092
 30
0.0
 11
28.242147
 21
30.523092
 31
0.0
  0
LINE
  5
778
100
AcDbEntity
  8
BORDER
  6
CONTINUOUS
 62
     2
100
AcDbLine
 39
96.0
 10
29.882767
 20
30.991842
 30
0.0
 11
29.882767
 21
30.991842
 31
0.0
  0
LINE
  5
779
100
AcDbEntity
  8
BORDER
  6
CONTINUOUS
 62
     2
100
AcDbLine
 39
96.0
 10
29.414017
 20
30.991842
 30
0.0
 11
29.414017
 21
30.991842
 31
0.0
  0
LINE
  5
77A
100
AcDbEntity
  8
BORDER
  6
CONTINUOUS
 62
     2
100
AcDbLine
 39
96.0
 10
28.945267
 20
30.991842
 30
0.0
 11
28.945267
 21
30.991842
 31
0.0
  0
LINE
  5
77B
100
AcDbEntity
  8
BORDER
  6
CONTINUOUS
 62
     2
100
AcDbLine
 39
96.0
 10
28.476517
 20
30.991842
 30
0.0
 11
28.476517
 21
30.991842
 31
0.0
  0
LINE
  5
77C
100
AcDbEntity
  8
BORDER
  6
CONTINUOUS
 62
     2
100
AcDbLine
 39
96.0
 10
29.648397
 20
31.460592
 30
0.0
 11
29.648397
 21
31.460592
 31
0.0
  0
LINE
  5
77D
100
AcDbEntity
  8
BORDER
  6
CONTINUOUS
 62
     2
100
AcDbLine
 39
96.0
 10
29.179647
 20
31.460592
 30
0.0
 11
29.179647
 21
31.460592
 31
0.0
  0
LINE
  5
77E
100
AcDbEntity
  8
BORDER
  6
CONTINUOUS
 62
     2
100
AcDbLine
 39
96.0
 10
28.710897
 20
31.460592
 30
0.0
 11
28.710897
 21
31.460592
 31
0.0
  0
LINE
  5
77F
100
AcDbEntity
  8
BORDER
  6
CONTINUOUS
 62
     2
100
AcDbLine
 39
96.0
 10
28.242147
 20
31.460592
 30
0.0
 11
28.242147
 21
31.460592
 31
0.0
  0
LINE
  5
780
100
AcDbEntity
  8
BORDER
  6
CONTINUOUS
 62
     2
100
AcDbLine
 39
96.0
 10
29.882767
 20
31.929342
 30
0.0
 11
29.882767
 21
31.929342
 31
0.0
  0
LINE
  5
781
100
AcDbEntity
  8
BORDER
  6
CONTINUOUS
 62
     2
100
AcDbLine
 39
96.0
 10
29.414017
 20
31.929342
 30
0.0
 11
29.414017
 21
31.929342
 31
0.0
  0
LINE
  5
782
100
AcDbEntity
  8
BORDER
  6
CONTINUOUS
 62
     2
100
AcDbLine
 39
96.0
 10
28.945267
 20
31.929342
 30
0.0
 11
28.945267
 21
31.929342
 31
0.0
  0
LINE
  5
783
100
AcDbEntity
  8
BORDER
  6
CONTINUOUS
 62
     2
100
AcDbLine
 39
96.0
 10
28.476517
 20
31.929342
 30
0.0
 11
28.476517
 21
31.929342
 31
0.0
  0
LINE
  5
784
100
AcDbEntity
  8
BORDER
  6
CONTINUOUS
 62
     2
100
AcDbLine
 39
96.0
 10
29.648397
 20
32.398092
 30
0.0
 11
29.648397
 21
32.398092
 31
0.0
  0
LINE
  5
785
100
AcDbEntity
  8
BORDER
  6
CONTINUOUS
 62
     2
100
AcDbLine
 39
96.0
 10
29.179647
 20
32.398092
 30
0.0
 11
29.179647
 21
32.398092
 31
0.0
  0
LINE
  5
786
100
AcDbEntity
  8
BORDER
  6
CONTINUOUS
 62
     2
100
AcDbLine
 39
96.0
 10
28.710897
 20
32.398092
 30
0.0
 11
28.710897
 21
32.398092
 31
0.0
  0
LINE
  5
787
100
AcDbEntity
  8
BORDER
  6
CONTINUOUS
 62
     2
100
AcDbLine
 39
96.0
 10
28.242147
 20
32.398092
 30
0.0
 11
28.242147
 21
32.398092
 31
0.0
  0
LINE
  5
788
100
AcDbEntity
  8
BORDER
  6
CONTINUOUS
 62
     2
100
AcDbLine
 39
96.0
 10
29.882767
 20
32.866842
 30
0.0
 11
29.882767
 21
32.866842
 31
0.0
  0
LINE
  5
789
100
AcDbEntity
  8
BORDER
  6
CONTINUOUS
 62
     2
100
AcDbLine
 39
96.0
 10
29.414017
 20
32.866842
 30
0.0
 11
29.414017
 21
32.866842
 31
0.0
  0
LINE
  5
78A
100
AcDbEntity
  8
BORDER
  6
CONTINUOUS
 62
     2
100
AcDbLine
 39
96.0
 10
28.945267
 20
32.866842
 30
0.0
 11
28.945267
 21
32.866842
 31
0.0
  0
LINE
  5
78B
100
AcDbEntity
  8
BORDER
  6
CONTINUOUS
 62
     2
100
AcDbLine
 39
96.0
 10
28.476517
 20
32.866842
 30
0.0
 11
28.476517
 21
32.866842
 31
0.0
  0
LINE
  5
78C
100
AcDbEntity
  8
BORDER
  6
CONTINUOUS
 62
     2
100
AcDbLine
 39
96.0
 10
29.648397
 20
33.335592
 30
0.0
 11
29.648397
 21
33.335592
 31
0.0
  0
LINE
  5
78D
100
AcDbEntity
  8
BORDER
  6
CONTINUOUS
 62
     2
100
AcDbLine
 39
96.0
 10
29.179647
 20
33.335592
 30
0.0
 11
29.179647
 21
33.335592
 31
0.0
  0
LINE
  5
78E
100
AcDbEntity
  8
BORDER
  6
CONTINUOUS
 62
     2
100
AcDbLine
 39
96.0
 10
28.710897
 20
33.335592
 30
0.0
 11
28.710897
 21
33.335592
 31
0.0
  0
LINE
  5
78F
100
AcDbEntity
  8
BORDER
  6
CONTINUOUS
 62
     2
100
AcDbLine
 39
96.0
 10
28.242147
 20
33.335592
 30
0.0
 11
28.242147
 21
33.335592
 31
0.0
  0
LINE
  5
790
100
AcDbEntity
  8
BORDER
  6
CONTINUOUS
 62
     2
100
AcDbLine
 39
96.0
 10
29.882767
 20
33.804342
 30
0.0
 11
29.882767
 21
33.804342
 31
0.0
  0
LINE
  5
791
100
AcDbEntity
  8
BORDER
  6
CONTINUOUS
 62
     2
100
AcDbLine
 39
96.0
 10
29.414017
 20
33.804342
 30
0.0
 11
29.414017
 21
33.804342
 31
0.0
  0
LINE
  5
792
100
AcDbEntity
  8
BORDER
  6
CONTINUOUS
 62
     2
100
AcDbLine
 39
96.0
 10
28.945267
 20
33.804342
 30
0.0
 11
28.945267
 21
33.804342
 31
0.0
  0
LINE
  5
793
100
AcDbEntity
  8
BORDER
  6
CONTINUOUS
 62
     2
100
AcDbLine
 39
96.0
 10
28.476517
 20
33.804342
 30
0.0
 11
28.476517
 21
33.804342
 31
0.0
  0
LINE
  5
794
100
AcDbEntity
  8
BORDER
  6
CONTINUOUS
 62
     2
100
AcDbLine
 39
96.0
 10
29.648397
 20
34.273092
 30
0.0
 11
29.648397
 21
34.273092
 31
0.0
  0
LINE
  5
795
100
AcDbEntity
  8
BORDER
  6
CONTINUOUS
 62
     2
100
AcDbLine
 39
96.0
 10
29.179647
 20
34.273092
 30
0.0
 11
29.179647
 21
34.273092
 31
0.0
  0
LINE
  5
796
100
AcDbEntity
  8
BORDER
  6
CONTINUOUS
 62
     2
100
AcDbLine
 39
96.0
 10
28.710897
 20
34.273092
 30
0.0
 11
28.710897
 21
34.273092
 31
0.0
  0
LINE
  5
797
100
AcDbEntity
  8
BORDER
  6
CONTINUOUS
 62
     2
100
AcDbLine
 39
96.0
 10
28.242147
 20
34.273092
 30
0.0
 11
28.242147
 21
34.273092
 31
0.0
  0
LINE
  5
798
100
AcDbEntity
  8
BORDER
  6
CONTINUOUS
 62
     2
100
AcDbLine
 39
96.0
 10
29.882767
 20
34.741842
 30
0.0
 11
29.882767
 21
34.741842
 31
0.0
  0
LINE
  5
799
100
AcDbEntity
  8
BORDER
  6
CONTINUOUS
 62
     2
100
AcDbLine
 39
96.0
 10
29.414017
 20
34.741842
 30
0.0
 11
29.414017
 21
34.741842
 31
0.0
  0
LINE
  5
79A
100
AcDbEntity
  8
BORDER
  6
CONTINUOUS
 62
     2
100
AcDbLine
 39
96.0
 10
28.945267
 20
34.741842
 30
0.0
 11
28.945267
 21
34.741842
 31
0.0
  0
LINE
  5
79B
100
AcDbEntity
  8
BORDER
  6
CONTINUOUS
 62
     2
100
AcDbLine
 39
96.0
 10
28.476517
 20
34.741842
 30
0.0
 11
28.476517
 21
34.741842
 31
0.0
  0
LINE
  5
79C
100
AcDbEntity
  8
BORDER
  6
CONTINUOUS
 62
     2
100
AcDbLine
 39
96.0
 10
29.648397
 20
35.210592
 30
0.0
 11
29.648397
 21
35.210592
 31
0.0
  0
LINE
  5
79D
100
AcDbEntity
  8
BORDER
  6
CONTINUOUS
 62
     2
100
AcDbLine
 39
96.0
 10
29.179647
 20
35.210592
 30
0.0
 11
29.179647
 21
35.210592
 31
0.0
  0
LINE
  5
79E
100
AcDbEntity
  8
BORDER
  6
CONTINUOUS
 62
     2
100
AcDbLine
 39
96.0
 10
28.710897
 20
35.210592
 30
0.0
 11
28.710897
 21
35.210592
 31
0.0
  0
LINE
  5
79F
100
AcDbEntity
  8
BORDER
  6
CONTINUOUS
 62
     2
100
AcDbLine
 39
96.0
 10
28.242147
 20
35.210592
 30
0.0
 11
28.242147
 21
35.210592
 31
0.0
  0
LINE
  5
7A0
100
AcDbEntity
  8
BORDER
  6
CONTINUOUS
 62
     2
100
AcDbLine
 39
96.0
 10
29.882767
 20
35.679342
 30
0.0
 11
29.882767
 21
35.679342
 31
0.0
  0
LINE
  5
7A1
100
AcDbEntity
  8
BORDER
  6
CONTINUOUS
 62
     2
100
AcDbLine
 39
96.0
 10
29.414017
 20
35.679342
 30
0.0
 11
29.414017
 21
35.679342
 31
0.0
  0
LINE
  5
7A2
100
AcDbEntity
  8
BORDER
  6
CONTINUOUS
 62
     2
100
AcDbLine
 39
96.0
 10
28.945267
 20
35.679342
 30
0.0
 11
28.945267
 21
35.679342
 31
0.0
  0
LINE
  5
7A3
100
AcDbEntity
  8
BORDER
  6
CONTINUOUS
 62
     2
100
AcDbLine
 39
96.0
 10
28.476517
 20
35.679342
 30
0.0
 11
28.476517
 21
35.679342
 31
0.0
  0
LINE
  5
7A4
100
AcDbEntity
  8
BORDER
  6
CONTINUOUS
 62
     2
100
AcDbLine
 39
96.0
 10
29.648397
 20
36.148092
 30
0.0
 11
29.648397
 21
36.148092
 31
0.0
  0
LINE
  5
7A5
100
AcDbEntity
  8
BORDER
  6
CONTINUOUS
 62
     2
100
AcDbLine
 39
96.0
 10
29.179647
 20
36.148092
 30
0.0
 11
29.179647
 21
36.148092
 31
0.0
  0
LINE
  5
7A6
100
AcDbEntity
  8
BORDER
  6
CONTINUOUS
 62
     2
100
AcDbLine
 39
96.0
 10
28.710897
 20
36.148092
 30
0.0
 11
28.710897
 21
36.148092
 31
0.0
  0
LINE
  5
7A7
100
AcDbEntity
  8
BORDER
  6
CONTINUOUS
 62
     2
100
AcDbLine
 39
96.0
 10
28.242147
 20
36.148092
 30
0.0
 11
28.242147
 21
36.148092
 31
0.0
  0
LINE
  5
7A8
100
AcDbEntity
  8
BORDER
  6
CONTINUOUS
 62
     2
100
AcDbLine
 39
96.0
 10
29.882767
 20
36.616842
 30
0.0
 11
29.882767
 21
36.616842
 31
0.0
  0
LINE
  5
7A9
100
AcDbEntity
  8
BORDER
  6
CONTINUOUS
 62
     2
100
AcDbLine
 39
96.0
 10
29.414017
 20
36.616842
 30
0.0
 11
29.414017
 21
36.616842
 31
0.0
  0
LINE
  5
7AA
100
AcDbEntity
  8
BORDER
  6
CONTINUOUS
 62
     2
100
AcDbLine
 39
96.0
 10
28.945267
 20
36.616842
 30
0.0
 11
28.945267
 21
36.616842
 31
0.0
  0
LINE
  5
7AB
100
AcDbEntity
  8
BORDER
  6
CONTINUOUS
 62
     2
100
AcDbLine
 39
96.0
 10
28.476517
 20
36.616842
 30
0.0
 11
28.476517
 21
36.616842
 31
0.0
  0
LINE
  5
7AC
100
AcDbEntity
  8
BORDER
  6
CONTINUOUS
 62
     2
100
AcDbLine
 39
96.0
 10
29.648397
 20
37.085592
 30
0.0
 11
29.648397
 21
37.085592
 31
0.0
  0
LINE
  5
7AD
100
AcDbEntity
  8
BORDER
  6
CONTINUOUS
 62
     2
100
AcDbLine
 39
96.0
 10
29.179647
 20
37.085592
 30
0.0
 11
29.179647
 21
37.085592
 31
0.0
  0
LINE
  5
7AE
100
AcDbEntity
  8
BORDER
  6
CONTINUOUS
 62
     2
100
AcDbLine
 39
96.0
 10
28.710897
 20
37.085592
 30
0.0
 11
28.710897
 21
37.085592
 31
0.0
  0
LINE
  5
7AF
100
AcDbEntity
  8
BORDER
  6
CONTINUOUS
 62
     2
100
AcDbLine
 39
96.0
 10
28.242147
 20
37.085592
 30
0.0
 11
28.242147
 21
37.085592
 31
0.0
  0
LINE
  5
7B0
100
AcDbEntity
  8
BORDER
  6
CONTINUOUS
 62
     1
100
AcDbLine
 39
96.0
 10
36.096397
 20
26.535062
 30
0.0
 11
36.107137
 21
26.596582
 31
0.0
  0
LINE
  5
7B1
100
AcDbEntity
  8
BORDER
  6
CONTINUOUS
 62
     1
100
AcDbLine
 39
96.0
 10
35.662307
 20
24.073022
 30
0.0
 11
35.673057
 21
24.134542
 31
0.0
  0
LINE
  5
7B2
100
AcDbEntity
  8
BORDER
  6
CONTINUOUS
 62
     1
100
AcDbLine
 39
96.0
 10
34.936727
 20
34.355252
 30
0.0
 11
34.947467
 21
34.416772
 31
0.0
  0
LINE
  5
7B3
100
AcDbEntity
  8
BORDER
  6
CONTINUOUS
 62
     1
100
AcDbLine
 39
96.0
 10
34.502647
 20
31.893212
 30
0.0
 11
34.513387
 21
31.954732
 31
0.0
  0
LINE
  5
7B4
100
AcDbEntity
  8
BORDER
  6
CONTINUOUS
 62
     1
100
AcDbLine
 39
96.0
 10
34.068557
 20
29.431172
 30
0.0
 11
34.079307
 21
29.492702
 31
0.0
  0
LINE
  5
7B5
100
AcDbEntity
  8
BORDER
  6
CONTINUOUS
 62
     1
100
AcDbLine
 39
96.0
 10
33.634477
 20
26.969142
 30
0.0
 11
33.645217
 21
27.030662
 31
0.0
  0
LINE
  5
7B6
100
AcDbEntity
  8
BORDER
  6
CONTINUOUS
 62
     1
100
AcDbLine
 39
96.0
 10
32.040977
 20
32.327292
 30
0.0
 11
32.051717
 21
32.388812
 31
0.0
  0
LINE
  5
7B7
100
AcDbEntity
  8
BORDER
  6
CONTINUOUS
 62
     1
100
AcDbLine
 39
96.0
 10
31.606887
 20
29.865262
 30
0.0
 11
31.617637
 21
29.926782
 31
0.0
  0
LINE
  5
7B8
100
AcDbEntity
  8
BORDER
  6
CONTINUOUS
 62
     1
100
AcDbLine
 39
96.0
 10
31.172807
 20
27.403222
 30
0.0
 11
31.183547
 21
27.464742
 31
0.0
  0
LINE
  5
7B9
100
AcDbEntity
  8
BORDER
  6
CONTINUOUS
 62
     1
100
AcDbLine
 39
96.0
 10
30.738727
 20
24.941182
 30
0.0
 11
30.749467
 21
25.002712
 31
0.0
  0
LINE
  5
7BA
100
AcDbEntity
  8
BORDER
  6
CONTINUOUS
 62
     1
100
AcDbLine
 39
96.0
 10
30.013137
 20
35.223412
 30
0.0
 11
30.023887
 21
35.284932
 31
0.0
  0
LINE
  5
7BB
100
AcDbEntity
  8
BORDER
  6
CONTINUOUS
 62
     1
100
AcDbLine
 39
96.0
 10
36.018027
 20
24.931422
 30
0.0
 11
36.053917
 21
24.982632
 31
0.0
  0
LINE
  5
7BC
100
AcDbEntity
  8
BORDER
  6
CONTINUOUS
 62
     1
100
AcDbLine
 39
96.0
 10
35.404497
 20
28.413112
 30
0.0
 11
35.440387
 21
28.464252
 31
0.0
  0
LINE
  5
7BD
100
AcDbEntity
  8
BORDER
  6
CONTINUOUS
 62
     1
100
AcDbLine
 39
96.0
 10
33.970417
 20
26.365192
 30
0.0
 11
34.006307
 21
26.416402
 31
0.0
  0
LINE
  5
7BE
100
AcDbEntity
  8
BORDER
  6
CONTINUOUS
 62
     1
100
AcDbLine
 39
96.0
 10
34.790727
 20
31.894922
 30
0.0
 11
34.826617
 21
31.946072
 31
0.0
  0
LINE
  5
7BF
100
AcDbEntity
  8
BORDER
  6
CONTINUOUS
 62
     1
100
AcDbLine
 39
96.0
 10
33.356647
 20
29.847012
 30
0.0
 11
33.392537
 21
29.898212
 31
0.0
  0
LINE
  5
7C0
100
AcDbEntity
  8
BORDER
  6
CONTINUOUS
 62
     1
100
AcDbLine
 39
96.0
 10
31.922567
 20
27.799092
 30
0.0
 11
31.958457
 21
27.850362
 31
0.0
  0
LINE
  5
7C1
100
AcDbEntity
  8
BORDER
  6
CONTINUOUS
 62
     1
100
AcDbLine
 39
96.0
 10
30.488487
 20
25.751242
 30
0.0
 11
30.524367
 21
25.802452
 31
0.0
  0
LINE
  5
7C2
100
AcDbEntity
  8
BORDER
  6
CONTINUOUS
 62
     1
100
AcDbLine
 39
96.0
 10
32.742877
 20
33.328762
 30
0.0
 11
32.778767
 21
33.379962
 31
0.0
  0
LINE
  5
7C3
100
AcDbEntity
  8
BORDER
  6
CONTINUOUS
 62
     1
100
AcDbLine
 39
96.0
 10
31.308797
 20
31.280902
 30
0.0
 11
31.344687
 21
31.332052
 31
0.0
  0
LINE
  5
7C4
100
AcDbEntity
  8
BORDER
  6
CONTINUOUS
 62
     1
100
AcDbLine
 39
96.0
 10
30.694777
 20
34.762722
 30
0.0
 11
30.730667
 21
34.813922
 31
0.0
  0
LINE
  5
7C5
100
AcDbEntity
  8
BORDER
  6
CONTINUOUS
 62
     1
100
AcDbLine
 39
96.0
 10
35.352257
 20
24.513942
 30
0.0
 11
35.411087
 21
24.535302
 31
0.0
  0
LINE
  5
7C6
100
AcDbEntity
  8
BORDER
  6
CONTINUOUS
 62
     1
100
AcDbLine
 39
96.0
 10
34.497517
 20
26.863182
 30
0.0
 11
34.556357
 21
26.884542
 31
0.0
  0
LINE
  5
7C7
100
AcDbEntity
  8
BORDER
  6
CONTINUOUS
 62
     1
100
AcDbLine
 39
96.0
 10
32.148147
 20
26.008082
 30
0.0
 11
32.206987
 21
26.029442
 31
0.0
  0
LINE
  5
7C8
100
AcDbEntity
  8
BORDER
  6
CONTINUOUS
 62
     1
100
AcDbLine
 39
96.0
 10
35.991897
 20
30.067402
 30
0.0
 11
36.050737
 21
30.088772
 31
0.0
  0
LINE
  5
7C9
100
AcDbEntity
  8
BORDER
  6
CONTINUOUS
 62
     1
100
AcDbLine
 39
96.0
 10
33.642537
 20
29.212362
 30
0.0
 11
33.701377
 21
29.233722
 31
0.0
  0
LINE
  5
7CA
100
AcDbEntity
  8
BORDER
  6
CONTINUOUS
 62
     1
100
AcDbLine
 39
96.0
 10
31.293167
 20
28.357322
 30
0.0
 11
31.352007
 21
28.378682
 31
0.0
  0
LINE
  5
7CB
100
AcDbEntity
  8
BORDER
  6
CONTINUOUS
 62
     1
100
AcDbLine
 39
96.0
 10
35.136917
 20
32.416652
 30
0.0
 11
35.195757
 21
32.438012
 31
0.0
  0
LINE
  5
7CC
100
AcDbEntity
  8
BORDER
  6
CONTINUOUS
 62
     1
100
AcDbLine
 39
96.0
 10
32.787557
 20
31.561612
 30
0.0
 11
32.846397
 21
31.582972
 31
0.0
  0
LINE
  5
7CD
100
AcDbEntity
  8
BORDER
  6
CONTINUOUS
 62
     1
100
AcDbLine
 39
96.0
 10
30.438187
 20
30.706562
 30
0.0
 11
30.497027
 21
30.727932
 31
0.0
  0
LINE
  5
7CE
100
AcDbEntity
  8
BORDER
  6
CONTINUOUS
 62
     1
100
AcDbLine
 39
96.0
 10
31.932577
 20
33.910912
 30
0.0
 11
31.991417
 21
33.932272
 31
0.0
  0
LINE
  5
7CF
100
AcDbEntity
  8
BORDER
  6
CONTINUOUS
 62
     3
100
AcDbLine
 39
96.0
 10
36.154747
 20
22.221402
 30
0.0
 11
38.029747
 21
22.221402
 31
0.0
  0
LINE
  5
7D0
100
AcDbEntity
  8
BORDER
  6
CONTINUOUS
 62
     3
100
AcDbLine
 39
96.0
 10
29.904747
 20
37.221402
 30
0.0
 11
28.029747
 21
37.221402
 31
0.0
  0
ARC
  5
7D1
100
AcDbEntity
  8
BORDER
  6
CONTINUOUS
 62
     3
100
AcDbCircle
 39
96.0
 10
33.029747
 20
37.221402
 30
0.0
 40
3.0
100
AcDbArc
 50
180.0
 51
0.0
  0
ARC
  5
7D2
100
AcDbEntity
  8
BORDER
  6
CONTINUOUS
 62
     3
100
AcDbCircle
 39
96.0
 10
33.029747
 20
22.221402
 30
0.0
 40
3.0
100
AcDbArc
 50
0.0
 51
180.0
  0
LINE
  5
7D3
100
AcDbEntity
  8
BORDER
  6
CONTINUOUS
 62
     3
100
AcDbLine
 39
96.0
 10
36.154747
 20
22.221402
 30
0.0
 11
36.154747
 21
37.221402
 31
0.0
  0
LINE
  5
7D4
100
AcDbEntity
  8
BORDER
  6
CONTINUOUS
 62
     3
100
AcDbLine
 39
96.0
 10
29.904747
 20
37.221402
 30
0.0
 11
29.904747
 21
22.221402
 31
0.0
  0
LINE
  5
7D5
100
AcDbEntity
  8
BORDER
  6
CONTINUOUS
 62
     3
100
AcDbLine
 39
96.0
 10
28.029747
 20
37.221402
 30
0.0
 11
28.029747
 21
22.221402
 31
0.0
  0
LINE
  5
7D6
100
AcDbEntity
  8
BORDER
  6
CONTINUOUS
 62
     3
100
AcDbLine
 39
96.0
 10
38.029747
 20
37.221402
 30
0.0
 11
36.154747
 21
37.221402
 31
0.0
  0
LINE
  5
7D7
100
AcDbEntity
  8
BORDER
  6
CONTINUOUS
 62
     3
100
AcDbLine
 39
96.0
 10
38.029747
 20
22.221402
 30
0.0
 11
38.029747
 21
37.221402
 31
0.0
  0
LINE
  5
7D8
100
AcDbEntity
  8
BORDER
  6
CONTINUOUS
 62
     3
100
AcDbLine
 39
96.0
 10
28.029747
 20
22.221402
 30
0.0
 11
29.904747
 21
22.221402
 31
0.0
  0
LINE
  5
7D9
100
AcDbEntity
  8
BORDER
  6
CONTINUOUS
 62
     3
100
AcDbLine
 39
96.0
 10
29.904747
 20
22.221402
 30
0.0
 11
28.029747
 21
22.221402
 31
0.0
  0
LINE
  5
7DA
100
AcDbEntity
  8
BORDER
  6
CONTINUOUS
 62
     3
100
AcDbLine
 39
96.0
 10
38.029747
 20
22.221402
 30
0.0
 11
36.154747
 21
22.221402
 31
0.0
  0
LINE
  5
7DB
100
AcDbEntity
  8
BORDER
  6
CONTINUOUS
 62
     7
100
AcDbLine
 39
96.0
 10
30.029747
 20
52.207142
 30
0.0
 11
36.029747
 21
52.207142
 31
0.0
  0
LINE
  5
7DC
100
AcDbEntity
  8
BORDER
  6
CONTINUOUS
 62
     1
100
AcDbLine
 39
96.0
 10
33.356647
 20
38.172932
 30
0.0
 11
33.392537
 21
38.224142
 31
0.0
  0
LINE
  5
7DD
100
AcDbEntity
  8
BORDER
  6
CONTINUOUS
 62
     1
100
AcDbLine
 39
96.0
 10
34.068557
 20
37.757102
 30
0.0
 11
34.079307
 21
37.818622
 31
0.0
  0
LINE
  5
7DE
100
AcDbEntity
  8
BORDER
  6
CONTINUOUS
 62
     1
100
AcDbLine
 39
96.0
 10
33.642537
 20
37.538292
 30
0.0
 11
33.701377
 21
37.559652
 31
0.0
  0
LINE
  5
7DF
100
AcDbEntity
  8
BORDER
  6
CONTINUOUS
 62
    10
100
AcDbLine
 39
96.0
 10
32.134967
 20
49.960742
 30
0.0
 11
32.121297
 21
49.883842
 31
0.0
  0
LINE
  5
7E0
100
AcDbEntity
  8
BORDER
  6
CONTINUOUS
 62
    10
100
AcDbLine
 39
96.0
 10
33.280227
 20
50.933542
 30
0.0
 11
33.235307
 21
50.869542
 31
0.0
  0
LINE
  5
7E1
100
AcDbEntity
  8
BORDER
  6
CONTINUOUS
 62
    10
100
AcDbLine
 39
96.0
 10
33.549027
 20
50.100842
 30
0.0
 11
33.475547
 21
50.074142
 31
0.0
  0
LINE
  5
7E2
100
AcDbEntity
  8
BORDER
  6
CONTINUOUS
 62
    10
100
AcDbLine
 39
96.0
 10
33.581747
 20
40.170142
 30
0.0
 11
33.570757
 21
40.108642
 31
0.0
  0
LINE
  5
7E3
100
AcDbEntity
  8
BORDER
  6
CONTINUOUS
 62
    10
100
AcDbLine
 39
96.0
 10
31.230177
 20
37.109152
 30
0.0
 11
31.185257
 21
37.045192
 31
0.0
  0
LINE
  5
7E4
100
AcDbEntity
  8
BORDER
  6
CONTINUOUS
 62
    10
100
AcDbLine
 39
96.0
 10
33.022667
 20
39.669032
 30
0.0
 11
32.977737
 21
39.605002
 31
0.0
  0
LINE
  5
7E5
100
AcDbEntity
  8
BORDER
  6
CONTINUOUS
 62
    10
100
AcDbLine
 39
96.0
 10
30.882527
 20
39.153522
 30
0.0
 11
30.809037
 21
39.126792
 31
0.0
  0
LINE
  5
7E6
100
AcDbEntity
  8
BORDER
  6
CONTINUOUS
 62
     3
100
AcDbLine
 39
96.0
 10
36.154747
 20
52.221442
 30
0.0
 11
38.029747
 21
52.221442
 31
0.0
  0
LINE
  5
7E7
100
AcDbEntity
  8
BORDER
  6
CONTINUOUS
 62
     3
100
AcDbLine
 39
96.0
 10
28.029747
 20
52.221442
 30
0.0
 11
29.904747
 21
52.221442
 31
0.0
  0
LINE
  5
7E8
100
AcDbEntity
  8
BORDER
  6
CONTINUOUS
 62
     2
100
AcDbLine
 39
96.0
 10
37.851517
 20
37.554342
 30
0.0
 11
37.851517
 21
37.554342
 31
0.0
  0
LINE
  5
7E9
100
AcDbEntity
  8
BORDER
  6
CONTINUOUS
 62
     2
100
AcDbLine
 39
96.0
 10
37.382767
 20
37.554342
 30
0.0
 11
37.382767
 21
37.554342
 31
0.0
  0
LINE
  5
7EA
100
AcDbEntity
  8
BORDER
  6
CONTINUOUS
 62
     2
100
AcDbLine
 39
96.0
 10
36.914017
 20
37.554342
 30
0.0
 11
36.914017
 21
37.554342
 31
0.0
  0
LINE
  5
7EB
100
AcDbEntity
  8
BORDER
  6
CONTINUOUS
 62
     2
100
AcDbLine
 39
96.0
 10
36.445267
 20
37.554342
 30
0.0
 11
36.445267
 21
37.554342
 31
0.0
  0
LINE
  5
7EC
100
AcDbEntity
  8
BORDER
  6
CONTINUOUS
 62
     2
100
AcDbLine
 39
96.0
 10
37.617147
 20
38.023092
 30
0.0
 11
37.617147
 21
38.023092
 31
0.0
  0
LINE
  5
7ED
100
AcDbEntity
  8
BORDER
  6
CONTINUOUS
 62
     2
100
AcDbLine
 39
96.0
 10
37.148397
 20
38.023092
 30
0.0
 11
37.148397
 21
38.023092
 31
0.0
  0
LINE
  5
7EE
100
AcDbEntity
  8
BORDER
  6
CONTINUOUS
 62
     2
100
AcDbLine
 39
96.0
 10
36.679647
 20
38.023092
 30
0.0
 11
36.679647
 21
38.023092
 31
0.0
  0
LINE
  5
7EF
100
AcDbEntity
  8
BORDER
  6
CONTINUOUS
 62
     2
100
AcDbLine
 39
96.0
 10
36.210897
 20
38.023092
 30
0.0
 11
36.210897
 21
38.023092
 31
0.0
  0
LINE
  5
7F0
100
AcDbEntity
  8
BORDER
  6
CONTINUOUS
 62
     2
100
AcDbLine
 39
96.0
 10
37.851517
 20
38.491842
 30
0.0
 11
37.851517
 21
38.491842
 31
0.0
  0
LINE
  5
7F1
100
AcDbEntity
  8
BORDER
  6
CONTINUOUS
 62
     2
100
AcDbLine
 39
96.0
 10
37.382767
 20
38.491842
 30
0.0
 11
37.382767
 21
38.491842
 31
0.0
  0
LINE
  5
7F2
100
AcDbEntity
  8
BORDER
  6
CONTINUOUS
 62
     2
100
AcDbLine
 39
96.0
 10
36.914017
 20
38.491842
 30
0.0
 11
36.914017
 21
38.491842
 31
0.0
  0
LINE
  5
7F3
100
AcDbEntity
  8
BORDER
  6
CONTINUOUS
 62
     2
100
AcDbLine
 39
96.0
 10
36.445267
 20
38.491842
 30
0.0
 11
36.445267
 21
38.491842
 31
0.0
  0
LINE
  5
7F4
100
AcDbEntity
  8
BORDER
  6
CONTINUOUS
 62
     2
100
AcDbLine
 39
96.0
 10
37.617147
 20
38.960592
 30
0.0
 11
37.617147
 21
38.960592
 31
0.0
  0
LINE
  5
7F5
100
AcDbEntity
  8
BORDER
  6
CONTINUOUS
 62
     2
100
AcDbLine
 39
96.0
 10
37.148397
 20
38.960592
 30
0.0
 11
37.148397
 21
38.960592
 31
0.0
  0
LINE
  5
7F6
100
AcDbEntity
  8
BORDER
  6
CONTINUOUS
 62
     2
100
AcDbLine
 39
96.0
 10
36.679647
 20
38.960592
 30
0.0
 11
36.679647
 21
38.960592
 31
0.0
  0
LINE
  5
7F7
100
AcDbEntity
  8
BORDER
  6
CONTINUOUS
 62
     2
100
AcDbLine
 39
96.0
 10
36.210897
 20
38.960592
 30
0.0
 11
36.210897
 21
38.960592
 31
0.0
  0
LINE
  5
7F8
100
AcDbEntity
  8
BORDER
  6
CONTINUOUS
 62
     2
100
AcDbLine
 39
96.0
 10
37.851517
 20
39.429342
 30
0.0
 11
37.851517
 21
39.429342
 31
0.0
  0
LINE
  5
7F9
100
AcDbEntity
  8
BORDER
  6
CONTINUOUS
 62
     2
100
AcDbLine
 39
96.0
 10
37.382767
 20
39.429342
 30
0.0
 11
37.382767
 21
39.429342
 31
0.0
  0
LINE
  5
7FA
100
AcDbEntity
  8
BORDER
  6
CONTINUOUS
 62
     2
100
AcDbLine
 39
96.0
 10
36.914017
 20
39.429342
 30
0.0
 11
36.914017
 21
39.429342
 31
0.0
  0
LINE
  5
7FB
100
AcDbEntity
  8
BORDER
  6
CONTINUOUS
 62
     2
100
AcDbLine
 39
96.0
 10
36.445267
 20
39.429342
 30
0.0
 11
36.445267
 21
39.429342
 31
0.0
  0
LINE
  5
7FC
100
AcDbEntity
  8
BORDER
  6
CONTINUOUS
 62
     2
100
AcDbLine
 39
96.0
 10
37.617147
 20
39.898092
 30
0.0
 11
37.617147
 21
39.898092
 31
0.0
  0
LINE
  5
7FD
100
AcDbEntity
  8
BORDER
  6
CONTINUOUS
 62
     2
100
AcDbLine
 39
96.0
 10
37.148397
 20
39.898092
 30
0.0
 11
37.148397
 21
39.898092
 31
0.0
  0
LINE
  5
7FE
100
AcDbEntity
  8
BORDER
  6
CONTINUOUS
 62
     2
100
AcDbLine
 39
96.0
 10
36.679647
 20
39.898092
 30
0.0
 11
36.679647
 21
39.898092
 31
0.0
  0
LINE
  5
7FF
100
AcDbEntity
  8
BORDER
  6
CONTINUOUS
 62
     2
100
AcDbLine
 39
96.0
 10
36.210897
 20
39.898092
 30
0.0
 11
36.210897
 21
39.898092
 31
0.0
  0
LINE
  5
800
100
AcDbEntity
  8
BORDER
  6
CONTINUOUS
 62
     2
100
AcDbLine
 39
96.0
 10
37.851517
 20
40.366842
 30
0.0
 11
37.851517
 21
40.366842
 31
0.0
  0
LINE
  5
801
100
AcDbEntity
  8
BORDER
  6
CONTINUOUS
 62
     2
100
AcDbLine
 39
96.0
 10
37.382767
 20
40.366842
 30
0.0
 11
37.382767
 21
40.366842
 31
0.0
  0
LINE
  5
802
100
AcDbEntity
  8
BORDER
  6
CONTINUOUS
 62
     2
100
AcDbLine
 39
96.0
 10
36.914017
 20
40.366842
 30
0.0
 11
36.914017
 21
40.366842
 31
0.0
  0
LINE
  5
803
100
AcDbEntity
  8
BORDER
  6
CONTINUOUS
 62
     2
100
AcDbLine
 39
96.0
 10
36.445267
 20
40.366842
 30
0.0
 11
36.445267
 21
40.366842
 31
0.0
  0
LINE
  5
804
100
AcDbEntity
  8
BORDER
  6
CONTINUOUS
 62
     2
100
AcDbLine
 39
96.0
 10
37.617147
 20
40.835642
 30
0.0
 11
37.617147
 21
40.835642
 31
0.0
  0
LINE
  5
805
100
AcDbEntity
  8
BORDER
  6
CONTINUOUS
 62
     2
100
AcDbLine
 39
96.0
 10
37.148397
 20
40.835642
 30
0.0
 11
37.148397
 21
40.835642
 31
0.0
  0
LINE
  5
806
100
AcDbEntity
  8
BORDER
  6
CONTINUOUS
 62
     2
100
AcDbLine
 39
96.0
 10
36.679647
 20
40.835642
 30
0.0
 11
36.679647
 21
40.835642
 31
0.0
  0
LINE
  5
807
100
AcDbEntity
  8
BORDER
  6
CONTINUOUS
 62
     2
100
AcDbLine
 39
96.0
 10
36.210897
 20
40.835642
 30
0.0
 11
36.210897
 21
40.835642
 31
0.0
  0
LINE
  5
808
100
AcDbEntity
  8
BORDER
  6
CONTINUOUS
 62
     2
100
AcDbLine
 39
96.0
 10
37.851517
 20
41.304342
 30
0.0
 11
37.851517
 21
41.304342
 31
0.0
  0
LINE
  5
809
100
AcDbEntity
  8
BORDER
  6
CONTINUOUS
 62
     2
100
AcDbLine
 39
96.0
 10
37.382767
 20
41.304342
 30
0.0
 11
37.382767
 21
41.304342
 31
0.0
  0
LINE
  5
80A
100
AcDbEntity
  8
BORDER
  6
CONTINUOUS
 62
     2
100
AcDbLine
 39
96.0
 10
36.914017
 20
41.304342
 30
0.0
 11
36.914017
 21
41.304342
 31
0.0
  0
LINE
  5
80B
100
AcDbEntity
  8
BORDER
  6
CONTINUOUS
 62
     2
100
AcDbLine
 39
96.0
 10
36.445267
 20
41.304342
 30
0.0
 11
36.445267
 21
41.304342
 31
0.0
  0
LINE
  5
80C
100
AcDbEntity
  8
BORDER
  6
CONTINUOUS
 62
     2
100
AcDbLine
 39
96.0
 10
37.617147
 20
41.773142
 30
0.0
 11
37.617147
 21
41.773142
 31
0.0
  0
LINE
  5
80D
100
AcDbEntity
  8
BORDER
  6
CONTINUOUS
 62
     2
100
AcDbLine
 39
96.0
 10
37.148397
 20
41.773142
 30
0.0
 11
37.148397
 21
41.773142
 31
0.0
  0
LINE
  5
80E
100
AcDbEntity
  8
BORDER
  6
CONTINUOUS
 62
     2
100
AcDbLine
 39
96.0
 10
36.679647
 20
41.773142
 30
0.0
 11
36.679647
 21
41.773142
 31
0.0
  0
LINE
  5
80F
100
AcDbEntity
  8
BORDER
  6
CONTINUOUS
 62
     2
100
AcDbLine
 39
96.0
 10
36.210897
 20
41.773142
 30
0.0
 11
36.210897
 21
41.773142
 31
0.0
  0
LINE
  5
810
100
AcDbEntity
  8
BORDER
  6
CONTINUOUS
 62
     2
100
AcDbLine
 39
96.0
 10
37.851517
 20
42.241842
 30
0.0
 11
37.851517
 21
42.241842
 31
0.0
  0
LINE
  5
811
100
AcDbEntity
  8
BORDER
  6
CONTINUOUS
 62
     2
100
AcDbLine
 39
96.0
 10
37.382767
 20
42.241842
 30
0.0
 11
37.382767
 21
42.241842
 31
0.0
  0
LINE
  5
812
100
AcDbEntity
  8
BORDER
  6
CONTINUOUS
 62
     2
100
AcDbLine
 39
96.0
 10
36.914017
 20
42.241842
 30
0.0
 11
36.914017
 21
42.241842
 31
0.0
  0
LINE
  5
813
100
AcDbEntity
  8
BORDER
  6
CONTINUOUS
 62
     2
100
AcDbLine
 39
96.0
 10
36.445267
 20
42.241842
 30
0.0
 11
36.445267
 21
42.241842
 31
0.0
  0
LINE
  5
814
100
AcDbEntity
  8
BORDER
  6
CONTINUOUS
 62
     2
100
AcDbLine
 39
96.0
 10
37.617147
 20
42.710642
 30
0.0
 11
37.617147
 21
42.710642
 31
0.0
  0
LINE
  5
815
100
AcDbEntity
  8
BORDER
  6
CONTINUOUS
 62
     2
100
AcDbLine
 39
96.0
 10
37.148397
 20
42.710642
 30
0.0
 11
37.148397
 21
42.710642
 31
0.0
  0
LINE
  5
816
100
AcDbEntity
  8
BORDER
  6
CONTINUOUS
 62
     2
100
AcDbLine
 39
96.0
 10
36.679647
 20
42.710642
 30
0.0
 11
36.679647
 21
42.710642
 31
0.0
  0
LINE
  5
817
100
AcDbEntity
  8
BORDER
  6
CONTINUOUS
 62
     2
100
AcDbLine
 39
96.0
 10
36.210897
 20
42.710642
 30
0.0
 11
36.210897
 21
42.710642
 31
0.0
  0
LINE
  5
818
100
AcDbEntity
  8
BORDER
  6
CONTINUOUS
 62
     2
100
AcDbLine
 39
96.0
 10
37.851517
 20
43.179342
 30
0.0
 11
37.851517
 21
43.179342
 31
0.0
  0
LINE
  5
819
100
AcDbEntity
  8
BORDER
  6
CONTINUOUS
 62
     2
100
AcDbLine
 39
96.0
 10
37.382767
 20
43.179342
 30
0.0
 11
37.382767
 21
43.179342
 31
0.0
  0
LINE
  5
81A
100
AcDbEntity
  8
BORDER
  6
CONTINUOUS
 62
     2
100
AcDbLine
 39
96.0
 10
36.914017
 20
43.179342
 30
0.0
 11
36.914017
 21
43.179342
 31
0.0
  0
LINE
  5
81B
100
AcDbEntity
  8
BORDER
  6
CONTINUOUS
 62
     2
100
AcDbLine
 39
96.0
 10
36.445267
 20
43.179342
 30
0.0
 11
36.445267
 21
43.179342
 31
0.0
  0
LINE
  5
81C
100
AcDbEntity
  8
BORDER
  6
CONTINUOUS
 62
     2
100
AcDbLine
 39
96.0
 10
37.617147
 20
43.648142
 30
0.0
 11
37.617147
 21
43.648142
 31
0.0
  0
LINE
  5
81D
100
AcDbEntity
  8
BORDER
  6
CONTINUOUS
 62
     2
100
AcDbLine
 39
96.0
 10
37.148397
 20
43.648142
 30
0.0
 11
37.148397
 21
43.648142
 31
0.0
  0
LINE
  5
81E
100
AcDbEntity
  8
BORDER
  6
CONTINUOUS
 62
     2
100
AcDbLine
 39
96.0
 10
36.679647
 20
43.648142
 30
0.0
 11
36.679647
 21
43.648142
 31
0.0
  0
LINE
  5
81F
100
AcDbEntity
  8
BORDER
  6
CONTINUOUS
 62
     2
100
AcDbLine
 39
96.0
 10
36.210897
 20
43.648142
 30
0.0
 11
36.210897
 21
43.648142
 31
0.0
  0
LINE
  5
820
100
AcDbEntity
  8
BORDER
  6
CONTINUOUS
 62
     2
100
AcDbLine
 39
96.0
 10
37.617147
 20
47.398142
 30
0.0
 11
37.617147
 21
47.398142
 31
0.0
  0
LINE
  5
821
100
AcDbEntity
  8
BORDER
  6
CONTINUOUS
 62
     2
100
AcDbLine
 39
96.0
 10
37.148397
 20
47.398142
 30
0.0
 11
37.148397
 21
47.398142
 31
0.0
  0
LINE
  5
822
100
AcDbEntity
  8
BORDER
  6
CONTINUOUS
 62
     2
100
AcDbLine
 39
96.0
 10
36.679647
 20
47.398142
 30
0.0
 11
36.679647
 21
47.398142
 31
0.0
  0
LINE
  5
823
100
AcDbEntity
  8
BORDER
  6
CONTINUOUS
 62
     2
100
AcDbLine
 39
96.0
 10
36.210897
 20
47.398142
 30
0.0
 11
36.210897
 21
47.398142
 31
0.0
  0
LINE
  5
824
100
AcDbEntity
  8
BORDER
  6
CONTINUOUS
 62
     2
100
AcDbLine
 39
96.0
 10
37.851517
 20
47.866842
 30
0.0
 11
37.851517
 21
47.866842
 31
0.0
  0
LINE
  5
825
100
AcDbEntity
  8
BORDER
  6
CONTINUOUS
 62
     2
100
AcDbLine
 39
96.0
 10
37.382767
 20
47.866842
 30
0.0
 11
37.382767
 21
47.866842
 31
0.0
  0
LINE
  5
826
100
AcDbEntity
  8
BORDER
  6
CONTINUOUS
 62
     2
100
AcDbLine
 39
96.0
 10
36.914017
 20
47.866842
 30
0.0
 11
36.914017
 21
47.866842
 31
0.0
  0
LINE
  5
827
100
AcDbEntity
  8
BORDER
  6
CONTINUOUS
 62
     2
100
AcDbLine
 39
96.0
 10
36.445267
 20
47.866842
 30
0.0
 11
36.445267
 21
47.866842
 31
0.0
  0
LINE
  5
828
100
AcDbEntity
  8
BORDER
  6
CONTINUOUS
 62
     2
100
AcDbLine
 39
96.0
 10
37.617147
 20
48.335642
 30
0.0
 11
37.617147
 21
48.335642
 31
0.0
  0
LINE
  5
829
100
AcDbEntity
  8
BORDER
  6
CONTINUOUS
 62
     2
100
AcDbLine
 39
96.0
 10
37.148397
 20
48.335642
 30
0.0
 11
37.148397
 21
48.335642
 31
0.0
  0
LINE
  5
82A
100
AcDbEntity
  8
BORDER
  6
CONTINUOUS
 62
     2
100
AcDbLine
 39
96.0
 10
36.679647
 20
48.335642
 30
0.0
 11
36.679647
 21
48.335642
 31
0.0
  0
LINE
  5
82B
100
AcDbEntity
  8
BORDER
  6
CONTINUOUS
 62
     2
100
AcDbLine
 39
96.0
 10
36.210897
 20
48.335642
 30
0.0
 11
36.210897
 21
48.335642
 31
0.0
  0
LINE
  5
82C
100
AcDbEntity
  8
BORDER
  6
CONTINUOUS
 62
     2
100
AcDbLine
 39
96.0
 10
37.851517
 20
48.804342
 30
0.0
 11
37.851517
 21
48.804342
 31
0.0
  0
LINE
  5
82D
100
AcDbEntity
  8
BORDER
  6
CONTINUOUS
 62
     2
100
AcDbLine
 39
96.0
 10
37.382767
 20
48.804342
 30
0.0
 11
37.382767
 21
48.804342
 31
0.0
  0
LINE
  5
82E
100
AcDbEntity
  8
BORDER
  6
CONTINUOUS
 62
     2
100
AcDbLine
 39
96.0
 10
36.914017
 20
48.804342
 30
0.0
 11
36.914017
 21
48.804342
 31
0.0
  0
LINE
  5
82F
100
AcDbEntity
  8
BORDER
  6
CONTINUOUS
 62
     2
100
AcDbLine
 39
96.0
 10
36.445267
 20
48.804342
 30
0.0
 11
36.445267
 21
48.804342
 31
0.0
  0
LINE
  5
830
100
AcDbEntity
  8
BORDER
  6
CONTINUOUS
 62
     2
100
AcDbLine
 39
96.0
 10
37.617147
 20
49.273142
 30
0.0
 11
37.617147
 21
49.273142
 31
0.0
  0
LINE
  5
831
100
AcDbEntity
  8
BORDER
  6
CONTINUOUS
 62
     2
100
AcDbLine
 39
96.0
 10
37.148397
 20
49.273142
 30
0.0
 11
37.148397
 21
49.273142
 31
0.0
  0
LINE
  5
832
100
AcDbEntity
  8
BORDER
  6
CONTINUOUS
 62
     2
100
AcDbLine
 39
96.0
 10
36.679647
 20
49.273142
 30
0.0
 11
36.679647
 21
49.273142
 31
0.0
  0
LINE
  5
833
100
AcDbEntity
  8
BORDER
  6
CONTINUOUS
 62
     2
100
AcDbLine
 39
96.0
 10
36.210897
 20
49.273142
 30
0.0
 11
36.210897
 21
49.273142
 31
0.0
  0
LINE
  5
834
100
AcDbEntity
  8
BORDER
  6
CONTINUOUS
 62
     2
100
AcDbLine
 39
96.0
 10
37.851517
 20
49.741842
 30
0.0
 11
37.851517
 21
49.741842
 31
0.0
  0
LINE
  5
835
100
AcDbEntity
  8
BORDER
  6
CONTINUOUS
 62
     2
100
AcDbLine
 39
96.0
 10
37.382767
 20
49.741842
 30
0.0
 11
37.382767
 21
49.741842
 31
0.0
  0
LINE
  5
836
100
AcDbEntity
  8
BORDER
  6
CONTINUOUS
 62
     2
100
AcDbLine
 39
96.0
 10
36.914017
 20
49.741842
 30
0.0
 11
36.914017
 21
49.741842
 31
0.0
  0
LINE
  5
837
100
AcDbEntity
  8
BORDER
  6
CONTINUOUS
 62
     2
100
AcDbLine
 39
96.0
 10
36.445267
 20
49.741842
 30
0.0
 11
36.445267
 21
49.741842
 31
0.0
  0
LINE
  5
838
100
AcDbEntity
  8
BORDER
  6
CONTINUOUS
 62
     2
100
AcDbLine
 39
96.0
 10
37.617147
 20
50.210642
 30
0.0
 11
37.617147
 21
50.210642
 31
0.0
  0
LINE
  5
839
100
AcDbEntity
  8
BORDER
  6
CONTINUOUS
 62
     2
100
AcDbLine
 39
96.0
 10
37.148397
 20
50.210642
 30
0.0
 11
37.148397
 21
50.210642
 31
0.0
  0
LINE
  5
83A
100
AcDbEntity
  8
BORDER
  6
CONTINUOUS
 62
     2
100
AcDbLine
 39
96.0
 10
36.679647
 20
50.210642
 30
0.0
 11
36.679647
 21
50.210642
 31
0.0
  0
LINE
  5
83B
100
AcDbEntity
  8
BORDER
  6
CONTINUOUS
 62
     2
100
AcDbLine
 39
96.0
 10
36.210897
 20
50.210642
 30
0.0
 11
36.210897
 21
50.210642
 31
0.0
  0
LINE
  5
83C
100
AcDbEntity
  8
BORDER
  6
CONTINUOUS
 62
     2
100
AcDbLine
 39
96.0
 10
37.851517
 20
50.679342
 30
0.0
 11
37.851517
 21
50.679342
 31
0.0
  0
LINE
  5
83D
100
AcDbEntity
  8
BORDER
  6
CONTINUOUS
 62
     2
100
AcDbLine
 39
96.0
 10
37.382767
 20
50.679342
 30
0.0
 11
37.382767
 21
50.679342
 31
0.0
  0
LINE
  5
83E
100
AcDbEntity
  8
BORDER
  6
CONTINUOUS
 62
     2
100
AcDbLine
 39
96.0
 10
36.914017
 20
50.679342
 30
0.0
 11
36.914017
 21
50.679342
 31
0.0
  0
LINE
  5
83F
100
AcDbEntity
  8
BORDER
  6
CONTINUOUS
 62
     2
100
AcDbLine
 39
96.0
 10
36.445267
 20
50.679342
 30
0.0
 11
36.445267
 21
50.679342
 31
0.0
  0
LINE
  5
840
100
AcDbEntity
  8
BORDER
  6
CONTINUOUS
 62
     2
100
AcDbLine
 39
96.0
 10
37.617147
 20
51.148142
 30
0.0
 11
37.617147
 21
51.148142
 31
0.0
  0
LINE
  5
841
100
AcDbEntity
  8
BORDER
  6
CONTINUOUS
 62
     2
100
AcDbLine
 39
96.0
 10
37.148397
 20
51.148142
 30
0.0
 11
37.148397
 21
51.148142
 31
0.0
  0
LINE
  5
842
100
AcDbEntity
  8
BORDER
  6
CONTINUOUS
 62
     2
100
AcDbLine
 39
96.0
 10
36.679647
 20
51.148142
 30
0.0
 11
36.679647
 21
51.148142
 31
0.0
  0
LINE
  5
843
100
AcDbEntity
  8
BORDER
  6
CONTINUOUS
 62
     2
100
AcDbLine
 39
96.0
 10
36.210897
 20
51.148142
 30
0.0
 11
36.210897
 21
51.148142
 31
0.0
  0
LINE
  5
844
100
AcDbEntity
  8
BORDER
  6
CONTINUOUS
 62
     2
100
AcDbLine
 39
96.0
 10
37.851517
 20
51.616842
 30
0.0
 11
37.851517
 21
51.616842
 31
0.0
  0
LINE
  5
845
100
AcDbEntity
  8
BORDER
  6
CONTINUOUS
 62
     2
100
AcDbLine
 39
96.0
 10
37.382767
 20
51.616842
 30
0.0
 11
37.382767
 21
51.616842
 31
0.0
  0
LINE
  5
846
100
AcDbEntity
  8
BORDER
  6
CONTINUOUS
 62
     2
100
AcDbLine
 39
96.0
 10
36.914017
 20
51.616842
 30
0.0
 11
36.914017
 21
51.616842
 31
0.0
  0
LINE
  5
847
100
AcDbEntity
  8
BORDER
  6
CONTINUOUS
 62
     2
100
AcDbLine
 39
96.0
 10
36.445267
 20
51.616842
 30
0.0
 11
36.445267
 21
51.616842
 31
0.0
  0
LINE
  5
848
100
AcDbEntity
  8
BORDER
  6
CONTINUOUS
 62
     2
100
AcDbLine
 39
96.0
 10
37.617147
 20
52.085642
 30
0.0
 11
37.617147
 21
52.085642
 31
0.0
  0
LINE
  5
849
100
AcDbEntity
  8
BORDER
  6
CONTINUOUS
 62
     2
100
AcDbLine
 39
96.0
 10
37.148397
 20
52.085642
 30
0.0
 11
37.148397
 21
52.085642
 31
0.0
  0
LINE
  5
84A
100
AcDbEntity
  8
BORDER
  6
CONTINUOUS
 62
     2
100
AcDbLine
 39
96.0
 10
36.679647
 20
52.085642
 30
0.0
 11
36.679647
 21
52.085642
 31
0.0
  0
LINE
  5
84B
100
AcDbEntity
  8
BORDER
  6
CONTINUOUS
 62
     2
100
AcDbLine
 39
96.0
 10
36.210897
 20
52.085642
 30
0.0
 11
36.210897
 21
52.085642
 31
0.0
  0
LINE
  5
84C
100
AcDbEntity
  8
BORDER
  6
CONTINUOUS
 62
     2
100
AcDbLine
 39
96.0
 10
29.882767
 20
37.554342
 30
0.0
 11
29.882767
 21
37.554342
 31
0.0
  0
LINE
  5
84D
100
AcDbEntity
  8
BORDER
  6
CONTINUOUS
 62
     2
100
AcDbLine
 39
96.0
 10
29.414017
 20
37.554342
 30
0.0
 11
29.414017
 21
37.554342
 31
0.0
  0
LINE
  5
84E
100
AcDbEntity
  8
BORDER
  6
CONTINUOUS
 62
     2
100
AcDbLine
 39
96.0
 10
28.945267
 20
37.554342
 30
0.0
 11
28.945267
 21
37.554342
 31
0.0
  0
LINE
  5
84F
100
AcDbEntity
  8
BORDER
  6
CONTINUOUS
 62
     2
100
AcDbLine
 39
96.0
 10
28.476517
 20
37.554342
 30
0.0
 11
28.476517
 21
37.554342
 31
0.0
  0
LINE
  5
850
100
AcDbEntity
  8
BORDER
  6
CONTINUOUS
 62
     2
100
AcDbLine
 39
96.0
 10
29.648397
 20
38.023092
 30
0.0
 11
29.648397
 21
38.023092
 31
0.0
  0
LINE
  5
851
100
AcDbEntity
  8
BORDER
  6
CONTINUOUS
 62
     2
100
AcDbLine
 39
96.0
 10
29.179647
 20
38.023092
 30
0.0
 11
29.179647
 21
38.023092
 31
0.0
  0
LINE
  5
852
100
AcDbEntity
  8
BORDER
  6
CONTINUOUS
 62
     2
100
AcDbLine
 39
96.0
 10
28.710897
 20
38.023092
 30
0.0
 11
28.710897
 21
38.023092
 31
0.0
  0
LINE
  5
853
100
AcDbEntity
  8
BORDER
  6
CONTINUOUS
 62
     2
100
AcDbLine
 39
96.0
 10
28.242147
 20
38.023092
 30
0.0
 11
28.242147
 21
38.023092
 31
0.0
  0
LINE
  5
854
100
AcDbEntity
  8
BORDER
  6
CONTINUOUS
 62
     2
100
AcDbLine
 39
96.0
 10
29.882767
 20
38.491842
 30
0.0
 11
29.882767
 21
38.491842
 31
0.0
  0
LINE
  5
855
100
AcDbEntity
  8
BORDER
  6
CONTINUOUS
 62
     2
100
AcDbLine
 39
96.0
 10
29.414017
 20
38.491842
 30
0.0
 11
29.414017
 21
38.491842
 31
0.0
  0
LINE
  5
856
100
AcDbEntity
  8
BORDER
  6
CONTINUOUS
 62
     2
100
AcDbLine
 39
96.0
 10
28.945267
 20
38.491842
 30
0.0
 11
28.945267
 21
38.491842
 31
0.0
  0
LINE
  5
857
100
AcDbEntity
  8
BORDER
  6
CONTINUOUS
 62
     2
100
AcDbLine
 39
96.0
 10
28.476517
 20
38.491842
 30
0.0
 11
28.476517
 21
38.491842
 31
0.0
  0
LINE
  5
858
100
AcDbEntity
  8
BORDER
  6
CONTINUOUS
 62
     2
100
AcDbLine
 39
96.0
 10
29.648397
 20
38.960592
 30
0.0
 11
29.648397
 21
38.960592
 31
0.0
  0
LINE
  5
859
100
AcDbEntity
  8
BORDER
  6
CONTINUOUS
 62
     2
100
AcDbLine
 39
96.0
 10
29.179647
 20
38.960592
 30
0.0
 11
29.179647
 21
38.960592
 31
0.0
  0
LINE
  5
85A
100
AcDbEntity
  8
BORDER
  6
CONTINUOUS
 62
     2
100
AcDbLine
 39
96.0
 10
28.710897
 20
38.960592
 30
0.0
 11
28.710897
 21
38.960592
 31
0.0
  0
LINE
  5
85B
100
AcDbEntity
  8
BORDER
  6
CONTINUOUS
 62
     2
100
AcDbLine
 39
96.0
 10
28.242147
 20
38.960592
 30
0.0
 11
28.242147
 21
38.960592
 31
0.0
  0
LINE
  5
85C
100
AcDbEntity
  8
BORDER
  6
CONTINUOUS
 62
     2
100
AcDbLine
 39
96.0
 10
29.882767
 20
39.429342
 30
0.0
 11
29.882767
 21
39.429342
 31
0.0
  0
LINE
  5
85D
100
AcDbEntity
  8
BORDER
  6
CONTINUOUS
 62
     2
100
AcDbLine
 39
96.0
 10
29.414017
 20
39.429342
 30
0.0
 11
29.414017
 21
39.429342
 31
0.0
  0
LINE
  5
85E
100
AcDbEntity
  8
BORDER
  6
CONTINUOUS
 62
     2
100
AcDbLine
 39
96.0
 10
28.945267
 20
39.429342
 30
0.0
 11
28.945267
 21
39.429342
 31
0.0
  0
LINE
  5
85F
100
AcDbEntity
  8
BORDER
  6
CONTINUOUS
 62
     2
100
AcDbLine
 39
96.0
 10
28.476517
 20
39.429342
 30
0.0
 11
28.476517
 21
39.429342
 31
0.0
  0
LINE
  5
860
100
AcDbEntity
  8
BORDER
  6
CONTINUOUS
 62
     2
100
AcDbLine
 39
96.0
 10
29.648397
 20
39.898092
 30
0.0
 11
29.648397
 21
39.898092
 31
0.0
  0
LINE
  5
861
100
AcDbEntity
  8
BORDER
  6
CONTINUOUS
 62
     2
100
AcDbLine
 39
96.0
 10
29.179647
 20
39.898092
 30
0.0
 11
29.179647
 21
39.898092
 31
0.0
  0
LINE
  5
862
100
AcDbEntity
  8
BORDER
  6
CONTINUOUS
 62
     2
100
AcDbLine
 39
96.0
 10
28.710897
 20
39.898092
 30
0.0
 11
28.710897
 21
39.898092
 31
0.0
  0
LINE
  5
863
100
AcDbEntity
  8
BORDER
  6
CONTINUOUS
 62
     2
100
AcDbLine
 39
96.0
 10
28.242147
 20
39.898092
 30
0.0
 11
28.242147
 21
39.898092
 31
0.0
  0
LINE
  5
864
100
AcDbEntity
  8
BORDER
  6
CONTINUOUS
 62
     2
100
AcDbLine
 39
96.0
 10
29.882767
 20
40.366842
 30
0.0
 11
29.882767
 21
40.366842
 31
0.0
  0
LINE
  5
865
100
AcDbEntity
  8
BORDER
  6
CONTINUOUS
 62
     2
100
AcDbLine
 39
96.0
 10
29.414017
 20
40.366842
 30
0.0
 11
29.414017
 21
40.366842
 31
0.0
  0
LINE
  5
866
100
AcDbEntity
  8
BORDER
  6
CONTINUOUS
 62
     2
100
AcDbLine
 39
96.0
 10
28.945267
 20
40.366842
 30
0.0
 11
28.945267
 21
40.366842
 31
0.0
  0
LINE
  5
867
100
AcDbEntity
  8
BORDER
  6
CONTINUOUS
 62
     2
100
AcDbLine
 39
96.0
 10
28.476517
 20
40.366842
 30
0.0
 11
28.476517
 21
40.366842
 31
0.0
  0
LINE
  5
868
100
AcDbEntity
  8
BORDER
  6
CONTINUOUS
 62
     2
100
AcDbLine
 39
96.0
 10
29.648397
 20
40.835642
 30
0.0
 11
29.648397
 21
40.835642
 31
0.0
  0
LINE
  5
869
100
AcDbEntity
  8
BORDER
  6
CONTINUOUS
 62
     2
100
AcDbLine
 39
96.0
 10
29.179647
 20
40.835642
 30
0.0
 11
29.179647
 21
40.835642
 31
0.0
  0
LINE
  5
86A
100
AcDbEntity
  8
BORDER
  6
CONTINUOUS
 62
     2
100
AcDbLine
 39
96.0
 10
28.710897
 20
40.835642
 30
0.0
 11
28.710897
 21
40.835642
 31
0.0
  0
LINE
  5
86B
100
AcDbEntity
  8
BORDER
  6
CONTINUOUS
 62
     2
100
AcDbLine
 39
96.0
 10
28.242147
 20
40.835642
 30
0.0
 11
28.242147
 21
40.835642
 31
0.0
  0
LINE
  5
86C
100
AcDbEntity
  8
BORDER
  6
CONTINUOUS
 62
     2
100
AcDbLine
 39
96.0
 10
29.882767
 20
41.304342
 30
0.0
 11
29.882767
 21
41.304342
 31
0.0
  0
LINE
  5
86D
100
AcDbEntity
  8
BORDER
  6
CONTINUOUS
 62
     2
100
AcDbLine
 39
96.0
 10
29.414017
 20
41.304342
 30
0.0
 11
29.414017
 21
41.304342
 31
0.0
  0
LINE
  5
86E
100
AcDbEntity
  8
BORDER
  6
CONTINUOUS
 62
     2
100
AcDbLine
 39
96.0
 10
28.945267
 20
41.304342
 30
0.0
 11
28.945267
 21
41.304342
 31
0.0
  0
LINE
  5
86F
100
AcDbEntity
  8
BORDER
  6
CONTINUOUS
 62
     2
100
AcDbLine
 39
96.0
 10
28.476517
 20
41.304342
 30
0.0
 11
28.476517
 21
41.304342
 31
0.0
  0
LINE
  5
870
100
AcDbEntity
  8
BORDER
  6
CONTINUOUS
 62
     2
100
AcDbLine
 39
96.0
 10
29.648397
 20
41.773142
 30
0.0
 11
29.648397
 21
41.773142
 31
0.0
  0
LINE
  5
871
100
AcDbEntity
  8
BORDER
  6
CONTINUOUS
 62
     2
100
AcDbLine
 39
96.0
 10
29.179647
 20
41.773142
 30
0.0
 11
29.179647
 21
41.773142
 31
0.0
  0
LINE
  5
872
100
AcDbEntity
  8
BORDER
  6
CONTINUOUS
 62
     2
100
AcDbLine
 39
96.0
 10
28.710897
 20
41.773142
 30
0.0
 11
28.710897
 21
41.773142
 31
0.0
  0
LINE
  5
873
100
AcDbEntity
  8
BORDER
  6
CONTINUOUS
 62
     2
100
AcDbLine
 39
96.0
 10
28.242147
 20
41.773142
 30
0.0
 11
28.242147
 21
41.773142
 31
0.0
  0
LINE
  5
874
100
AcDbEntity
  8
BORDER
  6
CONTINUOUS
 62
     2
100
AcDbLine
 39
96.0
 10
29.882767
 20
42.241842
 30
0.0
 11
29.882767
 21
42.241842
 31
0.0
  0
LINE
  5
875
100
AcDbEntity
  8
BORDER
  6
CONTINUOUS
 62
     2
100
AcDbLine
 39
96.0
 10
29.414017
 20
42.241842
 30
0.0
 11
29.414017
 21
42.241842
 31
0.0
  0
LINE
  5
876
100
AcDbEntity
  8
BORDER
  6
CONTINUOUS
 62
     2
100
AcDbLine
 39
96.0
 10
28.945267
 20
42.241842
 30
0.0
 11
28.945267
 21
42.241842
 31
0.0
  0
LINE
  5
877
100
AcDbEntity
  8
BORDER
  6
CONTINUOUS
 62
     2
100
AcDbLine
 39
96.0
 10
28.476517
 20
42.241842
 30
0.0
 11
28.476517
 21
42.241842
 31
0.0
  0
LINE
  5
878
100
AcDbEntity
  8
BORDER
  6
CONTINUOUS
 62
     2
100
AcDbLine
 39
96.0
 10
29.648397
 20
42.710642
 30
0.0
 11
29.648397
 21
42.710642
 31
0.0
  0
LINE
  5
879
100
AcDbEntity
  8
BORDER
  6
CONTINUOUS
 62
     2
100
AcDbLine
 39
96.0
 10
29.179647
 20
42.710642
 30
0.0
 11
29.179647
 21
42.710642
 31
0.0
  0
LINE
  5
87A
100
AcDbEntity
  8
BORDER
  6
CONTINUOUS
 62
     2
100
AcDbLine
 39
96.0
 10
28.710897
 20
42.710642
 30
0.0
 11
28.710897
 21
42.710642
 31
0.0
  0
LINE
  5
87B
100
AcDbEntity
  8
BORDER
  6
CONTINUOUS
 62
     2
100
AcDbLine
 39
96.0
 10
28.242147
 20
42.710642
 30
0.0
 11
28.242147
 21
42.710642
 31
0.0
  0
LINE
  5
87C
100
AcDbEntity
  8
BORDER
  6
CONTINUOUS
 62
     2
100
AcDbLine
 39
96.0
 10
29.882767
 20
43.179342
 30
0.0
 11
29.882767
 21
43.179342
 31
0.0
  0
LINE
  5
87D
100
AcDbEntity
  8
BORDER
  6
CONTINUOUS
 62
     2
100
AcDbLine
 39
96.0
 10
29.414017
 20
43.179342
 30
0.0
 11
29.414017
 21
43.179342
 31
0.0
  0
LINE
  5
87E
100
AcDbEntity
  8
BORDER
  6
CONTINUOUS
 62
     2
100
AcDbLine
 39
96.0
 10
28.945267
 20
43.179342
 30
0.0
 11
28.945267
 21
43.179342
 31
0.0
  0
LINE
  5
87F
100
AcDbEntity
  8
BORDER
  6
CONTINUOUS
 62
     2
100
AcDbLine
 39
96.0
 10
28.476517
 20
43.179342
 30
0.0
 11
28.476517
 21
43.179342
 31
0.0
  0
LINE
  5
880
100
AcDbEntity
  8
BORDER
  6
CONTINUOUS
 62
     2
100
AcDbLine
 39
96.0
 10
29.648397
 20
43.648142
 30
0.0
 11
29.648397
 21
43.648142
 31
0.0
  0
LINE
  5
881
100
AcDbEntity
  8
BORDER
  6
CONTINUOUS
 62
     2
100
AcDbLine
 39
96.0
 10
29.179647
 20
43.648142
 30
0.0
 11
29.179647
 21
43.648142
 31
0.0
  0
LINE
  5
882
100
AcDbEntity
  8
BORDER
  6
CONTINUOUS
 62
     2
100
AcDbLine
 39
96.0
 10
28.710897
 20
43.648142
 30
0.0
 11
28.710897
 21
43.648142
 31
0.0
  0
LINE
  5
883
100
AcDbEntity
  8
BORDER
  6
CONTINUOUS
 62
     2
100
AcDbLine
 39
96.0
 10
28.242147
 20
43.648142
 30
0.0
 11
28.242147
 21
43.648142
 31
0.0
  0
LINE
  5
884
100
AcDbEntity
  8
BORDER
  6
CONTINUOUS
 62
     2
100
AcDbLine
 39
96.0
 10
29.882767
 20
44.116842
 30
0.0
 11
29.882767
 21
44.116842
 31
0.0
  0
LINE
  5
885
100
AcDbEntity
  8
BORDER
  6
CONTINUOUS
 62
     2
100
AcDbLine
 39
96.0
 10
29.414017
 20
44.116842
 30
0.0
 11
29.414017
 21
44.116842
 31
0.0
  0
LINE
  5
886
100
AcDbEntity
  8
BORDER
  6
CONTINUOUS
 62
     2
100
AcDbLine
 39
96.0
 10
28.945267
 20
44.116842
 30
0.0
 11
28.945267
 21
44.116842
 31
0.0
  0
LINE
  5
887
100
AcDbEntity
  8
BORDER
  6
CONTINUOUS
 62
     2
100
AcDbLine
 39
96.0
 10
28.476517
 20
44.116842
 30
0.0
 11
28.476517
 21
44.116842
 31
0.0
  0
LINE
  5
888
100
AcDbEntity
  8
BORDER
  6
CONTINUOUS
 62
     2
100
AcDbLine
 39
96.0
 10
29.648397
 20
44.585642
 30
0.0
 11
29.648397
 21
44.585642
 31
0.0
  0
LINE
  5
889
100
AcDbEntity
  8
BORDER
  6
CONTINUOUS
 62
     2
100
AcDbLine
 39
96.0
 10
29.179647
 20
44.585642
 30
0.0
 11
29.179647
 21
44.585642
 31
0.0
  0
LINE
  5
88A
100
AcDbEntity
  8
BORDER
  6
CONTINUOUS
 62
     2
100
AcDbLine
 39
96.0
 10
28.710897
 20
44.585642
 30
0.0
 11
28.710897
 21
44.585642
 31
0.0
  0
LINE
  5
88B
100
AcDbEntity
  8
BORDER
  6
CONTINUOUS
 62
     2
100
AcDbLine
 39
96.0
 10
28.242147
 20
44.585642
 30
0.0
 11
28.242147
 21
44.585642
 31
0.0
  0
LINE
  5
88C
100
AcDbEntity
  8
BORDER
  6
CONTINUOUS
 62
     2
100
AcDbLine
 39
96.0
 10
29.882767
 20
45.054342
 30
0.0
 11
29.882767
 21
45.054342
 31
0.0
  0
LINE
  5
88D
100
AcDbEntity
  8
BORDER
  6
CONTINUOUS
 62
     2
100
AcDbLine
 39
96.0
 10
29.414017
 20
45.054342
 30
0.0
 11
29.414017
 21
45.054342
 31
0.0
  0
LINE
  5
88E
100
AcDbEntity
  8
BORDER
  6
CONTINUOUS
 62
     2
100
AcDbLine
 39
96.0
 10
28.945267
 20
45.054342
 30
0.0
 11
28.945267
 21
45.054342
 31
0.0
  0
LINE
  5
88F
100
AcDbEntity
  8
BORDER
  6
CONTINUOUS
 62
     2
100
AcDbLine
 39
96.0
 10
28.476517
 20
45.054342
 30
0.0
 11
28.476517
 21
45.054342
 31
0.0
  0
LINE
  5
890
100
AcDbEntity
  8
BORDER
  6
CONTINUOUS
 62
     2
100
AcDbLine
 39
96.0
 10
29.648397
 20
45.523142
 30
0.0
 11
29.648397
 21
45.523142
 31
0.0
  0
LINE
  5
891
100
AcDbEntity
  8
BORDER
  6
CONTINUOUS
 62
     2
100
AcDbLine
 39
96.0
 10
29.179647
 20
45.523142
 30
0.0
 11
29.179647
 21
45.523142
 31
0.0
  0
LINE
  5
892
100
AcDbEntity
  8
BORDER
  6
CONTINUOUS
 62
     2
100
AcDbLine
 39
96.0
 10
28.710897
 20
45.523142
 30
0.0
 11
28.710897
 21
45.523142
 31
0.0
  0
LINE
  5
893
100
AcDbEntity
  8
BORDER
  6
CONTINUOUS
 62
     2
100
AcDbLine
 39
96.0
 10
28.242147
 20
45.523142
 30
0.0
 11
28.242147
 21
45.523142
 31
0.0
  0
LINE
  5
894
100
AcDbEntity
  8
BORDER
  6
CONTINUOUS
 62
     2
100
AcDbLine
 39
96.0
 10
29.882767
 20
45.991842
 30
0.0
 11
29.882767
 21
45.991842
 31
0.0
  0
LINE
  5
895
100
AcDbEntity
  8
BORDER
  6
CONTINUOUS
 62
     2
100
AcDbLine
 39
96.0
 10
29.414017
 20
45.991842
 30
0.0
 11
29.414017
 21
45.991842
 31
0.0
  0
LINE
  5
896
100
AcDbEntity
  8
BORDER
  6
CONTINUOUS
 62
     2
100
AcDbLine
 39
96.0
 10
28.945267
 20
45.991842
 30
0.0
 11
28.945267
 21
45.991842
 31
0.0
  0
LINE
  5
897
100
AcDbEntity
  8
BORDER
  6
CONTINUOUS
 62
     2
100
AcDbLine
 39
96.0
 10
28.476517
 20
45.991842
 30
0.0
 11
28.476517
 21
45.991842
 31
0.0
  0
LINE
  5
898
100
AcDbEntity
  8
BORDER
  6
CONTINUOUS
 62
     2
100
AcDbLine
 39
96.0
 10
29.648397
 20
46.460642
 30
0.0
 11
29.648397
 21
46.460642
 31
0.0
  0
LINE
  5
899
100
AcDbEntity
  8
BORDER
  6
CONTINUOUS
 62
     2
100
AcDbLine
 39
96.0
 10
29.179647
 20
46.460642
 30
0.0
 11
29.179647
 21
46.460642
 31
0.0
  0
LINE
  5
89A
100
AcDbEntity
  8
BORDER
  6
CONTINUOUS
 62
     2
100
AcDbLine
 39
96.0
 10
28.710897
 20
46.460642
 30
0.0
 11
28.710897
 21
46.460642
 31
0.0
  0
LINE
  5
89B
100
AcDbEntity
  8
BORDER
  6
CONTINUOUS
 62
     2
100
AcDbLine
 39
96.0
 10
28.242147
 20
46.460642
 30
0.0
 11
28.242147
 21
46.460642
 31
0.0
  0
LINE
  5
89C
100
AcDbEntity
  8
BORDER
  6
CONTINUOUS
 62
     2
100
AcDbLine
 39
96.0
 10
29.882767
 20
46.929342
 30
0.0
 11
29.882767
 21
46.929342
 31
0.0
  0
LINE
  5
89D
100
AcDbEntity
  8
BORDER
  6
CONTINUOUS
 62
     2
100
AcDbLine
 39
96.0
 10
29.414017
 20
46.929342
 30
0.0
 11
29.414017
 21
46.929342
 31
0.0
  0
LINE
  5
89E
100
AcDbEntity
  8
BORDER
  6
CONTINUOUS
 62
     2
100
AcDbLine
 39
96.0
 10
28.945267
 20
46.929342
 30
0.0
 11
28.945267
 21
46.929342
 31
0.0
  0
LINE
  5
89F
100
AcDbEntity
  8
BORDER
  6
CONTINUOUS
 62
     2
100
AcDbLine
 39
96.0
 10
28.476517
 20
46.929342
 30
0.0
 11
28.476517
 21
46.929342
 31
0.0
  0
LINE
  5
8A0
100
AcDbEntity
  8
BORDER
  6
CONTINUOUS
 62
     2
100
AcDbLine
 39
96.0
 10
29.648397
 20
47.398142
 30
0.0
 11
29.648397
 21
47.398142
 31
0.0
  0
LINE
  5
8A1
100
AcDbEntity
  8
BORDER
  6
CONTINUOUS
 62
     2
100
AcDbLine
 39
96.0
 10
29.179647
 20
47.398142
 30
0.0
 11
29.179647
 21
47.398142
 31
0.0
  0
LINE
  5
8A2
100
AcDbEntity
  8
BORDER
  6
CONTINUOUS
 62
     2
100
AcDbLine
 39
96.0
 10
28.710897
 20
47.398142
 30
0.0
 11
28.710897
 21
47.398142
 31
0.0
  0
LINE
  5
8A3
100
AcDbEntity
  8
BORDER
  6
CONTINUOUS
 62
     2
100
AcDbLine
 39
96.0
 10
28.242147
 20
47.398142
 30
0.0
 11
28.242147
 21
47.398142
 31
0.0
  0
LINE
  5
8A4
100
AcDbEntity
  8
BORDER
  6
CONTINUOUS
 62
     2
100
AcDbLine
 39
96.0
 10
29.882767
 20
47.866842
 30
0.0
 11
29.882767
 21
47.866842
 31
0.0
  0
LINE
  5
8A5
100
AcDbEntity
  8
BORDER
  6
CONTINUOUS
 62
     2
100
AcDbLine
 39
96.0
 10
29.414017
 20
47.866842
 30
0.0
 11
29.414017
 21
47.866842
 31
0.0
  0
LINE
  5
8A6
100
AcDbEntity
  8
BORDER
  6
CONTINUOUS
 62
     2
100
AcDbLine
 39
96.0
 10
28.945267
 20
47.866842
 30
0.0
 11
28.945267
 21
47.866842
 31
0.0
  0
LINE
  5
8A7
100
AcDbEntity
  8
BORDER
  6
CONTINUOUS
 62
     2
100
AcDbLine
 39
96.0
 10
28.476517
 20
47.866842
 30
0.0
 11
28.476517
 21
47.866842
 31
0.0
  0
LINE
  5
8A8
100
AcDbEntity
  8
BORDER
  6
CONTINUOUS
 62
     2
100
AcDbLine
 39
96.0
 10
29.648397
 20
48.335642
 30
0.0
 11
29.648397
 21
48.335642
 31
0.0
  0
LINE
  5
8A9
100
AcDbEntity
  8
BORDER
  6
CONTINUOUS
 62
     2
100
AcDbLine
 39
96.0
 10
29.179647
 20
48.335642
 30
0.0
 11
29.179647
 21
48.335642
 31
0.0
  0
LINE
  5
8AA
100
AcDbEntity
  8
BORDER
  6
CONTINUOUS
 62
     2
100
AcDbLine
 39
96.0
 10
28.710897
 20
48.335642
 30
0.0
 11
28.710897
 21
48.335642
 31
0.0
  0
LINE
  5
8AB
100
AcDbEntity
  8
BORDER
  6
CONTINUOUS
 62
     2
100
AcDbLine
 39
96.0
 10
28.242147
 20
48.335642
 30
0.0
 11
28.242147
 21
48.335642
 31
0.0
  0
LINE
  5
8AC
100
AcDbEntity
  8
BORDER
  6
CONTINUOUS
 62
     2
100
AcDbLine
 39
96.0
 10
29.882767
 20
48.804342
 30
0.0
 11
29.882767
 21
48.804342
 31
0.0
  0
LINE
  5
8AD
100
AcDbEntity
  8
BORDER
  6
CONTINUOUS
 62
     2
100
AcDbLine
 39
96.0
 10
29.414017
 20
48.804342
 30
0.0
 11
29.414017
 21
48.804342
 31
0.0
  0
LINE
  5
8AE
100
AcDbEntity
  8
BORDER
  6
CONTINUOUS
 62
     2
100
AcDbLine
 39
96.0
 10
28.945267
 20
48.804342
 30
0.0
 11
28.945267
 21
48.804342
 31
0.0
  0
LINE
  5
8AF
100
AcDbEntity
  8
BORDER
  6
CONTINUOUS
 62
     2
100
AcDbLine
 39
96.0
 10
28.476517
 20
48.804342
 30
0.0
 11
28.476517
 21
48.804342
 31
0.0
  0
LINE
  5
8B0
100
AcDbEntity
  8
BORDER
  6
CONTINUOUS
 62
     2
100
AcDbLine
 39
96.0
 10
29.648397
 20
49.273142
 30
0.0
 11
29.648397
 21
49.273142
 31
0.0
  0
LINE
  5
8B1
100
AcDbEntity
  8
BORDER
  6
CONTINUOUS
 62
     2
100
AcDbLine
 39
96.0
 10
29.179647
 20
49.273142
 30
0.0
 11
29.179647
 21
49.273142
 31
0.0
  0
LINE
  5
8B2
100
AcDbEntity
  8
BORDER
  6
CONTINUOUS
 62
     2
100
AcDbLine
 39
96.0
 10
28.710897
 20
49.273142
 30
0.0
 11
28.710897
 21
49.273142
 31
0.0
  0
LINE
  5
8B3
100
AcDbEntity
  8
BORDER
  6
CONTINUOUS
 62
     2
100
AcDbLine
 39
96.0
 10
28.242147
 20
49.273142
 30
0.0
 11
28.242147
 21
49.273142
 31
0.0
  0
LINE
  5
8B4
100
AcDbEntity
  8
BORDER
  6
CONTINUOUS
 62
     2
100
AcDbLine
 39
96.0
 10
29.882767
 20
49.741842
 30
0.0
 11
29.882767
 21
49.741842
 31
0.0
  0
LINE
  5
8B5
100
AcDbEntity
  8
BORDER
  6
CONTINUOUS
 62
     2
100
AcDbLine
 39
96.0
 10
29.414017
 20
49.741842
 30
0.0
 11
29.414017
 21
49.741842
 31
0.0
  0
LINE
  5
8B6
100
AcDbEntity
  8
BORDER
  6
CONTINUOUS
 62
     2
100
AcDbLine
 39
96.0
 10
28.945267
 20
49.741842
 30
0.0
 11
28.945267
 21
49.741842
 31
0.0
  0
LINE
  5
8B7
100
AcDbEntity
  8
BORDER
  6
CONTINUOUS
 62
     2
100
AcDbLine
 39
96.0
 10
28.476517
 20
49.741842
 30
0.0
 11
28.476517
 21
49.741842
 31
0.0
  0
LINE
  5
8B8
100
AcDbEntity
  8
BORDER
  6
CONTINUOUS
 62
     2
100
AcDbLine
 39
96.0
 10
29.648397
 20
50.210642
 30
0.0
 11
29.648397
 21
50.210642
 31
0.0
  0
LINE
  5
8B9
100
AcDbEntity
  8
BORDER
  6
CONTINUOUS
 62
     2
100
AcDbLine
 39
96.0
 10
29.179647
 20
50.210642
 30
0.0
 11
29.179647
 21
50.210642
 31
0.0
  0
LINE
  5
8BA
100
AcDbEntity
  8
BORDER
  6
CONTINUOUS
 62
     2
100
AcDbLine
 39
96.0
 10
28.710897
 20
50.210642
 30
0.0
 11
28.710897
 21
50.210642
 31
0.0
  0
LINE
  5
8BB
100
AcDbEntity
  8
BORDER
  6
CONTINUOUS
 62
     2
100
AcDbLine
 39
96.0
 10
28.242147
 20
50.210642
 30
0.0
 11
28.242147
 21
50.210642
 31
0.0
  0
LINE
  5
8BC
100
AcDbEntity
  8
BORDER
  6
CONTINUOUS
 62
     2
100
AcDbLine
 39
96.0
 10
29.882767
 20
50.679342
 30
0.0
 11
29.882767
 21
50.679342
 31
0.0
  0
LINE
  5
8BD
100
AcDbEntity
  8
BORDER
  6
CONTINUOUS
 62
     2
100
AcDbLine
 39
96.0
 10
29.414017
 20
50.679342
 30
0.0
 11
29.414017
 21
50.679342
 31
0.0
  0
LINE
  5
8BE
100
AcDbEntity
  8
BORDER
  6
CONTINUOUS
 62
     2
100
AcDbLine
 39
96.0
 10
28.945267
 20
50.679342
 30
0.0
 11
28.945267
 21
50.679342
 31
0.0
  0
LINE
  5
8BF
100
AcDbEntity
  8
BORDER
  6
CONTINUOUS
 62
     2
100
AcDbLine
 39
96.0
 10
28.476517
 20
50.679342
 30
0.0
 11
28.476517
 21
50.679342
 31
0.0
  0
LINE
  5
8C0
100
AcDbEntity
  8
BORDER
  6
CONTINUOUS
 62
     2
100
AcDbLine
 39
96.0
 10
29.648397
 20
51.148142
 30
0.0
 11
29.648397
 21
51.148142
 31
0.0
  0
LINE
  5
8C1
100
AcDbEntity
  8
BORDER
  6
CONTINUOUS
 62
     2
100
AcDbLine
 39
96.0
 10
29.179647
 20
51.148142
 30
0.0
 11
29.179647
 21
51.148142
 31
0.0
  0
LINE
  5
8C2
100
AcDbEntity
  8
BORDER
  6
CONTINUOUS
 62
     2
100
AcDbLine
 39
96.0
 10
28.710897
 20
51.148142
 30
0.0
 11
28.710897
 21
51.148142
 31
0.0
  0
LINE
  5
8C3
100
AcDbEntity
  8
BORDER
  6
CONTINUOUS
 62
     2
100
AcDbLine
 39
96.0
 10
28.242147
 20
51.148142
 30
0.0
 11
28.242147
 21
51.148142
 31
0.0
  0
LINE
  5
8C4
100
AcDbEntity
  8
BORDER
  6
CONTINUOUS
 62
     2
100
AcDbLine
 39
96.0
 10
29.882767
 20
51.616842
 30
0.0
 11
29.882767
 21
51.616842
 31
0.0
  0
LINE
  5
8C5
100
AcDbEntity
  8
BORDER
  6
CONTINUOUS
 62
     2
100
AcDbLine
 39
96.0
 10
29.414017
 20
51.616842
 30
0.0
 11
29.414017
 21
51.616842
 31
0.0
  0
LINE
  5
8C6
100
AcDbEntity
  8
BORDER
  6
CONTINUOUS
 62
     2
100
AcDbLine
 39
96.0
 10
28.945267
 20
51.616842
 30
0.0
 11
28.945267
 21
51.616842
 31
0.0
  0
LINE
  5
8C7
100
AcDbEntity
  8
BORDER
  6
CONTINUOUS
 62
     2
100
AcDbLine
 39
96.0
 10
28.476517
 20
51.616842
 30
0.0
 11
28.476517
 21
51.616842
 31
0.0
  0
LINE
  5
8C8
100
AcDbEntity
  8
BORDER
  6
CONTINUOUS
 62
     2
100
AcDbLine
 39
96.0
 10
29.648397
 20
52.085642
 30
0.0
 11
29.648397
 21
52.085642
 31
0.0
  0
LINE
  5
8C9
100
AcDbEntity
  8
BORDER
  6
CONTINUOUS
 62
     2
100
AcDbLine
 39
96.0
 10
29.179647
 20
52.085642
 30
0.0
 11
29.179647
 21
52.085642
 31
0.0
  0
LINE
  5
8CA
100
AcDbEntity
  8
BORDER
  6
CONTINUOUS
 62
     2
100
AcDbLine
 39
96.0
 10
28.710897
 20
52.085642
 30
0.0
 11
28.710897
 21
52.085642
 31
0.0
  0
LINE
  5
8CB
100
AcDbEntity
  8
BORDER
  6
CONTINUOUS
 62
     2
100
AcDbLine
 39
96.0
 10
28.242147
 20
52.085642
 30
0.0
 11
28.242147
 21
52.085642
 31
0.0
  0
LINE
  5
8CC
100
AcDbEntity
  8
BORDER
  6
CONTINUOUS
 62
     1
100
AcDbLine
 39
96.0
 10
36.096397
 20
41.535042
 30
0.0
 11
36.107137
 21
41.596542
 31
0.0
  0
LINE
  5
8CD
100
AcDbEntity
  8
BORDER
  6
CONTINUOUS
 62
     1
100
AcDbLine
 39
96.0
 10
35.662307
 20
39.073022
 30
0.0
 11
35.673057
 21
39.134542
 31
0.0
  0
LINE
  5
8CE
100
AcDbEntity
  8
BORDER
  6
CONTINUOUS
 62
     1
100
AcDbLine
 39
96.0
 10
34.936727
 20
49.355242
 30
0.0
 11
34.947467
 21
49.416742
 31
0.0
  0
LINE
  5
8CF
100
AcDbEntity
  8
BORDER
  6
CONTINUOUS
 62
     1
100
AcDbLine
 39
96.0
 10
34.502647
 20
46.893242
 30
0.0
 11
34.513387
 21
46.954742
 31
0.0
  0
LINE
  5
8D0
100
AcDbEntity
  8
BORDER
  6
CONTINUOUS
 62
     1
100
AcDbLine
 39
96.0
 10
34.068557
 20
44.431142
 30
0.0
 11
34.079307
 21
44.492742
 31
0.0
  0
LINE
  5
8D1
100
AcDbEntity
  8
BORDER
  6
CONTINUOUS
 62
     1
100
AcDbLine
 39
96.0
 10
33.634477
 20
41.969142
 30
0.0
 11
33.645217
 21
42.030642
 31
0.0
  0
LINE
  5
8D2
100
AcDbEntity
  8
BORDER
  6
CONTINUOUS
 62
     1
100
AcDbLine
 39
96.0
 10
32.040977
 20
47.327342
 30
0.0
 11
32.051717
 21
47.388842
 31
0.0
  0
LINE
  5
8D3
100
AcDbEntity
  8
BORDER
  6
CONTINUOUS
 62
     1
100
AcDbLine
 39
96.0
 10
31.606887
 20
44.865242
 30
0.0
 11
31.617637
 21
44.926742
 31
0.0
  0
LINE
  5
8D4
100
AcDbEntity
  8
BORDER
  6
CONTINUOUS
 62
     1
100
AcDbLine
 39
96.0
 10
31.172807
 20
42.403242
 30
0.0
 11
31.183547
 21
42.464742
 31
0.0
  0
LINE
  5
8D5
100
AcDbEntity
  8
BORDER
  6
CONTINUOUS
 62
     1
100
AcDbLine
 39
96.0
 10
30.738727
 20
39.941182
 30
0.0
 11
30.749467
 21
40.002742
 31
0.0
  0
LINE
  5
8D6
100
AcDbEntity
  8
BORDER
  6
CONTINUOUS
 62
     1
100
AcDbLine
 39
96.0
 10
30.013137
 20
50.223442
 30
0.0
 11
30.023887
 21
50.284942
 31
0.0
  0
LINE
  5
8D7
100
AcDbEntity
  8
BORDER
  6
CONTINUOUS
 62
     1
100
AcDbLine
 39
96.0
 10
36.018027
 20
39.931422
 30
0.0
 11
36.053917
 21
39.982642
 31
0.0
  0
LINE
  5
8D8
100
AcDbEntity
  8
BORDER
  6
CONTINUOUS
 62
     1
100
AcDbLine
 39
96.0
 10
35.404497
 20
43.413142
 30
0.0
 11
35.440387
 21
43.464242
 31
0.0
  0
LINE
  5
8D9
100
AcDbEntity
  8
BORDER
  6
CONTINUOUS
 62
     1
100
AcDbLine
 39
96.0
 10
33.970417
 20
41.365242
 30
0.0
 11
34.006307
 21
41.416442
 31
0.0
  0
LINE
  5
8DA
100
AcDbEntity
  8
BORDER
  6
CONTINUOUS
 62
     1
100
AcDbLine
 39
96.0
 10
34.790727
 20
46.894942
 30
0.0
 11
34.826617
 21
46.946042
 31
0.0
  0
LINE
  5
8DB
100
AcDbEntity
  8
BORDER
  6
CONTINUOUS
 62
     1
100
AcDbLine
 39
96.0
 10
33.356647
 20
44.847042
 30
0.0
 11
33.392537
 21
44.898242
 31
0.0
  0
LINE
  5
8DC
100
AcDbEntity
  8
BORDER
  6
CONTINUOUS
 62
     1
100
AcDbLine
 39
96.0
 10
31.922567
 20
42.799142
 30
0.0
 11
31.958457
 21
42.850342
 31
0.0
  0
LINE
  5
8DD
100
AcDbEntity
  8
BORDER
  6
CONTINUOUS
 62
     1
100
AcDbLine
 39
96.0
 10
30.488487
 20
40.751242
 30
0.0
 11
30.524367
 21
40.802442
 31
0.0
  0
LINE
  5
8DE
100
AcDbEntity
  8
BORDER
  6
CONTINUOUS
 62
     1
100
AcDbLine
 39
96.0
 10
32.742877
 20
48.328742
 30
0.0
 11
32.778767
 21
48.379942
 31
0.0
  0
LINE
  5
8DF
100
AcDbEntity
  8
BORDER
  6
CONTINUOUS
 62
     1
100
AcDbLine
 39
96.0
 10
31.308797
 20
46.280942
 30
0.0
 11
31.344687
 21
46.332042
 31
0.0
  0
LINE
  5
8E0
100
AcDbEntity
  8
BORDER
  6
CONTINUOUS
 62
     1
100
AcDbLine
 39
96.0
 10
30.694777
 20
49.762742
 30
0.0
 11
30.730667
 21
49.813942
 31
0.0
  0
LINE
  5
8E1
100
AcDbEntity
  8
BORDER
  6
CONTINUOUS
 62
     1
100
AcDbLine
 39
96.0
 10
35.352257
 20
39.513942
 30
0.0
 11
35.411087
 21
39.535302
 31
0.0
  0
LINE
  5
8E2
100
AcDbEntity
  8
BORDER
  6
CONTINUOUS
 62
     1
100
AcDbLine
 39
96.0
 10
34.261267
 20
40.681942
 30
0.0
 11
34.320097
 21
40.703342
 31
0.0
  0
LINE
  5
8E3
100
AcDbEntity
  8
BORDER
  6
CONTINUOUS
 62
     1
100
AcDbLine
 39
96.0
 10
32.148147
 20
41.008042
 30
0.0
 11
32.206987
 21
41.029442
 31
0.0
  0
LINE
  5
8E4
100
AcDbEntity
  8
BORDER
  6
CONTINUOUS
 62
     1
100
AcDbLine
 39
96.0
 10
35.991897
 20
45.067442
 30
0.0
 11
36.050737
 21
45.088742
 31
0.0
  0
LINE
  5
8E5
100
AcDbEntity
  8
BORDER
  6
CONTINUOUS
 62
     1
100
AcDbLine
 39
96.0
 10
33.642537
 20
44.212342
 30
0.0
 11
33.701377
 21
44.233742
 31
0.0
  0
LINE
  5
8E6
100
AcDbEntity
  8
BORDER
  6
CONTINUOUS
 62
     1
100
AcDbLine
 39
96.0
 10
31.293167
 20
43.357342
 30
0.0
 11
31.352007
 21
43.378642
 31
0.0
  0
LINE
  5
8E7
100
AcDbEntity
  8
BORDER
  6
CONTINUOUS
 62
     1
100
AcDbLine
 39
96.0
 10
35.136917
 20
47.416642
 30
0.0
 11
35.195757
 21
47.438042
 31
0.0
  0
LINE
  5
8E8
100
AcDbEntity
  8
BORDER
  6
CONTINUOUS
 62
     1
100
AcDbLine
 39
96.0
 10
32.787557
 20
46.561642
 30
0.0
 11
32.846397
 21
46.582942
 31
0.0
  0
LINE
  5
8E9
100
AcDbEntity
  8
BORDER
  6
CONTINUOUS
 62
     1
100
AcDbLine
 39
96.0
 10
30.438187
 20
45.706542
 30
0.0
 11
30.497027
 21
45.727942
 31
0.0
  0
LINE
  5
8EA
100
AcDbEntity
  8
BORDER
  6
CONTINUOUS
 62
     1
100
AcDbLine
 39
96.0
 10
31.932577
 20
48.910942
 30
0.0
 11
31.991417
 21
48.932242
 31
0.0
  0
LINE
  5
8EB
100
AcDbEntity
  8
BORDER
  6
CONTINUOUS
 62
     3
100
AcDbLine
 39
96.0
 10
36.154747
 20
37.221402
 30
0.0
 11
38.029747
 21
37.221402
 31
0.0
  0
LINE
  5
8EC
100
AcDbEntity
  8
BORDER
  6
CONTINUOUS
 62
     3
100
AcDbLine
 39
96.0
 10
36.154747
 20
52.221442
 30
0.0
 11
28.029747
 21
52.221442
 31
0.0
  0
LINE
  5
8ED
100
AcDbEntity
  8
BORDER
  6
CONTINUOUS
 62
     3
100
AcDbLine
 39
96.0
 10
36.154747
 20
37.221402
 30
0.0
 11
36.154747
 21
43.963054
 31
0.0
  0
LINE
  5
8EE
100
AcDbEntity
  8
BORDER
  6
CONTINUOUS
 62
     3
100
AcDbLine
 39
96.0
 10
29.904747
 20
52.221442
 30
0.0
 11
29.904747
 21
37.221402
 31
0.0
  0
LINE
  5
8EF
100
AcDbEntity
  8
BORDER
  6
CONTINUOUS
 62
     3
100
AcDbLine
 39
96.0
 10
28.029747
 20
52.221442
 30
0.0
 11
28.029747
 21
37.221402
 31
0.0
  0
LINE
  5
8F0
100
AcDbEntity
  8
BORDER
  6
CONTINUOUS
 62
     3
100
AcDbLine
 39
96.0
 10
38.029747
 20
52.221442
 30
0.0
 11
36.154747
 21
52.221442
 31
0.0
  0
LINE
  5
8F1
100
AcDbEntity
  8
BORDER
  6
CONTINUOUS
 62
     3
100
AcDbLine
 39
96.0
 10
38.029747
 20
37.221402
 30
0.0
 11
38.029747
 21
52.221442
 31
0.0
  0
LINE
  5
8F2
100
AcDbEntity
  8
BORDER
  6
CONTINUOUS
 62
     3
100
AcDbLine
 39
96.0
 10
28.029747
 20
37.221402
 30
0.0
 11
29.904747
 21
37.221402
 31
0.0
  0
LINE
  5
8F3
100
AcDbEntity
  8
BORDER
  6
CONTINUOUS
 62
     3
100
AcDbLine
 39
96.0
 10
29.904747
 20
37.221402
 30
0.0
 11
28.029747
 21
37.221402
 31
0.0
  0
LINE
  5
8F4
100
AcDbEntity
  8
BORDER
  6
CONTINUOUS
 62
     3
100
AcDbLine
 39
96.0
 10
38.029747
 20
37.221402
 30
0.0
 11
36.154747
 21
37.221402
 31
0.0
  0
LINE
  5
8F5
100
AcDbEntity
  8
BORDER
  6
CONTINUOUS
 62
     7
100
AcDbLine
 39
96.0
 10
67.320287
 20
53.109842
 30
0.0
 11
55.953273
 21
46.639439
 31
0.0
  0
LINE
  5
8F6
100
AcDbEntity
  8
BORDER
  6
CONTINUOUS
 62
     7
100
AcDbLine
 39
96.0
 10
53.592626
 20
56.462639
 30
0.0
 11
42.163217
 21
48.846248
 31
0.0
  0
LINE
  5
8F7
100
AcDbEntity
  8
BORDER
  6
CONTINUOUS
 62
     7
100
AcDbLine
 39
96.0
 10
48.783417
 20
45.315442
 30
0.0
 11
48.783417
 21
47.175942
 31
0.0
  0
LINE
  5
8F8
100
AcDbEntity
  8
BORDER
  6
CONTINUOUS
 62
     7
100
AcDbLine
 39
96.0
 10
50.555397
 20
45.315442
 30
0.0
 11
50.555397
 21
47.175942
 31
0.0
  0
LINE
  5
8F9
100
AcDbEntity
  8
BORDER
  6
CONTINUOUS
 62
     7
100
AcDbLine
 39
96.0
 10
52.327117
 20
45.315442
 30
0.0
 11
52.327117
 21
47.175942
 31
0.0
  0
LINE
  5
8FA
100
AcDbEntity
  8
BORDER
  6
CONTINUOUS
 62
     7
100
AcDbLine
 39
96.0
 10
59.414767
 20
45.315442
 30
0.0
 11
59.414767
 21
47.175942
 31
0.0
  0
LINE
  5
8FB
100
AcDbEntity
  8
BORDER
  6
CONTINUOUS
 62
     7
100
AcDbLine
 39
96.0
 10
57.642797
 20
45.315442
 30
0.0
 11
57.642797
 21
47.175942
 31
0.0
  0
LINE
  5
8FC
100
AcDbEntity
  8
BORDER
  6
CONTINUOUS
 62
     7
100
AcDbLine
 39
96.0
 10
55.871067
 20
45.315442
 30
0.0
 11
55.871067
 21
47.175942
 31
0.0
  0
LINE
  5
8FD
100
AcDbEntity
  8
BORDER
  6
CONTINUOUS
 62
     7
100
AcDbLine
 39
96.0
 10
54.099097
 20
45.315442
 30
0.0
 11
54.099097
 21
47.175942
 31
0.0
  0
LINE
  5
8FE
100
AcDbEntity
  8
BORDER
  6
CONTINUOUS
 62
     3
100
AcDbLine
 39
96.0
 10
60.010467
 20
45.669842
 30
0.0
 11
48.010467
 21
45.669842
 31
0.0
  0
LINE
  5
8FF
100
AcDbEntity
  8
BORDER
  6
CONTINUOUS
 62
     7
100
AcDbLine
 39
96.0
 10
38.326292
 20
45.669842
 30
0.0
 11
40.235722
 21
48.295542
 31
0.0
  0
LINE
  5
900
100
AcDbEntity
  8
BORDER
  6
CONTINUOUS
 62
     7
100
AcDbLine
 39
96.0
 10
52.660542
 20
51.845442
 30
0.0
 11
53.209852
 21
49.922342
 31
0.0
  0
LINE
  5
901
100
AcDbEntity
  8
BORDER
  6
CONTINUOUS
 62
     7
100
AcDbLine
 39
96.0
 10
40.235722
 20
48.295542
 30
0.0
 11
52.660542
 21
51.845442
 31
0.0
  0
LINE
  5
902
100
AcDbEntity
  8
BORDER
  6
CONTINUOUS
 62
     7
100
AcDbLine
 39
96.0
 10
38.326292
 20
45.669842
 30
0.0
 11
53.209852
 21
49.922342
 31
0.0
  0
LINE
  5
903
100
AcDbEntity
  8
BORDER
  6
CONTINUOUS
 62
     7
100
AcDbLine
 39
96.0
 10
31.419147
 20
45.669842
 30
0.0
 11
38.326292
 21
45.669842
 31
0.0
  0
LINE
  5
904
100
AcDbEntity
  8
BORDER
  6
CONTINUOUS
 62
     7
100
AcDbLine
 39
96.0
 10
55.670016
 20
55.593239
 30
0.0
 11
52.037696
 21
55.593239
 31
0.0
  0
LINE
  5
905
100
AcDbEntity
  8
BORDER
  6
CONTINUOUS
 62
     3
100
AcDbLine
 39
96.0
 10
64.482397
 20
48.859242
 30
0.0
 11
66.874247
 21
47.707442
 31
0.0
  0
LINE
  5
906
100
AcDbEntity
  8
BORDER
  6
CONTINUOUS
 62
     3
100
AcDbLine
 39
96.0
 10
69.089087
 20
52.048542
 30
0.0
 11
64.482397
 21
48.859242
 31
0.0
  0
LINE
  5
907
100
AcDbEntity
  8
BORDER
  6
CONTINUOUS
 62
     3
100
AcDbLine
 39
96.0
 10
66.874247
 20
53.377542
 30
0.0
 11
69.089087
 21
52.048542
 31
0.0
  0
LINE
  5
908
100
AcDbEntity
  8
BORDER
  6
CONTINUOUS
 62
     3
100
AcDbLine
 39
96.0
 10
66.874247
 20
53.377542
 30
0.0
 11
66.874247
 21
57.933327
 31
0.0
  0
LINE
  5
909
100
AcDbEntity
  8
BORDER
  6
CONTINUOUS
 62
     3
100
AcDbLine
 39
96.0
 10
66.874247
 20
44.606742
 30
0.0
 11
66.874247
 21
47.707442
 31
0.0
  0
LINE
  5
90A
100
AcDbEntity
  8
BORDER
  6
CONTINUOUS
 62
     7
100
AcDbLine
 39
96.0
 10
38.029747
 20
45.971442
 30
0.0
 11
38.545618
 21
45.971442
 31
0.0
  0
LINE
  5
90B
100
AcDbEntity
  8
BORDER
  6
CONTINUOUS
 62
     7
100
AcDbLine
 39
96.0
 10
30.008888
 20
54.962639
 30
0.0
 11
35.987443
 21
54.962639
 31
0.0
  0
LINE
  5
90C
100
AcDbEntity
  8
BORDER
  6
CONTINUOUS
 62
    11
100
AcDbLine
 39
96.0
 10
32.916316
 20
57.462639
 30
0.0
 11
32.916316
 21
54.025139
 31
0.0
  0
LINE
  5
90D
100
AcDbEntity
  8
BORDER
  6
CONTINUOUS
 62
     3
100
AcDbLine
 39
96.0
 10
30.008888
 20
56.837639
 30
0.0
 11
66.874247
 21
56.837639
 31
0.0
  0
LINE
  5
90E
100
AcDbEntity
  8
BORDER
  6
CONTINUOUS
 62
     3
100
AcDbLine
 39
96.0
 10
65.934426
 20
56.462639
 30
0.0
 11
66.684426
 21
57.212639
 31
0.0
  0
LINE
  5
90F
100
AcDbEntity
  8
BORDER
  6
CONTINUOUS
 62
     3
100
AcDbLine
 39
96.0
 10
63.946146
 20
56.462639
 30
0.0
 11
64.696146
 21
57.212639
 31
0.0
  0
LINE
  5
910
100
AcDbEntity
  8
BORDER
  6
CONTINUOUS
 62
     3
100
AcDbLine
 39
96.0
 10
61.957866
 20
56.462639
 30
0.0
 11
62.707866
 21
57.212639
 31
0.0
  0
LINE
  5
911
100
AcDbEntity
  8
BORDER
  6
CONTINUOUS
 62
     3
100
AcDbLine
 39
96.0
 10
59.969576
 20
56.462639
 30
0.0
 11
60.719576
 21
57.212639
 31
0.0
  0
LINE
  5
912
100
AcDbEntity
  8
BORDER
  6
CONTINUOUS
 62
     3
100
AcDbLine
 39
96.0
 10
57.980326
 20
56.462639
 30
0.0
 11
58.730326
 21
57.212639
 31
0.0
  0
LINE
  5
913
100
AcDbEntity
  8
BORDER
  6
CONTINUOUS
 62
     3
100
AcDbLine
 39
96.0
 10
55.992036
 20
56.462639
 30
0.0
 11
56.743016
 21
57.212639
 31
0.0
  0
LINE
  5
914
100
AcDbEntity
  8
BORDER
  6
CONTINUOUS
 62
     3
100
AcDbLine
 39
96.0
 10
54.003756
 20
56.462639
 30
0.0
 11
54.753756
 21
57.212639
 31
0.0
  0
LINE
  5
915
100
AcDbEntity
  8
BORDER
  6
CONTINUOUS
 62
     3
100
AcDbLine
 39
96.0
 10
52.015476
 20
56.462639
 30
0.0
 11
52.765476
 21
57.212639
 31
0.0
  0
LINE
  5
916
100
AcDbEntity
  8
BORDER
  6
CONTINUOUS
 62
     3
100
AcDbLine
 39
96.0
 10
50.026216
 20
56.462639
 30
0.0
 11
50.776216
 21
57.212639
 31
0.0
  0
LINE
  5
917
100
AcDbEntity
  8
BORDER
  6
CONTINUOUS
 62
     3
100
AcDbLine
 39
96.0
 10
48.037936
 20
56.462639
 30
0.0
 11
48.788916
 21
57.212639
 31
0.0
  0
LINE
  5
918
100
AcDbEntity
  8
BORDER
  6
CONTINUOUS
 62
     3
100
AcDbLine
 39
96.0
 10
46.049656
 20
56.462639
 30
0.0
 11
46.799656
 21
57.212639
 31
0.0
  0
LINE
  5
919
100
AcDbEntity
  8
BORDER
  6
CONTINUOUS
 62
     3
100
AcDbLine
 39
96.0
 10
44.061376
 20
56.462639
 30
0.0
 11
44.811376
 21
57.212639
 31
0.0
  0
LINE
  5
91A
100
AcDbEntity
  8
BORDER
  6
CONTINUOUS
 62
     3
100
AcDbLine
 39
96.0
 10
42.072106
 20
56.462639
 30
0.0
 11
42.822106
 21
57.212639
 31
0.0
  0
LINE
  5
91B
100
AcDbEntity
  8
BORDER
  6
CONTINUOUS
 62
     3
100
AcDbLine
 39
96.0
 10
40.084796
 20
56.462639
 30
0.0
 11
40.834796
 21
57.212639
 31
0.0
  0
LINE
  5
91C
100
AcDbEntity
  8
BORDER
  6
CONTINUOUS
 62
     3
100
AcDbLine
 39
96.0
 10
38.095546
 20
56.462639
 30
0.0
 11
38.845546
 21
57.212639
 31
0.0
  0
LINE
  5
91D
100
AcDbEntity
  8
BORDER
  6
CONTINUOUS
 62
     3
100
AcDbLine
 39
96.0
 10
36.107256
 20
56.462639
 30
0.0
 11
36.857256
 21
57.212639
 31
0.0
  0
LINE
  5
91E
100
AcDbEntity
  8
BORDER
  6
CONTINUOUS
 62
     3
100
AcDbLine
 39
96.0
 10
34.118006
 20
56.462639
 30
0.0
 11
34.868976
 21
57.212639
 31
0.0
  0
LINE
  5
91F
100
AcDbEntity
  8
BORDER
  6
CONTINUOUS
 62
     3
100
AcDbLine
 39
96.0
 10
32.130696
 20
56.462639
 30
0.0
 11
32.880696
 21
57.212639
 31
0.0
  0
LINE
  5
920
100
AcDbEntity
  8
BORDER
  6
CONTINUOUS
 62
     3
100
AcDbLine
 39
96.0
 10
55.092626
 20
56.462639
 30
0.0
 11
53.592626
 21
52.962639
 31
0.0
  0
LINE
  5
921
100
AcDbEntity
  8
BORDER
  6
CONTINUOUS
 62
     3
100
AcDbLine
 39
96.0
 10
55.092626
 20
52.962639
 30
0.0
 11
53.592626
 21
56.462639
 31
0.0
  0
LINE
  5
922
100
AcDbEntity
  8
BORDER
  6
CONTINUOUS
 62
     7
100
AcDbLine
 39
96.0
 10
53.592626
 20
52.962639
 30
0.0
 11
55.092626
 21
52.962639
 31
0.0
  0
LINE
  5
923
100
AcDbEntity
  8
BORDER
  6
CONTINUOUS
 62
     3
100
AcDbLine
 39
96.0
 10
55.092626
 20
30.471402
 30
0.0
 11
53.592626
 21
26.971402
 31
0.0
  0
LINE
  5
924
100
AcDbEntity
  8
BORDER
  6
CONTINUOUS
 62
     3
100
AcDbLine
 39
96.0
 10
53.592626
 20
30.471402
 30
0.0
 11
55.092626
 21
26.971402
 31
0.0
  0
LINE
  5
925
100
AcDbEntity
  8
BORDER
  6
CONTINUOUS
 62
     7
100
AcDbLine
 39
96.0
 10
53.592626
 20
30.471402
 30
0.0
 11
55.092626
 21
30.471402
 31
0.0
  0
LINE
  5
926
100
AcDbEntity
  8
BORDER
  6
CONTINUOUS
 62
     7
100
AcDbLine
 39
96.0
 10
53.592626
 20
26.971402
 30
0.0
 11
55.092626
 21
26.971402
 31
0.0
  0
LINE
  5
927
100
AcDbEntity
  8
BORDER
  6
CONTINUOUS
 62
     7
100
AcDbLine
 39
96.0
 10
55.092626
 20
56.462639
 30
0.0
 11
55.092626
 21
26.971402
 31
0.0
  0
LINE
  5
928
100
AcDbEntity
  8
BORDER
  6
CONTINUOUS
 62
     7
100
AcDbLine
 39
96.0
 10
53.592626
 20
56.462639
 30
0.0
 11
53.592626
 21
26.971402
 31
0.0
  0
LINE
  5
929
100
AcDbEntity
  8
BORDER
  6
CONTINUOUS
 62
     7
100
AcDbLine
 39
96.0
 10
33.314746
 20
54.908539
 30
0.0
 11
33.314746
 21
44.929139
 31
0.0
  0
LINE
  5
92A
100
AcDbEntity
  8
BORDER
  6
CONTINUOUS
 62
     7
100
AcDbLine
 39
96.0
 10
33.820766
 20
54.385839
 30
0.0
 11
33.820766
 21
54.948339
 31
0.0
  0
LINE
  5
92B
100
AcDbEntity
  8
BORDER
  6
CONTINUOUS
 62
     7
100
AcDbLine
 39
96.0
 10
32.883266
 20
54.385839
 30
0.0
 11
33.820766
 21
54.385839
 31
0.0
  0
LINE
  5
92C
100
AcDbEntity
  8
BORDER
  6
CONTINUOUS
 62
     7
100
AcDbLine
 39
96.0
 10
32.883266
 20
54.948339
 30
0.0
 11
32.883266
 21
54.385839
 31
0.0
  0
LINE
  5
92D
100
AcDbEntity
  8
BORDER
  6
CONTINUOUS
 62
     7
100
AcDbLine
 39
96.0
 10
30.008888
 20
57.212639
 30
0.0
 11
66.874247
 21
57.212639
 31
0.0
  0
LINE
  5
92E
100
AcDbEntity
  8
BORDER
  6
CONTINUOUS
 62
     7
100
AcDbLine
 39
96.0
 10
30.008888
 20
56.462639
 30
0.0
 11
66.874247
 21
56.462639
 31
0.0
  0
LINE
  5
92F
100
AcDbEntity
  8
BORDER
  6
CONTINUOUS
 62
     3
100
AcDbLine
 39
96.0
 10
36.008888
 20
52.221442
 30
0.0
 11
30.008888
 21
54.948339
 31
0.0
  0
LINE
  5
930
100
AcDbEntity
  8
BORDER
  6
CONTINUOUS
 62
     3
100
AcDbLine
 39
96.0
 10
30.008888
 20
52.221442
 30
0.0
 11
36.008888
 21
54.948339
 31
0.0
  0
LINE
  5
931
100
AcDbEntity
  8
BORDER
  6
CONTINUOUS
 62
     7
100
AcDbLine
 39
96.0
 10
30.008888
 20
57.212639
 30
0.0
 11
30.008888
 21
52.221442
 31
0.0
  0
LINE
  5
932
100
AcDbEntity
  8
BORDER
  6
CONTINUOUS
 62
     7
100
AcDbLine
 39
96.0
 10
36.008888
 20
52.221442
 30
0.0
 11
36.008888
 21
54.948339
 31
0.0
  0
TEXT
  5
933
100
AcDbEntity
  8
DIM_TEXT
100
AcDbText
 10
-1.511429
 20
15.810439
 30
0.0
 40
1.124955
  1
REQUIRED, PER DESIGN)
 51
15.0
  7
INFO
100
AcDbText
  0
TEXT
  5
934
100
AcDbEntity
  8
DIM_TEXT
100
AcDbText
 10
-0.048706
 20
17.805416
 30
0.0
 40
1.124955
  1
(MIN. #4 @ 30" O.C.)
 51
15.0
  7
INFO
100
AcDbText
  0
TEXT
  5
935
100
AcDbEntity
  8
DIM_TEXT
100
AcDbText
 10
-1.561858
 20
23.399908
 30
0.0
 40
1.124955
  1
REQUIRED, PER DESIGN)
 51
15.0
  7
INFO
100
AcDbText
  0
TEXT
  5
936
100
AcDbEntity
  8
DIM_TEXT
100
AcDbText
 10
0.46383
 20
25.529683
 30
0.0
 40
1.124955
  1
(MIN. #4 @ 30" O.C.
 51
15.0
  7
INFO
100
AcDbText
  0
TEXT
  5
937
100
AcDbEntity
  8
DIM_TEXT
100
AcDbText
 10
7.486728
 20
49.755907
 30
0.0
 40
1.124955
  1
RASTRA SHELL
 51
15.0
  7
INFO
100
AcDbText
  0
TEXT
  5
938
100
AcDbEntity
  8
DIM_TEXT
100
AcDbText
 10
7.28453
 20
27.432519
 30
0.0
 40
1.124955
  1
HORIZ. REINF.
 51
15.0
  7
INFO
100
AcDbText
  0
TEXT
  5
939
100
AcDbEntity
  8
DIM_TEXT
100
AcDbText
 10
9.199101
 20
19.39081
 30
0.0
 40
1.124955
  1
VERT. REINF.
 51
15.0
  7
INFO
100
AcDbText
  0
TEXT
  5
93A
100
AcDbEntity
  8
DIM_TEXT
100
AcDbText
 10
7.210057
 20
33.797556
 30
0.0
 40
1.125
  1
NOTCH PANEL
 51
15.0
  7
INFO
100
AcDbText
  0
TEXT
  5
93B
100
AcDbEntity
  8
DIM_TEXT
100
AcDbText
 10
7.210057
 20
32.146262
 30
0.0
 40
1.125
  1
@ ANCHORAGE
 51
15.0
  7
INFO
100
AcDbText
  0
TEXT
  5
93C
100
AcDbEntity
  8
DIM_TEXT
100
AcDbText
 10
7.976293
 20
37.008397
 30
0.0
 40
1.125
  1
@ 45" O.C.)
 51
15.0
  7
INFO
100
AcDbText
  0
TEXT
  5
93D
100
AcDbEntity
  8
DIM_TEXT
100
AcDbText
 10
7.976293
 20
38.995165
 30
0.0
 40
1.125
  1
(MIN. 1/2"%%C A.B. 
 51
15.0
  7
INFO
100
AcDbText
  0
TEXT
  5
93E
100
AcDbEntity
  8
DIM_TEXT
100
AcDbText
 10
7.976293
 20
40.923875
 30
0.0
 40
1.125
  1
ANCHOR BOLTS
 51
15.0
  7
INFO
100
AcDbText
  0
TEXT
  5
93F
100
AcDbEntity
  8
DIM_TEXT
100
AcDbText
 10
7.976293
 20
42.852585
 30
0.0
 40
1.125
  1
COUNTERSUNK
 51
15.0
  7
INFO
100
AcDbText
  0
TEXT
  5
940
100
AcDbEntity
  8
DIM_TEXT
100
AcDbText
 10
7.976293
 20
44.781305
 30
0.0
 40
1.125
  1
4x PL. WITH
 51
15.0
  7
INFO
100
AcDbText
  0
TEXT
  5
941
100
AcDbEntity
  8
DIM_TEXT
100
AcDbText
 10
61.090307
 20
27.199182
 30
0.0
 40
1.125
  1
PREFAB. TRUSSES
 51
15.0
  7
INFO
100
AcDbText
  0
TEXT
  5
942
100
AcDbEntity
  8
DIM_TEXT
100
AcDbText
 10
61.976047
 20
34.463892
 30
0.0
 40
1.125
  1
STRAP 
 51
15.0
  7
INFO
100
AcDbText
  0
LINE
  5
943
100
AcDbEntity
  8
BORDER
  6
CONTINUOUS
 62
     6
100
AcDbLine
 10
66.228737
 20
40.488242
 30
0.0
 11
64.456767
 21
40.488242
 31
0.0
  0
LINE
  5
944
100
AcDbEntity
  8
BORDER
  6
CONTINUOUS
 62
     6
100
AcDbLine
 10
41.599567
 20
18.131122
 30
0.0
 11
38.999227
 21
19.821432
 31
0.0
  0
TEXT
  5
945
100
AcDbEntity
  8
DIM_TEXT
100
AcDbText
 10
42.840047
 20
17.245142
 30
0.0
 40
1.125
  1
RASTRA WALL
 51
15.0
  7
INFO
100
AcDbText
  0
LINE
  5
946
100
AcDbEntity
  8
BORDER
  6
CONTINUOUS
 62
     6
100
AcDbLine
 10
42.662797
 20
18.131122
 30
0.0
 11
41.599567
 21
18.131122
 31
0.0
  0
LEADER
  5
947
100
AcDbEntity
  8
BORDER
  6
CONTINUOUS
 62
     6
100
AcDbLeader
  3
STANDARD
 76
     3
 10
35.078686
 20
46.426698
 30
0.0
 10
44.443819
 20
65.51705
 30
0.0
 10
46.330975
 20
65.51705
 30
0.0
 77
    11
211
-1.0
221
0.0
231
0.0
1001
ACAD
1000
DSTYLE
1002
{
1070
    78
1070
     1
1070
   140
1040
6.0
1070
    73
1070
     0
1070
    77
1070
     1
1070
   173
1070
     1
1070
    42
1040
6.0
1070
    44
1040
0.0
1070
    43
1040
24.0
1070
   176
1070
     6
1070
   141
1040
3.0
1070
     7
1000
_CLOSEDBLANK
1070
     6
1000
_CLOSEDBLANK
1070
    41
1040
1.5
1002
}
  0
LINE
  5
948
100
AcDbEntity
  8
0
  6
HIDDEN
 62
     7
100
AcDbLine
 39
96.0
 10
36.154747
 20
46.974992
 30
0.0
 11
36.154747
 21
43.963054
 31
0.0
  0
LINE
  5
949
100
AcDbEntity
  8
BORDER
  6
CONTINUOUS
 62
     6
100
AcDbLine
 10
19.630295
 20
45.468805
 30
0.0
 11
29.96359
 21
51.622405
 31
0.0
  0
LEADER
  5
94A
100
AcDbEntity
  8
RF-SW
 62
     6
100
AcDbLeader
  3
ARCHITECTURAL
 76
     3
 10
33.249238
 20
27.907743
 30
0.0
 10
21.592738
 20
19.867903
 30
0.0
 10
19.80347
 20
19.867903
 30
0.0
 77
    13
1001
ACAD
1000
DSTYLE
1002
{
1070
    40
1040
12.0
1070
   173
1070
     1
1070
   176
1070
     6
1070
     7
1000
_CLOSEDBLANK
1070
     6
1000
_CLOSEDBLANK
1002
}
  0
LEADER
  5
94B
100
AcDbEntity
  8
RF-SW
 62
     6
100
AcDbLeader
  3
ARCHITECTURAL
 76
     3
 10
32.308516
 20
35.240882
 30
0.0
 10
21.122378
 20
28.165723
 30
0.0
 10
19.333109
 20
28.165723
 30
0.0
 77
    13
1001
ACAD
1000
DSTYLE
1002
{
1070
    40
1040
12.0
1070
   173
1070
     1
1070
   176
1070
     6
1070
     7
1000
_CLOSEDBLANK
1070
     6
1000
_CLOSEDBLANK
1002
}
  0
LEADER
  5
94C
100
AcDbEntity
  8
BORDER
  6
CONTINUOUS
 62
     6
100
AcDbLeader
  3
STANDARD
 76
     3
 10
36.160423
 20
45.067442
 30
0.0
 10
20.805671
 20
34.419849
 30
0.0
 10
18.918515
 20
34.419849
 30
0.0
 77
    11
1001
ACAD
1000
DSTYLE
1002
{
1070
    78
1070
     1
1070
   140
1040
6.0
1070
    73
1070
     0
1070
    77
1070
     1
1070
   173
1070
     1
1070
    42
1040
6.0
1070
    44
1040
0.0
1070
    43
1040
24.0
1070
   176
1070
     6
1070
   141
1040
3.0
1070
     7
1000
_CLOSEDBLANK
1070
     6
1000
_CLOSEDBLANK
1070
    41
1040
1.5
1002
}
  0
LINE
  5
94D
100
AcDbEntity
  8
BORDER
  6
CONTINUOUS
 62
     6
100
AcDbLine
 10
18.942795
 20
45.468805
 30
0.0
 11
19.630295
 21
45.468805
 31
0.0
  0
LINE
  5
94E
100
AcDbEntity
  8
BORDER
  6
CONTINUOUS
 62
     6
100
AcDbLine
 10
39.203567
 20
20.135822
 30
0.0
 11
38.794877
 21
19.507042
 31
0.0
  0
LINE
  5
94F
100
AcDbEntity
  8
BORDER
  6
CONTINUOUS
 62
     6
100
AcDbLine
 10
38.055867
 20
20.434532
 30
0.0
 11
38.794877
 21
19.507042
 31
0.0
  0
LINE
  5
950
100
AcDbEntity
  8
BORDER
  6
CONTINUOUS
 62
     6
100
AcDbLine
 10
38.055867
 20
20.434532
 30
0.0
 11
39.203567
 21
20.135822
 31
0.0
  0
LEADER
  5
951
100
AcDbEntity
  8
RF-SW
 62
     6
100
AcDbLeader
  3
ARCHITECTURAL
 76
     3
 10
28.242147
 20
54.905627
 30
0.0
 10
21.324575
 20
50.489112
 30
0.0
 10
19.535306
 20
50.489112
 30
0.0
 77
    13
1001
ACAD
1000
DSTYLE
1002
{
1070
    40
1040
12.0
1070
   173
1070
     1
1070
   176
1070
     6
1070
     7
1000
_CLOSEDBLANK
1070
     6
1000
_CLOSEDBLANK
1002
}
  0
TEXT
  5
952
100
AcDbEntity
  8
DIM_TEXT
100
AcDbText
 10
19.968641
 20
60.337639
 30
0.0
 40
1.125
  1
BOUND. NAIL
 51
15.0
  7
INFO
100
AcDbText
  0
LINE
  5
953
100
AcDbEntity
  8
BORDER
  6
CONTINUOUS
 62
     6
100
AcDbLine
 10
31.659084
 20
60.900139
 30
0.0
 11
32.541183
 21
58.457875
 31
0.0
  0
LINE
  5
954
100
AcDbEntity
  8
BORDER
  6
CONTINUOUS
 62
     6
100
AcDbLine
 10
30.912495
 20
52.227576
 30
0.0
 11
29.75803
 21
51.952773
 31
0.0
  0
LINE
  5
955
100
AcDbEntity
  8
BORDER
  6
CONTINUOUS
 62
     6
100
AcDbLine
 10
30.912495
 20
52.227576
 30
0.0
 11
30.154482
 21
51.315611
 31
0.0
  0
LINE
  5
956
100
AcDbEntity
  8
BORDER
  6
CONTINUOUS
 62
     6
100
AcDbLine
 10
30.154482
 20
51.315611
 30
0.0
 11
29.75803
 21
51.952773
 31
0.0
  0
LINE
  5
957
100
AcDbEntity
  8
BORDER
  6
CONTINUOUS
 62
     6
100
AcDbLine
 10
32.923156
 20
57.400139
 30
0.0
 11
32.894397
 21
58.585187
 31
0.0
  0
LINE
  5
958
100
AcDbEntity
  8
BORDER
  6
CONTINUOUS
 62
     6
100
AcDbLine
 10
32.894397
 20
58.585187
 30
0.0
 11
32.18803
 21
58.330642
 31
0.0
  0
LINE
  5
959
100
AcDbEntity
  8
BORDER
  6
CONTINUOUS
 62
     6
100
AcDbLine
 10
32.923156
 20
57.400139
 30
0.0
 11
32.18803
 21
58.330642
 31
0.0
  0
LINE
  5
95A
100
AcDbEntity
  8
BORDER
  6
CONTINUOUS
 62
     6
100
AcDbLine
 10
30.910606
 20
60.900139
 30
0.0
 11
31.659084
 21
60.900139
 31
0.0
  0
LINE
  5
95B
100
AcDbEntity
  8
BORDER
  6
CONTINUOUS
 62
     6
100
AcDbLine
 10
40.979447
 20
46.660342
 30
0.0
 11
40.710167
 21
45.505442
 31
0.0
  0
LINE
  5
95C
100
AcDbEntity
  8
BORDER
  6
CONTINUOUS
 62
     6
100
AcDbLine
 10
40.979447
 20
46.660342
 30
0.0
 11
41.456987
 21
45.574842
 31
0.0
  0
TEXT
  5
95D
100
AcDbEntity
  8
DIM_TEXT
100
AcDbText
 10
42.308307
 20
38.914082
 30
0.0
 40
1.125
  1
ANCHORAGE
 51
15.0
  7
INFO
100
AcDbText
  0
TEXT
  5
95E
100
AcDbEntity
  8
DIM_TEXT
100
AcDbText
 10
42.308307
 20
40.842612
 30
0.0
 40
1.125
  1
WALL/ROOF
 51
15.0
  7
INFO
100
AcDbText
  0
LINE
  5
95F
100
AcDbEntity
  8
BORDER
  6
CONTINUOUS
 62
     6
100
AcDbLine
 10
41.456987
 20
45.574842
 30
0.0
 11
40.710167
 21
45.505442
 31
0.0
  0
LINE
  5
960
100
AcDbEntity
  8
BORDER
  6
CONTINUOUS
 62
     6
100
AcDbLine
 10
41.451857
 20
41.580942
 30
0.0
 11
41.083697
 21
45.540142
 31
0.0
  0
LINE
  5
961
100
AcDbEntity
  8
BORDER
  6
CONTINUOUS
 62
     6
100
AcDbLine
 10
41.983357
 20
41.580942
 30
0.0
 11
41.451857
 21
41.580942
 31
0.0
  0
LINE
  5
962
100
AcDbEntity
  8
BORDER
  6
CONTINUOUS
 62
     6
100
AcDbLine
 10
59.141087
 20
27.907922
 30
0.0
 11
55.769997
 21
29.121542
 31
0.0
  0
LINE
  5
963
100
AcDbEntity
  8
BORDER
  6
CONTINUOUS
 62
     6
100
AcDbLine
 10
54.711397
 20
29.502652
 30
0.0
 11
55.642797
 21
28.768762
 31
0.0
  0
LINE
  5
964
100
AcDbEntity
  8
BORDER
  6
CONTINUOUS
 62
     6
100
AcDbLine
 10
54.711397
 20
29.502652
 30
0.0
 11
55.896947
 21
29.474452
 31
0.0
  0
LINE
  5
965
100
AcDbEntity
  8
BORDER
  6
CONTINUOUS
 62
     6
100
AcDbLine
 10
55.896947
 20
29.474452
 30
0.0
 11
55.642797
 21
28.768762
 31
0.0
  0
LINE
  5
966
100
AcDbEntity
  8
BORDER
  6
CONTINUOUS
 62
     6
100
AcDbLine
 10
60.913057
 20
27.730792
 30
0.0
 11
59.141087
 21
27.907922
 31
0.0
  0
LINE
  5
967
100
AcDbEntity
  8
BORDER
  6
CONTINUOUS
 62
     6
100
AcDbLine
 10
60.204317
 20
35.172692
 30
0.0
 11
57.021697
 21
44.561242
 31
0.0
  0
LINE
  5
968
100
AcDbEntity
  8
BORDER
  6
CONTINUOUS
 62
     6
100
AcDbLine
 10
57.376927
 20
44.681642
 30
0.0
 11
56.666477
 21
44.440842
 31
0.0
  0
LINE
  5
969
100
AcDbEntity
  8
BORDER
  6
CONTINUOUS
 62
     6
100
AcDbLine
 10
56.660377
 20
45.626642
 30
0.0
 11
56.666477
 21
44.440842
 31
0.0
  0
LINE
  5
96A
100
AcDbEntity
  8
BORDER
  6
CONTINUOUS
 62
     6
100
AcDbLine
 10
56.660377
 20
45.626642
 30
0.0
 11
57.376927
 21
44.681642
 31
0.0
  0
LINE
  5
96B
100
AcDbEntity
  8
BORDER
  6
CONTINUOUS
 62
     6
100
AcDbLine
 10
61.444557
 20
35.172692
 30
0.0
 11
60.204317
 21
35.172692
 31
0.0
  0
LINE
  5
96C
100
AcDbEntity
  8
BORDER
  6
CONTINUOUS
 62
     6
100
AcDbLine
 10
63.247047
 20
44.876742
 30
0.0
 11
62.542937
 21
44.618542
 31
0.0
  0
LINE
  5
96D
100
AcDbEntity
  8
BORDER
  6
CONTINUOUS
 62
     6
100
AcDbLine
 10
62.507787
 20
45.803942
 30
0.0
 11
62.542937
 21
44.618542
 31
0.0
  0
LINE
  5
96E
100
AcDbEntity
  8
BORDER
  6
CONTINUOUS
 62
     6
100
AcDbLine
 10
62.507787
 20
45.803942
 30
0.0
 11
63.247047
 21
44.876742
 31
0.0
  0
LINE
  5
96F
100
AcDbEntity
  8
BORDER
  6
CONTINUOUS
 62
     6
100
AcDbLine
 10
64.456767
 20
40.488242
 30
0.0
 11
62.894997
 21
44.747642
 31
0.0
  0
TEXT
  5
970
100
AcDbEntity
  8
DIM_TEXT
100
AcDbText
 10
46.427541
 20
64.969152
 30
0.0
 40
1.125
  1
CHORD REINF.
 51
15.0
  7
INFO
100
AcDbText
  0
TEXT
  5
971
100
AcDbEntity
  8
DIM_TEXT
100
AcDbText
 10
66.578383
 20
38.171252
 30
0.0
 40
1.125
  1
& ANCHORAGE
 51
15.0
  7
INFO
100
AcDbText
  0
TEXT
  5
972
100
AcDbEntity
  8
DIM_TEXT
100
AcDbText
 10
66.582987
 20
39.956752
 30
0.0
 40
1.125
  1
2 X BLK'G @ STRAP
 51
15.0
  7
INFO
100
AcDbText
  0
ENDSEC
  0
SECTION
  2
OBJECTS
  0
DICTIONARY
  5
C
100
AcDbDictionary
  3
ACAD_GROUP
350
D
  3
ACAD_MLINESTYLE
350
1A
  3
ACDBVARIABLEDICTIONARY
350
29
  0
DICTIONARY
  5
D
102
{ACAD_REACTORS
330
C
102
}
100
AcDbDictionary
  0
DICTIONARY
  5
1A
102
{ACAD_REACTORS
330
C
102
}
100
AcDbDictionary
  3
STANDARD
350
1B
  0
DICTIONARY
  5
29
102
{ACAD_REACTORS
330
C
102
}
100
AcDbDictionary
  3
DIMADEC
350
2A
  0
MLINESTYLE
  5
1B
102
{ACAD_REACTORS
330
1A
102
}
100
AcDbMlineStyle
  2
STANDARD
 70
     0
  3

 62
   256
 51
90.0
 52
90.0
 71
     2
 49
0.5
 62
   256
  6
BYLAYER
 49
-0.5
 62
   256
  6
BYLAYER
  0
DICTIONARYVAR
  5
2A
102
{ACAD_REACTORS
330
29
102
}
100
DictionaryVariables
280
     0
  1
0
  0
ENDSEC
  0
EOF
