  0
SECTION
  2
HEADER
  9
$ACADVER
  1
AC1014
  9
$ACADMAINTVER
 70
     8
  9
$DWGCODEPAGE
  3
ANSI_1252
  9
$INSBASE
 10
0.0
 20
0.0
 30
0.0
  9
$EXTMIN
 10
-9.625804
 20
-1.988707
 30
0.0
  9
$EXTMAX
 10
84.149181
 20
74.571245
 30
0.0
  9
$LIMMIN
 10
0.0
 20
0.0
  9
$LIMMAX
 10
85.0
 20
110.0
  9
$ORTHOMODE
 70
     1
  9
$REGENMODE
 70
     1
  9
$FILLMODE
 70
     1
  9
$QTEXTMODE
 70
     0
  9
$MIRRTEXT
 70
     1
  9
$DRAGMODE
 70
     2
  9
$LTSCALE
 40
3.0
  9
$OSMODE
 70
    37
  9
$ATTMODE
 70
     1
  9
$TEXTSIZE
 40
0.2
  9
$TRACEWID
 40
0.05
  9
$TEXTSTYLE
  7
STANDARD
  9
$CLAYER
  8
0
  9
$CELTYPE
  6
BYLAYER
  9
$CECOLOR
 62
   256
  9
$CELTSCALE
 40
1.0
  9
$DELOBJ
 70
     1
  9
$DISPSILH
 70
     0
  9
$DIMSCALE
 40
1.0
  9
$DIMASZ
 40
0.0
  9
$DIMEXO
 40
0.5
  9
$DIMDLI
 40
1.0
  9
$DIMRND
 40
0.0
  9
$DIMDLE
 40
0.0
  9
$DIMEXE
 40
0.5
  9
$DIMTP
 40
0.0
  9
$DIMTM
 40
0.0
  9
$DIMTXT
 40
1.125
  9
$DIMCEN
 40
0.0625
  9
$DIMTSZ
 40
0.5
  9
$DIMTOL
 70
     0
  9
$DIMLIM
 70
     0
  9
$DIMTIH
 70
     1
  9
$DIMTOH
 70
     1
  9
$DIMSE1
 70
     0
  9
$DIMSE2
 70
     0
  9
$DIMTAD
 70
     0
  9
$DIMZIN
 70
     0
  9
$DIMBLK
  1

  9
$DIMASO
 70
     1
  9
$DIMSHO
 70
     1
  9
$DIMPOST
  1

  9
$DIMAPOST
  1

  9
$DIMALT
 70
     0
  9
$DIMALTD
 70
     2
  9
$DIMALTF
 40
25.4
  9
$DIMLFAC
 40
1.0
  9
$DIMTOFL
 70
     0
  9
$DIMTVP
 40
0.0
  9
$DIMTIX
 70
     0
  9
$DIMSOXD
 70
     0
  9
$DIMSAH
 70
     0
  9
$DIMBLK1
  1

  9
$DIMBLK2
  1

  9
$DIMSTYLE
  2
STANDARD
  9
$DIMCLRD
 70
     0
  9
$DIMCLRE
 70
     0
  9
$DIMCLRT
 70
     0
  9
$DIMTFAC
 40
0.666667
  9
$DIMGAP
 40
0.5
  9
$DIMJUST
 70
     0
  9
$DIMSD1
 70
     0
  9
$DIMSD2
 70
     0
  9
$DIMTOLJ
 70
     1
  9
$DIMTZIN
 70
     0
  9
$DIMALTZ
 70
     0
  9
$DIMALTTZ
 70
     0
  9
$DIMFIT
 70
     5
  9
$DIMUPT
 70
     0
  9
$DIMUNIT
 70
     4
  9
$DIMDEC
 70
     4
  9
$DIMTDEC
 70
     4
  9
$DIMALTU
 70
     4
  9
$DIMALTTD
 70
     2
  9
$DIMTXSTY
  7
STANDARD
  9
$DIMAUNIT
 70
     2
  9
$LUNITS
 70
     4
  9
$LUPREC
 70
     4
  9
$SKETCHINC
 40
0.1
  9
$FILLETRAD
 40
0.0
  9
$AUNITS
 70
     2
  9
$AUPREC
 70
     0
  9
$MENU
  1
acad
  9
$ELEVATION
 40
0.0
  9
$PELEVATION
 40
0.0
  9
$THICKNESS
 40
0.0
  9
$LIMCHECK
 70
     0
  9
$BLIPMODE
 70
     1
  9
$CHAMFERA
 40
0.0
  9
$CHAMFERB
 40
0.0
  9
$CHAMFERC
 40
0.0
  9
$CHAMFERD
 40
0.0
  9
$SKPOLY
 70
     0
  9
$TDCREATE
 40
2451170.828495717
  9
$TDUPDATE
 40
2452248.727399768
  9
$TDINDWG
 40
0.0512413194
  9
$TDUSRTIMER
 40
0.0512413194
  9
$USRTIMER
 70
     1
  9
$ANGBASE
 50
0.0
  9
$ANGDIR
 70
     0
  9
$PDMODE
 70
     0
  9
$PDSIZE
 40
0.0
  9
$PLINEWID
 40
0.0
  9
$COORDS
 70
     1
  9
$SPLFRAME
 70
     0
  9
$SPLINETYPE
 70
     6
  9
$SPLINESEGS
 70
     8
  9
$ATTDIA
 70
     0
  9
$ATTREQ
 70
     1
  9
$HANDLING
 70
     1
  9
$HANDSEED
  5
301
  9
$SURFTAB1
 70
     6
  9
$SURFTAB2
 70
     6
  9
$SURFTYPE
 70
     6
  9
$SURFU
 70
     6
  9
$SURFV
 70
     6
  9
$UCSNAME
  2

  9
$UCSORG
 10
0.0
 20
0.0
 30
0.0
  9
$UCSXDIR
 10
1.0
 20
0.0
 30
0.0
  9
$UCSYDIR
 10
0.0
 20
1.0
 30
0.0
  9
$PUCSNAME
  2

  9
$PUCSORG
 10
0.0
 20
0.0
 30
0.0
  9
$PUCSXDIR
 10
1.0
 20
0.0
 30
0.0
  9
$PUCSYDIR
 10
0.0
 20
1.0
 30
0.0
  9
$USERI1
 70
     0
  9
$USERI2
 70
     0
  9
$USERI3
 70
     0
  9
$USERI4
 70
     0
  9
$USERI5
 70
     0
  9
$USERR1
 40
0.0
  9
$USERR2
 40
0.0
  9
$USERR3
 40
0.0
  9
$USERR4
 40
0.0
  9
$USERR5
 40
0.0
  9
$WORLDVIEW
 70
     1
  9
$SHADEDGE
 70
     3
  9
$SHADEDIF
 70
    70
  9
$TILEMODE
 70
     1
  9
$MAXACTVP
 70
    16
  9
$PINSBASE
 10
0.0
 20
0.0
 30
0.0
  9
$PLIMCHECK
 70
     0
  9
$PEXTMIN
 10
1.000000E+20
 20
1.000000E+20
 30
1.000000E+20
  9
$PEXTMAX
 10
-1.000000E+20
 20
-1.000000E+20
 30
-1.000000E+20
  9
$PLIMMIN
 10
0.0
 20
0.0
  9
$PLIMMAX
 10
12.0
 20
9.0
  9
$UNITMODE
 70
     0
  9
$VISRETAIN
 70
     0
  9
$PLINEGEN
 70
     0
  9
$PSLTSCALE
 70
     1
  9
$TREEDEPTH
 70
  3020
  9
$PICKSTYLE
 70
     1
  9
$CMLSTYLE
  2
STANDARD
  9
$CMLJUST
 70
     0
  9
$CMLSCALE
 40
1.0
  9
$PROXYGRAPHICS
 70
     1
  9
$MEASUREMENT
 70
     0
  0
ENDSEC
  0
SECTION
  2
CLASSES
  0
CLASS
  1
DICTIONARYVAR
  2
AcDbDictionaryVar
  3
"AutoCAD"
 90
        0
280
     0
281
     0
  0
ENDSEC
  0
SECTION
  2
TABLES
  0
TABLE
  2
VPORT
  5
8
100
AcDbSymbolTable
 70
     1
  0
VPORT
  5
2FA
100
AcDbSymbolTableRecord
100
AcDbViewportTableRecord
  2
*ACTIVE
 70
     0
 10
0.0
 20
0.0
 11
1.0
 21
1.0
 12
35.770052
 22
36.969479
 13
0.0
 23
0.0
 14
1.0
 24
1.0
 15
1.0
 25
1.0
 16
0.0
 26
0.0
 36
1.0
 17
0.0
 27
0.0
 37
0.0
 40
80.337044
 41
1.474388
 42
50.0
 43
0.0
 44
0.0
 50
0.0
 51
0.0
 71
     0
 72
   100
 73
     1
 74
     1
 75
     0
 76
     0
 77
     0
 78
     0
  0
ENDTAB
  0
TABLE
  2
LTYPE
  5
5
100
AcDbSymbolTable
 70
     1
  0
LTYPE
  5
11
100
AcDbSymbolTableRecord
100
AcDbLinetypeTableRecord
  2
BYBLOCK
 70
     0
  3

 72
    65
 73
     0
 40
0.0
  0
LTYPE
  5
12
100
AcDbSymbolTableRecord
100
AcDbLinetypeTableRecord
  2
BYLAYER
 70
     0
  3

 72
    65
 73
     0
 40
0.0
  0
LTYPE
  5
13
100
AcDbSymbolTableRecord
100
AcDbLinetypeTableRecord
  2
CONTINUOUS
 70
     0
  3
Solid line
 72
    65
 73
     0
 40
0.0
  0
ENDTAB
  0
TABLE
  2
LAYER
  5
2
100
AcDbSymbolTable
 70
     6
  0
LAYER
  5
E
100
AcDbSymbolTableRecord
100
AcDbLayerTableRecord
  2
0
 70
     0
 62
     7
  6
CONTINUOUS
  0
LAYER
  5
22
100
AcDbSymbolTableRecord
100
AcDbLayerTableRecord
  2
DRAWING
 70
     0
 62
     7
  6
CONTINUOUS
  0
LAYER
  5
23
100
AcDbSymbolTableRecord
100
AcDbLayerTableRecord
  2
HATCH
 70
     0
 62
     3
  6
CONTINUOUS
  0
LAYER
  5
24
100
AcDbSymbolTableRecord
100
AcDbLayerTableRecord
  2
DIM_TEXT
 70
     0
 62
     6
  6
CONTINUOUS
  0
LAYER
  5
2D2
100
AcDbSymbolTableRecord
100
AcDbLayerTableRecord
  2
BORDER
 70
     0
 62
    14
  6
CONTINUOUS
  0
LAYER
  5
2D3
100
AcDbSymbolTableRecord
100
AcDbLayerTableRecord
  2
RF-SW
 70
     0
 62
     9
  6
CONTINUOUS
  0
ENDTAB
  0
TABLE
  2
STYLE
  5
3
100
AcDbSymbolTable
 70
     5
  0
STYLE
  5
F
100
AcDbSymbolTableRecord
100
AcDbTextStyleTableRecord
  2
STANDARD
 70
     0
 40
0.0
 41
1.0
 50
0.0
 71
     0
 42
0.2
  3
txt
  4

  0
STYLE
  5
1C
100
AcDbSymbolTableRecord
100
AcDbTextStyleTableRecord
  2
INFO
 70
     0
 40
0.0
 41
1.0
 50
15.0
 71
     0
 42
1.08
  3
C:\ACADWIN\FONTS\ROMANS.SHX
  4

  0
STYLE
  5
1D
100
AcDbSymbolTableRecord
100
AcDbTextStyleTableRecord
  2
TITLE
 70
     0
 40
0.0
 41
1.0
 50
0.0
 71
     0
 42
2.8
  3
C:\ACADWIN\FONTS\ROMANC.SHX
  4

  0
STYLE
  5
2D4
100
AcDbSymbolTableRecord
100
AcDbTextStyleTableRecord
  2
ROMAN
 70
     0
 40
0.0
 41
1.0
 50
0.0
 71
     0
 42
2.25
  3
roman
  4

  0
STYLE
  5
2D5
100
AcDbSymbolTableRecord
100
AcDbTextStyleTableRecord
  2
ROMANS
 70
     0
 40
0.0
 41
1.0
 50
0.0
 71
     0
 42
0.2
  3
ROMANS.SHX
  4

  0
ENDTAB
  0
TABLE
  2
VIEW
  5
6
100
AcDbSymbolTable
 70
     0
  0
ENDTAB
  0
TABLE
  2
UCS
  5
7
100
AcDbSymbolTable
 70
     0
  0
ENDTAB
  0
TABLE
  2
APPID
  5
9
100
AcDbSymbolTable
 70
     2
  0
APPID
  5
10
100
AcDbSymbolTableRecord
100
AcDbRegAppTableRecord
  2
ACAD
 70
     0
  0
APPID
  5
21
100
AcDbSymbolTableRecord
100
AcDbRegAppTableRecord
  2
ZIMM
 70
     0
  0
ENDTAB
  0
TABLE
  2
DIMSTYLE
  5
A
100
AcDbSymbolTable
 70
     2
  0
DIMSTYLE
105
2C8
100
AcDbSymbolTableRecord
100
AcDbDimStyleTableRecord
  2
STANDARD
 70
     0
  3

  4

  5

  6

  7

 40
1.0
 41
0.18
 42
0.0625
 43
0.38
 44
0.18
 45
0.0
 46
0.0
 47
0.0
 48
0.0
140
0.18
141
0.09
142
0.0
143
25.4
144
1.0
145
0.0
146
1.0
147
0.09
 71
     0
 72
     0
 73
     1
 74
     1
 75
     0
 76
     0
 77
     0
 78
     0
170
     0
171
     2
172
     0
173
     0
174
     0
175
     0
176
     0
177
     0
178
     0
270
     2
271
     4
272
     4
273
     2
274
     2
340
F
275
     0
280
     0
281
     0
282
     0
283
     1
284
     0
285
     0
286
     0
287
     3
288
     0
  0
DIMSTYLE
105
2D6
100
AcDbSymbolTableRecord
100
AcDbDimStyleTableRecord
  2
ARCHITECTURAL
 70
     0
  3

  4

  5

  6

  7

 40
1.0
 41
0.125
 42
0.0
 43
0.375
 44
0.0
 45
0.0
 46
0.0
 47
0.0
 48
0.0
140
0.09375
141
0.0625
142
0.0
143
25.4
144
1.0
145
0.0
146
1.0
147
0.0
 71
     0
 72
     0
 73
     0
 74
     0
 75
     0
 76
     0
 77
     1
 78
    13
170
     0
171
     2
172
     0
173
     0
174
     0
175
     0
176
    13
177
    13
178
     7
270
     6
271
     4
272
     4
273
     2
274
     2
340
2D5
275
     1
280
     0
281
     0
282
     0
283
     1
284
    13
285
     0
286
     0
287
     3
288
     0
  0
ENDTAB
  0
TABLE
  2
BLOCK_RECORD
  5
1
100
AcDbSymbolTable
 70
     4
  0
BLOCK_RECORD
  5
17
100
AcDbSymbolTableRecord
100
AcDbBlockTableRecord
  2
*MODEL_SPACE
  0
BLOCK_RECORD
  5
14
100
AcDbSymbolTableRecord
100
AcDbBlockTableRecord
  2
*PAPER_SPACE
  0
BLOCK_RECORD
  5
2CC
100
AcDbSymbolTableRecord
100
AcDbBlockTableRecord
  2
_CLOSEDBLANK
  0
BLOCK_RECORD
  5
2D7
100
AcDbSymbolTableRecord
100
AcDbBlockTableRecord
  2
A$C6D604945
  0
BLOCK_RECORD
  5
2EA
100
AcDbSymbolTableRecord
100
AcDbBlockTableRecord
  2
*E2
  0
BLOCK_RECORD
  5
2F0
100
AcDbSymbolTableRecord
100
AcDbBlockTableRecord
  2
A$C72671D41
  0
ENDTAB
  0
ENDSEC
  0
SECTION
  2
BLOCKS
  0
BLOCK
  5
27
100
AcDbEntity
  8
0
100
AcDbBlockBegin
  2
*MODEL_SPACE
 70
     0
 10
0.0
 20
0.0
 30
0.0
  3
*MODEL_SPACE
  1

  0
ENDBLK
  5
28
100
AcDbEntity
  8
0
100
AcDbBlockEnd
  0
BLOCK
  5
25
100
AcDbEntity
 67
     1
  8
0
100
AcDbBlockBegin
  2
*PAPER_SPACE
 70
     0
 10
0.0
 20
0.0
 30
0.0
  3
*PAPER_SPACE
  1

  0
ENDBLK
  5
26
100
AcDbEntity
 67
     1
  8
0
100
AcDbBlockEnd
  0
BLOCK
  5
2D0
100
AcDbEntity
  8
0
100
AcDbBlockBegin
  2
_CLOSEDBLANK
 70
     0
 10
0.0
 20
0.0
 30
0.0
  3
_CLOSEDBLANK
  1

  0
LINE
  5
2CD
100
AcDbEntity
  8
0
  6
BYBLOCK
 62
     0
100
AcDbLine
 10
-1.0
 20
0.166667
 30
0.0
 11
0.0
 21
0.0
 31
0.0
  0
LINE
  5
2CE
100
AcDbEntity
  8
0
  6
BYBLOCK
 62
     0
100
AcDbLine
 10
0.0
 20
0.0
 30
0.0
 11
-1.0
 21
-0.166667
 31
0.0
  0
LINE
  5
2CF
100
AcDbEntity
  8
0
  6
BYBLOCK
 62
     0
100
AcDbLine
 10
-1.0
 20
0.166667
 30
0.0
 11
-1.0
 21
-0.166667
 31
0.0
  0
ENDBLK
  5
2D1
100
AcDbEntity
  8
0
100
AcDbBlockEnd
  0
BLOCK
  5
2E0
100
AcDbEntity
  8
0
100
AcDbBlockBegin
  2
A$C6D604945
 70
     0
 10
0.0
 20
0.0
 30
0.0
  3
A$C6D604945
  1

  0
LEADER
  5
2D8
100
AcDbEntity
  8
RF-SW
 62
    13
100
AcDbLeader
  3
ARCHITECTURAL
 76
     3
 10
24.02363
 20
16.393802
 30
0.0
 10
19.141301
 20
10.833066
 30
0.0
 10
16.457398
 20
10.833066
 30
0.0
 77
    13
1001
ACAD
1000
DSTYLE
1002
{
1070
    40
1040
12.0
1070
   173
1070
     1
1070
     7
1000
_CLOSEDBLANK
1070
     6
1000
_CLOSEDBLANK
1070
    41
1040
0.0625
1002
}
  0
LEADER
  5
2D9
100
AcDbEntity
  8
RF-SW
 62
    13
100
AcDbLeader
  3
ARCHITECTURAL
 76
     3
 10
24.258121
 20
9.711214
 30
0.0
 10
19.141301
 20
3.954284
 30
0.0
 10
16.457398
 20
3.954284
 30
0.0
 77
    13
1001
ACAD
1000
DSTYLE
1002
{
1070
    40
1040
12.0
1070
   173
1070
     1
1070
     7
1000
_CLOSEDBLANK
1070
     6
1000
_CLOSEDBLANK
1070
    41
1040
0.0625
1002
}
  0
TEXT
  5
2DA
100
AcDbEntity
  8
BORDER
  6
CONTINUOUS
 62
     1
100
AcDbText
 10
7.585574
 20
10.10849
 30
0.0
 40
0.9
  1
VERT. REINF.
  7
ROMAN
100
AcDbText
  0
TEXT
  5
2DB
100
AcDbEntity
  8
BORDER
  6
CONTINUOUS
 62
     1
100
AcDbText
 10
1.504088
 20
8.658951
 30
0.0
 40
0.9
  1
(MIN. #4 @ 30" O.C.
  7
ROMAN
100
AcDbText
  0
TEXT
  5
2DC
100
AcDbEntity
  8
BORDER
  6
CONTINUOUS
 62
     1
100
AcDbText
 10
-0.135
 20
6.945929
 30
0.0
 40
0.9
  1
REQUIRED, PER DESIGN)
  7
ROMAN
100
AcDbText
  0
TEXT
  5
2DD
100
AcDbEntity
  8
BORDER
  6
CONTINUOUS
 62
     1
100
AcDbText
 10
7.138065
 20
3.31954
 30
0.0
 40
0.9
  1
HORIZ. REINF.
  7
ROMAN
100
AcDbText
  0
TEXT
  5
2DE
100
AcDbEntity
  8
BORDER
  6
CONTINUOUS
 62
     1
100
AcDbText
 10
1.499233
 20
1.766321
 30
0.0
 40
0.9
  1
(MIN. #4 @ 30" O.C.
  7
ROMAN
100
AcDbText
  0
TEXT
  5
2DF
100
AcDbEntity
  8
BORDER
  6
CONTINUOUS
 62
     1
100
AcDbText
 10
-0.080649
 20
0.135
 30
0.0
 40
0.9
  1
REQUIRED, PER DESIGN)
  7
ROMAN
100
AcDbText
  0
ENDBLK
  5
2E1
100
AcDbEntity
  8
0
100
AcDbBlockEnd
  0
BLOCK
  5
2EB
100
AcDbEntity
  8
0
100
AcDbBlockBegin
  2
*E2
 70
     0
 10
0.0
 20
0.0
 30
0.0
  3
*E2
  1

  0
LEADER
  5
2EC
100
AcDbEntity
  8
RF-SW
 62
    13
100
AcDbLeader
  3
ARCHITECTURAL
 76
     3
 10
24.02363
 20
16.393802
 30
0.0
 10
19.141301
 20
10.833066
 30
0.0
 10
16.457398
 20
10.833066
 30
0.0
 77
    13
1001
ACAD
1000
DSTYLE
1002
{
1070
    40
1040
12.0
1070
   173
1070
     1
1070
     7
1000
_CLOSEDBLANK
1070
     6
1000
_CLOSEDBLANK
1070
    41
1040
0.0625
1002
}
  0
LEADER
  5
2ED
100
AcDbEntity
  8
RF-SW
 62
    13
100
AcDbLeader
  3
ARCHITECTURAL
 76
     3
 10
24.258121
 20
9.711214
 30
0.0
 10
19.141301
 20
3.954284
 30
0.0
 10
16.457398
 20
3.954284
 30
0.0
 77
    13
1001
ACAD
1000
DSTYLE
1002
{
1070
    40
1040
12.0
1070
   173
1070
     1
1070
     7
1000
_CLOSEDBLANK
1070
     6
1000
_CLOSEDBLANK
1070
    41
1040
0.0625
1002
}
  0
ENDBLK
  5
2EE
100
AcDbEntity
  8
0
100
AcDbBlockEnd
  0
BLOCK
  5
2F2
100
AcDbEntity
  8
0
100
AcDbBlockBegin
  2
A$C72671D41
 70
     0
 10
0.0
 20
0.0
 30
0.0
  3
A$C72671D41
  1

  0
LEADER
  5
2F1
100
AcDbEntity
  8
RF-SW
 62
    13
100
AcDbLeader
  3
ARCHITECTURAL
 76
     3
 10
7.566232
 20
5.560735
 30
0.0
 10
2.683903
 20
0.0
 30
0.0
 10
0.0
 20
0.0
 30
0.0
 77
    13
1001
ACAD
1000
DSTYLE
1002
{
1070
    40
1040
12.0
1070
   173
1070
     1
1070
     7
1000
_CLOSEDBLANK
1070
     6
1000
_CLOSEDBLANK
1070
    41
1040
0.0625
1002
}
  0
ENDBLK
  5
2F3
100
AcDbEntity
  8
0
100
AcDbBlockEnd
  0
ENDSEC
  0
SECTION
  2
ENTITIES
  0
TEXT
  5
2B
100
AcDbEntity
  8
DRAWING
100
AcDbText
 10
8.211453
 20
-1.988707
 30
0.0
 40
2.5
  1
ROOF WITH PARAPET
  7
TITLE
 72
     1
 11
29.163834
 21
-1.988707
 31
0.0
100
AcDbText
  0
LINE
  5
2D
100
AcDbEntity
  8
DRAWING
100
AcDbLine
 10
30.01907
 20
41.958736
 30
0.0
 11
61.95434
 21
41.958736
 31
0.0
  0
LINE
  5
2E
100
AcDbEntity
  8
DRAWING
100
AcDbLine
 10
30.01907
 20
42.708736
 30
0.0
 11
61.95434
 21
42.708736
 31
0.0
  0
LINE
  5
2F
100
AcDbEntity
  8
HATCH
100
AcDbLine
 10
30.09396
 20
42.333736
 30
0.0
 11
61.86469
 21
42.333736
 31
0.0
  0
LINE
  5
30
100
AcDbEntity
  8
DRAWING
100
AcDbLine
 10
23.92697
 20
42.874036
 30
0.0
 11
59.60072
 21
42.874036
 31
0.0
  0
LINE
  5
31
100
AcDbEntity
  8
DIM_TEXT
100
AcDbLine
 10
37.54664
 20
23.338436
 30
0.0
 11
32.08249
 21
35.517436
 31
0.0
  0
LINE
  5
32
100
AcDbEntity
  8
DIM_TEXT
100
AcDbLine
 10
38.34445
 20
52.353536
 30
0.0
 11
32.46335
 21
44.039836
 31
0.0
  0
LINE
  5
33
100
AcDbEntity
  8
DRAWING
100
AcDbLine
 10
35.28148
 20
36.458736
 30
0.0
 11
50.70909
 21
36.458736
 31
0.0
  0
LINE
  5
34
100
AcDbEntity
  8
DIM_TEXT
100
AcDbLine
 10
37.50246
 20
32.981036
 30
0.0
 11
36.61653
 21
32.981036
 31
0.0
  0
LINE
  5
35
100
AcDbEntity
  8
DRAWING
100
AcDbLine
 10
25.26176
 20
69.258186
 30
0.0
 11
25.26176
 21
39.272746
 31
0.0
  0
LINE
  5
36
100
AcDbEntity
  8
DRAWING
100
AcDbLine
 10
30.01907
 20
39.543736
 30
0.0
 11
30.01907
 21
54.146236
 31
0.0
  0
LINE
  5
37
100
AcDbEntity
  8
DRAWING
100
AcDbLine
 10
20.01907
 20
54.146236
 30
0.0
 11
20.01907
 21
39.146236
 31
0.0
  0
LINE
  5
38
100
AcDbEntity
  8
DRAWING
100
AcDbLine
 10
28.14407
 20
43.874036
 30
0.0
 11
28.14407
 21
54.146236
 31
0.0
  0
ARC
  5
39
100
AcDbEntity
  8
DRAWING
100
AcDbCircle
 10
25.01907
 20
54.146236
 30
0.0
 40
3.0
100
AcDbArc
 50
180.0
 51
0.0
  0
LINE
  5
3A
100
AcDbEntity
  8
DRAWING
100
AcDbLine
 10
21.89407
 20
54.146236
 30
0.0
 11
21.89407
 21
39.146236
 31
0.0
  0
TEXT
  5
3B
100
AcDbEntity
  8
DIM_TEXT
100
AcDbText
 10
8.320816
 20
44.599436
 30
0.0
 40
1.125
  1
CUT OUT
 51
15.0
  7
INFO
100
AcDbText
  0
TEXT
  5
3D
100
AcDbEntity
  8
DIM_TEXT
100
AcDbText
 10
8.320816
 20
42.670836
 30
0.0
 40
1.125
  1
FOR PAI
 51
15.0
  7
INFO
100
AcDbText
  0
LINE
  5
3E
100
AcDbEntity
  8
DRAWING
100
AcDbLine
 10
20.01907
 20
24.146236
 30
0.0
 11
20.01907
 21
14.739636
 31
0.0
  0
LINE
  5
3F
100
AcDbEntity
  8
HATCH
100
AcDbLine
 10
19.25126
 20
14.639136
 30
0.0
 11
23.3506
 21
15.175636
 31
0.0
  0
LINE
  5
40
100
AcDbEntity
  8
HATCH
100
AcDbLine
 10
24.21251
 20
17.474136
 30
0.0
 11
25.98439
 21
13.221636
 31
0.0
  0
LINE
  5
41
100
AcDbEntity
  8
HATCH
100
AcDbLine
 10
25.98439
 20
13.221636
 30
0.0
 11
26.99747
 21
15.653036
 31
0.0
  0
ARC
  5
42
100
AcDbEntity
  8
DRAWING
100
AcDbCircle
 10
25.01907
 20
24.146236
 30
0.0
 40
3.0
100
AcDbArc
 50
0.0
 51
180.0
  0
ARC
  5
43
100
AcDbEntity
  8
DRAWING
100
AcDbCircle
 10
25.01907
 20
39.146236
 30
0.0
 40
3.0
100
AcDbArc
 50
180.0
 51
353.252158
  0
ARC
  5
44
100
AcDbEntity
  8
DRAWING
100
AcDbCircle
 10
25.01907
 20
24.146236
 30
0.0
 40
3.125
100
AcDbArc
 50
181.5275
 51
0.0
  0
LINE
  5
45
100
AcDbEntity
  8
DIM_TEXT
100
AcDbLine
 10
18.46958
 20
45.390836
 30
0.0
 11
27.68601
 21
42.526352
 31
0.0
  0
LINE
  5
46
100
AcDbEntity
  8
DRAWING
100
AcDbLine
 10
20.01907
 20
39.146236
 30
0.0
 11
20.01907
 21
24.146236
 31
0.0
  0
LINE
  5
47
100
AcDbEntity
  8
DRAWING
100
AcDbLine
 10
21.89407
 20
39.146236
 30
0.0
 11
21.89407
 21
24.146236
 31
0.0
  0
LINE
  5
48
100
AcDbEntity
  8
DRAWING
100
AcDbLine
 10
21.89407
 20
24.146236
 30
0.0
 11
21.89407
 21
14.985036
 31
0.0
  0
LINE
  5
49
100
AcDbEntity
  8
HATCH
100
AcDbLine
 10
20.47047
 20
17.156436
 30
0.0
 11
20.47047
 21
17.156436
 31
0.0
  0
LINE
  5
4A
100
AcDbEntity
  8
HATCH
100
AcDbLine
 10
20.7467
 20
16.327836
 30
0.0
 11
20.7467
 21
16.327836
 31
0.0
  0
LINE
  5
4B
100
AcDbEntity
  8
HATCH
100
AcDbLine
 10
20.47049
 20
14.946736
 30
0.0
 11
20.47049
 21
14.946736
 31
0.0
  0
LINE
  5
4C
100
AcDbEntity
  8
HATCH
100
AcDbLine
 10
21.02292
 20
15.499136
 30
0.0
 11
21.02292
 21
15.499136
 31
0.0
  0
LINE
  5
4D
100
AcDbEntity
  8
HATCH
100
AcDbLine
 10
20.47047
 20
19.366136
 30
0.0
 11
20.47047
 21
19.366136
 31
0.0
  0
LINE
  5
4E
100
AcDbEntity
  8
HATCH
100
AcDbLine
 10
20.74669
 20
18.537536
 30
0.0
 11
20.74669
 21
18.537536
 31
0.0
  0
LINE
  5
4F
100
AcDbEntity
  8
HATCH
100
AcDbLine
 10
21.0229
 20
17.708836
 30
0.0
 11
21.0229
 21
17.708836
 31
0.0
  0
LINE
  5
50
100
AcDbEntity
  8
HATCH
100
AcDbLine
 10
21.29913
 20
16.880236
 30
0.0
 11
21.29913
 21
16.880236
 31
0.0
  0
LINE
  5
51
100
AcDbEntity
  8
HATCH
100
AcDbLine
 10
21.57535
 20
16.051636
 30
0.0
 11
21.57535
 21
16.051636
 31
0.0
  0
LINE
  5
52
100
AcDbEntity
  8
HATCH
100
AcDbLine
 10
21.29912
 20
19.089936
 30
0.0
 11
21.29912
 21
19.089936
 31
0.0
  0
LINE
  5
53
100
AcDbEntity
  8
HATCH
100
AcDbLine
 10
21.57533
 20
18.261336
 30
0.0
 11
21.57533
 21
18.261336
 31
0.0
  0
LINE
  5
54
100
AcDbEntity
  8
HATCH
100
AcDbLine
 10
22.42752
 20
17.631436
 30
0.0
 11
22.48636
 21
17.652836
 31
0.0
  0
LINE
  5
55
100
AcDbEntity
  8
DRAWING
100
AcDbLine
 10
21.89407
 20
24.146236
 30
0.0
 11
20.01907
 21
24.146236
 31
0.0
  0
LINE
  5
56
100
AcDbEntity
  8
DRAWING
100
AcDbLine
 10
20.01907
 20
24.146236
 30
0.0
 11
21.89407
 21
24.146236
 31
0.0
  0
LINE
  5
57
100
AcDbEntity
  8
DRAWING
100
AcDbLine
 10
21.89407
 20
24.146236
 30
0.0
 11
20.01907
 21
24.146236
 31
0.0
  0
LINE
  5
58
100
AcDbEntity
  8
DRAWING
100
AcDbLine
 10
20.01907
 20
24.146236
 30
0.0
 11
21.89407
 21
24.146236
 31
0.0
  0
LINE
  5
59
100
AcDbEntity
  8
HATCH
100
AcDbLine
 10
20.47046
 20
21.575836
 30
0.0
 11
20.47046
 21
21.575836
 31
0.0
  0
LINE
  5
5A
100
AcDbEntity
  8
HATCH
100
AcDbLine
 10
20.74667
 20
20.747236
 30
0.0
 11
20.74667
 21
20.747236
 31
0.0
  0
LINE
  5
5B
100
AcDbEntity
  8
HATCH
100
AcDbLine
 10
21.0229
 20
19.918636
 30
0.0
 11
21.0229
 21
19.918636
 31
0.0
  0
LINE
  5
5C
100
AcDbEntity
  8
DRAWING
100
AcDbLine
 10
20.47044
 20
23.785636
 30
0.0
 11
20.47044
 21
23.785636
 31
0.0
  0
LINE
  5
5D
100
AcDbEntity
  8
DRAWING
100
AcDbLine
 10
20.74667
 20
22.956936
 30
0.0
 11
20.74667
 21
22.956936
 31
0.0
  0
LINE
  5
5E
100
AcDbEntity
  8
HATCH
100
AcDbLine
 10
21.02289
 20
22.128336
 30
0.0
 11
21.02289
 21
22.128336
 31
0.0
  0
LINE
  5
5F
100
AcDbEntity
  8
HATCH
100
AcDbLine
 10
21.2991
 20
21.299636
 30
0.0
 11
21.2991
 21
21.299636
 31
0.0
  0
LINE
  5
60
100
AcDbEntity
  8
HATCH
100
AcDbLine
 10
21.57533
 20
20.471036
 30
0.0
 11
21.57533
 21
20.471036
 31
0.0
  0
LINE
  5
61
100
AcDbEntity
  8
HATCH
100
AcDbLine
 10
22.68411
 20
21.687636
 30
0.0
 11
22.72
 21
21.738836
 31
0.0
  0
LINE
  5
62
100
AcDbEntity
  8
DRAWING
100
AcDbLine
 10
21.2991
 20
23.509336
 30
0.0
 11
21.2991
 21
23.509336
 31
0.0
  0
LINE
  5
63
100
AcDbEntity
  8
HATCH
100
AcDbLine
 10
21.85153
 20
24.061836
 30
0.0
 11
21.85153
 21
24.061836
 31
0.0
  0
LINE
  5
64
100
AcDbEntity
  8
HATCH
100
AcDbLine
 10
21.57532
 20
22.680736
 30
0.0
 11
21.57532
 21
22.680736
 31
0.0
  0
LINE
  5
65
100
AcDbEntity
  8
HATCH
100
AcDbLine
 10
20.47052
 20
25.527336
 30
0.0
 11
20.47052
 21
25.527336
 31
0.0
  0
LINE
  5
66
100
AcDbEntity
  8
HATCH
100
AcDbLine
 10
21.02295
 20
26.079736
 30
0.0
 11
21.02295
 21
26.079736
 31
0.0
  0
LINE
  5
67
100
AcDbEntity
  8
HATCH
100
AcDbLine
 10
20.57158
 20
24.698636
 30
0.0
 11
20.57158
 21
24.698636
 31
0.0
  0
LINE
  5
68
100
AcDbEntity
  8
HATCH
100
AcDbLine
 10
21.12401
 20
25.251136
 30
0.0
 11
21.12401
 21
25.251136
 31
0.0
  0
LINE
  5
69
100
AcDbEntity
  8
HATCH
100
AcDbLine
 10
20.4705
 20
27.737036
 30
0.0
 11
20.4705
 21
27.737036
 31
0.0
  0
LINE
  5
6A
100
AcDbEntity
  8
HATCH
100
AcDbLine
 10
21.02293
 20
28.289436
 30
0.0
 11
21.02293
 21
28.289436
 31
0.0
  0
LINE
  5
6B
100
AcDbEntity
  8
HATCH
100
AcDbLine
 10
20.74672
 20
26.908436
 30
0.0
 11
20.74672
 21
26.908436
 31
0.0
  0
LINE
  5
6C
100
AcDbEntity
  8
HATCH
100
AcDbLine
 10
21.40024
 20
24.422436
 30
0.0
 11
21.40024
 21
24.422436
 31
0.0
  0
LINE
  5
6D
100
AcDbEntity
  8
HATCH
100
AcDbLine
 10
21.29915
 20
27.460836
 30
0.0
 11
21.29915
 21
27.460836
 31
0.0
  0
LINE
  5
6E
100
AcDbEntity
  8
HATCH
100
AcDbLine
 10
21.57538
 20
26.632136
 30
0.0
 11
21.57538
 21
26.632136
 31
0.0
  0
LINE
  5
6F
100
AcDbEntity
  8
HATCH
100
AcDbLine
 10
22.47781
 20
27.676136
 30
0.0
 11
22.5137
 21
27.727336
 31
0.0
  0
LINE
  5
70
100
AcDbEntity
  8
HATCH
100
AcDbLine
 10
22.72806
 20
26.866036
 30
0.0
 11
22.7388
 21
26.927636
 31
0.0
  0
LINE
  5
71
100
AcDbEntity
  8
HATCH
100
AcDbLine
 10
20.47049
 20
29.946736
 30
0.0
 11
20.47049
 21
29.946736
 31
0.0
  0
LINE
  5
72
100
AcDbEntity
  8
HATCH
100
AcDbLine
 10
21.02292
 20
30.499136
 30
0.0
 11
21.02292
 21
30.499136
 31
0.0
  0
LINE
  5
73
100
AcDbEntity
  8
HATCH
100
AcDbLine
 10
20.74672
 20
29.118136
 30
0.0
 11
20.74672
 21
29.118136
 31
0.0
  0
LINE
  5
74
100
AcDbEntity
  8
HATCH
100
AcDbLine
 10
20.47047
 20
32.156436
 30
0.0
 11
20.47047
 21
32.156436
 31
0.0
  0
LINE
  5
75
100
AcDbEntity
  8
HATCH
100
AcDbLine
 10
21.0229
 20
32.708836
 30
0.0
 11
21.0229
 21
32.708836
 31
0.0
  0
LINE
  5
76
100
AcDbEntity
  8
HATCH
100
AcDbLine
 10
20.7467
 20
31.327836
 30
0.0
 11
20.7467
 21
31.327836
 31
0.0
  0
LINE
  5
77
100
AcDbEntity
  8
HATCH
100
AcDbLine
 10
21.57535
 20
31.051636
 30
0.0
 11
21.57535
 21
31.051636
 31
0.0
  0
LINE
  5
78
100
AcDbEntity
  8
HATCH
100
AcDbLine
 10
21.29915
 20
29.670536
 30
0.0
 11
21.29915
 21
29.670536
 31
0.0
  0
LINE
  5
79
100
AcDbEntity
  8
HATCH
100
AcDbLine
 10
21.57536
 20
28.841836
 30
0.0
 11
21.57536
 21
28.841836
 31
0.0
  0
LINE
  5
7A
100
AcDbEntity
  8
HATCH
100
AcDbLine
 10
21.57533
 20
33.261336
 30
0.0
 11
21.57533
 21
33.261336
 31
0.0
  0
LINE
  5
7B
100
AcDbEntity
  8
HATCH
100
AcDbLine
 10
21.29913
 20
31.880236
 30
0.0
 11
21.29913
 21
31.880236
 31
0.0
  0
LINE
  5
7C
100
AcDbEntity
  8
HATCH
100
AcDbLine
 10
22.42752
 20
32.631436
 30
0.0
 11
22.48636
 21
32.652836
 31
0.0
  0
LINE
  5
7D
100
AcDbEntity
  8
HATCH
100
AcDbLine
 10
22.47781
 20
42.676136
 30
0.0
 11
22.5137
 21
42.727336
 31
0.0
  0
LINE
  5
7E
100
AcDbEntity
  8
HATCH
100
AcDbLine
 10
20.74667
 20
35.747236
 30
0.0
 11
20.74667
 21
35.747236
 31
0.0
  0
LINE
  5
7F
100
AcDbEntity
  8
HATCH
100
AcDbLine
 10
20.47047
 20
34.366136
 30
0.0
 11
20.47047
 21
34.366136
 31
0.0
  0
LINE
  5
80
100
AcDbEntity
  8
HATCH
100
AcDbLine
 10
21.0229
 20
34.918636
 30
0.0
 11
21.0229
 21
34.918636
 31
0.0
  0
LINE
  5
81
100
AcDbEntity
  8
HATCH
100
AcDbLine
 10
20.74669
 20
33.537536
 30
0.0
 11
20.74669
 21
33.537536
 31
0.0
  0
LINE
  5
82
100
AcDbEntity
  8
HATCH
100
AcDbLine
 10
20.74667
 20
37.956936
 30
0.0
 11
20.74667
 21
37.956936
 31
0.0
  0
LINE
  5
83
100
AcDbEntity
  8
HATCH
100
AcDbLine
 10
20.47046
 20
36.575836
 30
0.0
 11
20.47046
 21
36.575836
 31
0.0
  0
LINE
  5
84
100
AcDbEntity
  8
HATCH
100
AcDbLine
 10
21.02289
 20
37.128336
 30
0.0
 11
21.02289
 21
37.128336
 31
0.0
  0
LINE
  5
85
100
AcDbEntity
  8
HATCH
100
AcDbLine
 10
21.57533
 20
35.471036
 30
0.0
 11
21.57533
 21
35.471036
 31
0.0
  0
LINE
  5
86
100
AcDbEntity
  8
HATCH
100
AcDbLine
 10
21.29912
 20
34.089936
 30
0.0
 11
21.29912
 21
34.089936
 31
0.0
  0
LINE
  5
87
100
AcDbEntity
  8
HATCH
100
AcDbLine
 10
21.57532
 20
37.680736
 30
0.0
 11
21.57532
 21
37.680736
 31
0.0
  0
LINE
  5
88
100
AcDbEntity
  8
HATCH
100
AcDbLine
 10
21.2991
 20
36.299636
 30
0.0
 11
21.2991
 21
36.299636
 31
0.0
  0
LINE
  5
89
100
AcDbEntity
  8
HATCH
100
AcDbLine
 10
22.68411
 20
36.687636
 30
0.0
 11
22.72
 21
36.738836
 31
0.0
  0
LINE
  5
8A
100
AcDbEntity
  8
DRAWING
100
AcDbLine
 10
21.89407
 20
39.146236
 30
0.0
 11
20.01907
 21
39.146236
 31
0.0
  0
LINE
  5
8B
100
AcDbEntity
  8
DRAWING
100
AcDbLine
 10
20.01907
 20
39.146236
 30
0.0
 11
21.89407
 21
39.146236
 31
0.0
  0
LINE
  5
8C
100
AcDbEntity
  8
DRAWING
100
AcDbLine
 10
21.89407
 20
39.146236
 30
0.0
 11
20.01907
 21
39.146236
 31
0.0
  0
LINE
  5
8D
100
AcDbEntity
  8
DRAWING
100
AcDbLine
 10
20.01907
 20
39.146236
 30
0.0
 11
21.89407
 21
39.146236
 31
0.0
  0
LINE
  5
8E
100
AcDbEntity
  8
HATCH
100
AcDbLine
 10
20.47044
 20
38.785636
 30
0.0
 11
20.47044
 21
38.785636
 31
0.0
  0
LINE
  5
8F
100
AcDbEntity
  8
HATCH
100
AcDbLine
 10
20.57158
 20
39.698636
 30
0.0
 11
20.57158
 21
39.698636
 31
0.0
  0
LINE
  5
90
100
AcDbEntity
  8
HATCH
100
AcDbLine
 10
21.12401
 20
40.251136
 30
0.0
 11
21.12401
 21
40.251136
 31
0.0
  0
LINE
  5
91
100
AcDbEntity
  8
HATCH
100
AcDbLine
 10
20.74672
 20
41.908436
 30
0.0
 11
20.74672
 21
41.908436
 31
0.0
  0
LINE
  5
92
100
AcDbEntity
  8
HATCH
100
AcDbLine
 10
20.47052
 20
40.527336
 30
0.0
 11
20.47052
 21
40.527336
 31
0.0
  0
LINE
  5
93
100
AcDbEntity
  8
HATCH
100
AcDbLine
 10
21.02295
 20
41.079736
 30
0.0
 11
21.02295
 21
41.079736
 31
0.0
  0
LINE
  5
94
100
AcDbEntity
  8
HATCH
100
AcDbLine
 10
21.2991
 20
38.509336
 30
0.0
 11
21.2991
 21
38.509336
 31
0.0
  0
LINE
  5
95
100
AcDbEntity
  8
HATCH
100
AcDbLine
 10
21.85153
 20
39.061836
 30
0.0
 11
21.85153
 21
39.061836
 31
0.0
  0
LINE
  5
96
100
AcDbEntity
  8
HATCH
100
AcDbLine
 10
21.40024
 20
39.422436
 30
0.0
 11
21.40024
 21
39.422436
 31
0.0
  0
LINE
  5
97
100
AcDbEntity
  8
HATCH
100
AcDbLine
 10
21.29915
 20
42.460836
 30
0.0
 11
21.29915
 21
42.460836
 31
0.0
  0
LINE
  5
98
100
AcDbEntity
  8
HATCH
100
AcDbLine
 10
21.57538
 20
41.632136
 30
0.0
 11
21.57538
 21
41.632136
 31
0.0
  0
LINE
  5
99
100
AcDbEntity
  8
HATCH
100
AcDbLine
 10
22.72806
 20
41.866036
 30
0.0
 11
22.7388
 21
41.927636
 31
0.0
  0
LINE
  5
9A
100
AcDbEntity
  8
DIM_TEXT
100
AcDbLine
 10
16.87489
 20
45.390836
 30
0.0
 11
18.46958
 21
45.390836
 31
0.0
  0
LINE
  5
9B
100
AcDbEntity
  8
HATCH
100
AcDbLine
 10
20.47049
 20
44.946736
 30
0.0
 11
20.47049
 21
44.946736
 31
0.0
  0
LINE
  5
9C
100
AcDbEntity
  8
HATCH
100
AcDbLine
 10
20.74672
 20
44.118136
 30
0.0
 11
20.74672
 21
44.118136
 31
0.0
  0
LINE
  5
9D
100
AcDbEntity
  8
HATCH
100
AcDbLine
 10
20.4705
 20
42.737036
 30
0.0
 11
20.4705
 21
42.737036
 31
0.0
  0
LINE
  5
9E
100
AcDbEntity
  8
HATCH
100
AcDbLine
 10
21.02293
 20
43.289436
 30
0.0
 11
21.02293
 21
43.289436
 31
0.0
  0
LINE
  5
9F
100
AcDbEntity
  8
HATCH
100
AcDbLine
 10
20.47047
 20
47.156436
 30
0.0
 11
20.47047
 21
47.156436
 31
0.0
  0
LINE
  5
A0
100
AcDbEntity
  8
HATCH
100
AcDbLine
 10
20.7467
 20
46.327836
 30
0.0
 11
20.7467
 21
46.327836
 31
0.0
  0
LINE
  5
A1
100
AcDbEntity
  8
HATCH
100
AcDbLine
 10
21.02292
 20
45.499136
 30
0.0
 11
21.02292
 21
45.499136
 31
0.0
  0
LINE
  5
A2
100
AcDbEntity
  8
HATCH
100
AcDbLine
 10
21.29915
 20
44.670536
 30
0.0
 11
21.29915
 21
44.670536
 31
0.0
  0
LINE
  5
A3
100
AcDbEntity
  8
HATCH
100
AcDbLine
 10
21.57536
 20
43.841836
 30
0.0
 11
21.57536
 21
43.841836
 31
0.0
  0
LINE
  5
A4
100
AcDbEntity
  8
HATCH
100
AcDbLine
 10
21.29913
 20
46.880236
 30
0.0
 11
21.29913
 21
46.880236
 31
0.0
  0
LINE
  5
A5
100
AcDbEntity
  8
HATCH
100
AcDbLine
 10
21.57535
 20
46.051636
 30
0.0
 11
21.57535
 21
46.051636
 31
0.0
  0
LINE
  5
A6
100
AcDbEntity
  8
HATCH
100
AcDbLine
 10
20.47047
 20
49.366136
 30
0.0
 11
20.47047
 21
49.366136
 31
0.0
  0
LINE
  5
A7
100
AcDbEntity
  8
HATCH
100
AcDbLine
 10
20.74669
 20
48.537536
 30
0.0
 11
20.74669
 21
48.537536
 31
0.0
  0
LINE
  5
A8
100
AcDbEntity
  8
HATCH
100
AcDbLine
 10
21.0229
 20
47.708836
 30
0.0
 11
21.0229
 21
47.708836
 31
0.0
  0
LINE
  5
A9
100
AcDbEntity
  8
HATCH
100
AcDbLine
 10
20.47046
 20
51.575836
 30
0.0
 11
20.47046
 21
51.575836
 31
0.0
  0
LINE
  5
AA
100
AcDbEntity
  8
HATCH
100
AcDbLine
 10
20.74667
 20
50.747236
 30
0.0
 11
20.74667
 21
50.747236
 31
0.0
  0
LINE
  5
AB
100
AcDbEntity
  8
HATCH
100
AcDbLine
 10
21.0229
 20
49.918636
 30
0.0
 11
21.0229
 21
49.918636
 31
0.0
  0
LINE
  5
AC
100
AcDbEntity
  8
HATCH
100
AcDbLine
 10
21.29912
 20
49.089936
 30
0.0
 11
21.29912
 21
49.089936
 31
0.0
  0
LINE
  5
AD
100
AcDbEntity
  8
HATCH
100
AcDbLine
 10
21.57533
 20
48.261336
 30
0.0
 11
21.57533
 21
48.261336
 31
0.0
  0
LINE
  5
AE
100
AcDbEntity
  8
HATCH
100
AcDbLine
 10
22.42752
 20
47.631436
 30
0.0
 11
22.48636
 21
47.652836
 31
0.0
  0
LINE
  5
AF
100
AcDbEntity
  8
HATCH
100
AcDbLine
 10
21.2991
 20
51.299636
 30
0.0
 11
21.2991
 21
51.299636
 31
0.0
  0
LINE
  5
B0
100
AcDbEntity
  8
HATCH
100
AcDbLine
 10
21.57533
 20
50.471036
 30
0.0
 11
21.57533
 21
50.471036
 31
0.0
  0
LINE
  5
B1
100
AcDbEntity
  8
HATCH
100
AcDbLine
 10
22.68411
 20
51.687636
 30
0.0
 11
22.72
 21
51.738836
 31
0.0
  0
LINE
  5
B2
100
AcDbEntity
  8
DRAWING
100
AcDbLine
 10
30.01907
 20
24.146236
 30
0.0
 11
30.01907
 21
38.793736
 31
0.0
  0
LINE
  5
B3
100
AcDbEntity
  8
DRAWING
100
AcDbLine
 10
28.14407
 20
24.146236
 30
0.0
 11
28.14407
 21
37.874036
 31
0.0
  0
LINE
  5
B4
100
AcDbEntity
  8
DIM_TEXT
100
AcDbLine
 10
36.61653
 20
32.981036
 30
0.0
 11
35.18456
 21
35.222436
 31
0.0
  0
LINE
  5
B5
100
AcDbEntity
  8
HATCH
100
AcDbLine
 10
26.99747
 20
15.653036
 30
0.0
 11
30.53219
 21
16.115636
 31
0.0
  0
CIRCLE
  5
B6
100
AcDbEntity
  8
DRAWING
100
AcDbCircle
 10
25.883288
 20
22.304045
 30
0.0
 40
0.375
  0
LINE
  5
B7
100
AcDbEntity
  8
HATCH
100
AcDbLine
 10
24.77688
 20
18.486536
 30
0.0
 11
24.83572
 21
18.507836
 31
0.0
  0
LINE
  5
B8
100
AcDbEntity
  8
HATCH
100
AcDbLine
 10
23.3506
 20
15.175636
 30
0.0
 11
24.21251
 21
17.474136
 31
0.0
  0
LINE
  5
B9
100
AcDbEntity
  8
HATCH
100
AcDbLine
 10
23.2825
 20
15.282236
 30
0.0
 11
23.34134
 21
15.303536
 31
0.0
  0
LINE
  5
BA
100
AcDbEntity
  8
HATCH
100
AcDbLine
 10
23.59622
 20
16.790136
 30
0.0
 11
23.60696
 21
16.851736
 31
0.0
  0
LINE
  5
BB
100
AcDbEntity
  8
HATCH
100
AcDbLine
 10
23.29812
 20
18.205736
 30
0.0
 11
23.33401
 21
18.256936
 31
0.0
  0
LINE
  5
BC
100
AcDbEntity
  8
HATCH
100
AcDbLine
 10
24.0303
 20
19.252136
 30
0.0
 11
24.04104
 21
19.313736
 31
0.0
  0
LINE
  5
BD
100
AcDbEntity
  8
HATCH
100
AcDbLine
 10
25.34598
 20
16.771936
 30
0.0
 11
25.38187
 21
16.823136
 31
0.0
  0
LINE
  5
BE
100
AcDbEntity
  8
HATCH
100
AcDbLine
 10
26.05789
 20
16.356036
 30
0.0
 11
26.06863
 21
16.417636
 31
0.0
  0
LINE
  5
BF
100
AcDbEntity
  8
HATCH
100
AcDbLine
 10
26.49197
 20
18.818136
 30
0.0
 11
26.50271
 21
18.879636
 31
0.0
  0
LINE
  5
C0
100
AcDbEntity
  8
HATCH
100
AcDbLine
 10
24.1243
 20
21.885636
 30
0.0
 11
24.11062
 21
21.808736
 31
0.0
  0
LINE
  5
C1
100
AcDbEntity
  8
HATCH
100
AcDbLine
 10
23.9219
 20
20.835736
 30
0.0
 11
23.98074
 21
20.857136
 31
0.0
  0
LINE
  5
C2
100
AcDbEntity
  8
HATCH
100
AcDbLine
 10
24.73221
 20
20.253636
 30
0.0
 11
24.7681
 21
20.304836
 31
0.0
  0
LINE
  5
C3
100
AcDbEntity
  8
HATCH
100
AcDbLine
 10
23.21951
 20
24.034036
 30
0.0
 11
23.17459
 21
23.970036
 31
0.0
  0
LINE
  5
C4
100
AcDbEntity
  8
HATCH
100
AcDbLine
 10
25.53836
 20
22.025736
 30
0.0
 11
25.46487
 21
21.998936
 31
0.0
  0
LINE
  5
C5
100
AcDbEntity
  8
HATCH
100
AcDbLine
 10
25.26956
 20
22.858436
 30
0.0
 11
25.22464
 21
22.794436
 31
0.0
  0
LINE
  5
C6
100
AcDbEntity
  8
DRAWING
100
AcDbLine
 10
30.01907
 20
16.048536
 30
0.0
 11
30.01907
 21
24.146236
 31
0.0
  0
LINE
  5
C7
100
AcDbEntity
  8
DRAWING
100
AcDbLine
 10
28.14407
 20
15.803036
 30
0.0
 11
28.14407
 21
24.146236
 31
0.0
  0
LINE
  5
C8
100
AcDbEntity
  8
HATCH
100
AcDbLine
 10
27.12625
 20
19.341536
 30
0.0
 11
27.18509
 21
19.362936
 31
0.0
  0
LINE
  5
C9
100
AcDbEntity
  8
HATCH
100
AcDbLine
 10
29.29144
 20
16.327836
 30
0.0
 11
29.29144
 21
16.327836
 31
0.0
  0
LINE
  5
CA
100
AcDbEntity
  8
HATCH
100
AcDbLine
 10
28.73901
 20
16.880236
 30
0.0
 11
28.73901
 21
16.880236
 31
0.0
  0
LINE
  5
CB
100
AcDbEntity
  8
HATCH
100
AcDbLine
 10
28.4628
 20
16.051636
 30
0.0
 11
28.4628
 21
16.051636
 31
0.0
  0
LINE
  5
CC
100
AcDbEntity
  8
HATCH
100
AcDbLine
 10
29.56767
 20
17.156436
 30
0.0
 11
29.56767
 21
17.156436
 31
0.0
  0
LINE
  5
CD
100
AcDbEntity
  8
HATCH
100
AcDbLine
 10
29.29146
 20
18.537536
 30
0.0
 11
29.29146
 21
18.537536
 31
0.0
  0
LINE
  5
CE
100
AcDbEntity
  8
HATCH
100
AcDbLine
 10
28.73903
 20
19.089936
 30
0.0
 11
28.73903
 21
19.089936
 31
0.0
  0
LINE
  5
CF
100
AcDbEntity
  8
HATCH
100
AcDbLine
 10
29.01524
 20
17.708836
 30
0.0
 11
29.01524
 21
17.708836
 31
0.0
  0
LINE
  5
D0
100
AcDbEntity
  8
HATCH
100
AcDbLine
 10
28.46281
 20
18.261336
 30
0.0
 11
28.46281
 21
18.261336
 31
0.0
  0
LINE
  5
D1
100
AcDbEntity
  8
HATCH
100
AcDbLine
 10
29.56767
 20
19.366136
 30
0.0
 11
29.56767
 21
19.366136
 31
0.0
  0
LINE
  5
D2
100
AcDbEntity
  8
DRAWING
100
AcDbLine
 10
30.01907
 20
24.146236
 30
0.0
 11
28.14407
 21
24.146236
 31
0.0
  0
LINE
  5
D3
100
AcDbEntity
  8
DRAWING
100
AcDbLine
 10
28.14407
 20
24.146236
 30
0.0
 11
30.01907
 21
24.146236
 31
0.0
  0
LINE
  5
D4
100
AcDbEntity
  8
DRAWING
100
AcDbLine
 10
30.01907
 20
24.146236
 30
0.0
 11
28.14407
 21
24.146236
 31
0.0
  0
LINE
  5
D5
100
AcDbEntity
  8
DRAWING
100
AcDbLine
 10
28.14407
 20
24.146236
 30
0.0
 11
30.01907
 21
24.146236
 31
0.0
  0
LINE
  5
D6
100
AcDbEntity
  8
HATCH
100
AcDbLine
 10
26.92605
 20
21.280136
 30
0.0
 11
26.9368
 21
21.341636
 31
0.0
  0
LINE
  5
D7
100
AcDbEntity
  8
HATCH
100
AcDbLine
 10
28.18661
 20
24.061836
 30
0.0
 11
28.18661
 21
24.061836
 31
0.0
  0
LINE
  5
D8
100
AcDbEntity
  8
HATCH
100
AcDbLine
 10
29.29147
 20
20.747236
 30
0.0
 11
29.29147
 21
20.747236
 31
0.0
  0
LINE
  5
D9
100
AcDbEntity
  8
HATCH
100
AcDbLine
 10
28.73904
 20
21.299636
 30
0.0
 11
28.73904
 21
21.299636
 31
0.0
  0
LINE
  5
DA
100
AcDbEntity
  8
HATCH
100
AcDbLine
 10
29.01524
 20
19.918636
 30
0.0
 11
29.01524
 21
19.918636
 31
0.0
  0
LINE
  5
DB
100
AcDbEntity
  8
HATCH
100
AcDbLine
 10
28.46281
 20
20.471036
 30
0.0
 11
28.46281
 21
20.471036
 31
0.0
  0
LINE
  5
DC
100
AcDbEntity
  8
HATCH
100
AcDbLine
 10
29.56769
 20
21.575836
 30
0.0
 11
29.56769
 21
21.575836
 31
0.0
  0
LINE
  5
DD
100
AcDbEntity
  8
DRAWING
100
AcDbLine
 10
29.29147
 20
22.956936
 30
0.0
 11
29.29147
 21
22.956936
 31
0.0
  0
LINE
  5
DE
100
AcDbEntity
  8
DRAWING
100
AcDbLine
 10
28.73904
 20
23.509336
 30
0.0
 11
28.73904
 21
23.509336
 31
0.0
  0
LINE
  5
DF
100
AcDbEntity
  8
HATCH
100
AcDbLine
 10
29.01526
 20
22.128336
 30
0.0
 11
29.01526
 21
22.128336
 31
0.0
  0
LINE
  5
E0
100
AcDbEntity
  8
HATCH
100
AcDbLine
 10
28.46283
 20
22.680736
 30
0.0
 11
28.46283
 21
22.680736
 31
0.0
  0
LINE
  5
E1
100
AcDbEntity
  8
DRAWING
100
AcDbLine
 10
29.5677
 20
23.785636
 30
0.0
 11
29.5677
 21
23.785636
 31
0.0
  0
LINE
  5
E2
100
AcDbEntity
  8
HATCH
100
AcDbLine
 10
24.13748
 20
27.933036
 30
0.0
 11
24.19632
 21
27.954336
 31
0.0
  0
LINE
  5
E3
100
AcDbEntity
  8
HATCH
100
AcDbLine
 10
25.34598
 20
25.097836
 30
0.0
 11
25.38187
 21
25.149036
 31
0.0
  0
LINE
  5
E4
100
AcDbEntity
  8
HATCH
100
AcDbLine
 10
26.05789
 20
24.681936
 30
0.0
 11
26.06863
 21
24.743536
 31
0.0
  0
LINE
  5
E5
100
AcDbEntity
  8
HATCH
100
AcDbLine
 10
25.01199
 20
26.593936
 30
0.0
 11
24.96707
 21
26.529936
 31
0.0
  0
LINE
  5
E6
100
AcDbEntity
  8
HATCH
100
AcDbLine
 10
25.57107
 20
27.095036
 30
0.0
 11
25.56009
 21
27.033536
 31
0.0
  0
LINE
  5
E7
100
AcDbEntity
  8
HATCH
100
AcDbLine
 10
26.48685
 20
28.788036
 30
0.0
 11
26.54568
 21
28.809436
 31
0.0
  0
LINE
  5
E8
100
AcDbEntity
  8
HATCH
100
AcDbLine
 10
25.95975
 20
28.290036
 30
0.0
 11
25.99563
 21
28.341336
 31
0.0
  0
LINE
  5
E9
100
AcDbEntity
  8
HATCH
100
AcDbLine
 10
23.91189
 20
29.724036
 30
0.0
 11
23.94778
 21
29.775236
 31
0.0
  0
LINE
  5
EA
100
AcDbEntity
  8
HATCH
100
AcDbLine
 10
23.2825
 20
30.282236
 30
0.0
 11
23.34134
 21
30.303536
 31
0.0
  0
LINE
  5
EB
100
AcDbEntity
  8
HATCH
100
AcDbLine
 10
23.16214
 20
29.328136
 30
0.0
 11
23.17288
 21
29.389636
 31
0.0
  0
LINE
  5
EC
100
AcDbEntity
  8
HATCH
100
AcDbLine
 10
23.29812
 20
33.205736
 30
0.0
 11
23.33401
 21
33.256936
 31
0.0
  0
LINE
  5
ED
100
AcDbEntity
  8
HATCH
100
AcDbLine
 10
23.59622
 20
31.790136
 30
0.0
 11
23.60696
 21
31.851736
 31
0.0
  0
LINE
  5
EE
100
AcDbEntity
  8
HATCH
100
AcDbLine
 10
25.62381
 20
28.894036
 30
0.0
 11
25.63455
 21
28.955536
 31
0.0
  0
LINE
  5
EF
100
AcDbEntity
  8
HATCH
100
AcDbLine
 10
25.70676
 20
31.981636
 30
0.0
 11
25.76559
 21
32.002936
 31
0.0
  0
LINE
  5
F0
100
AcDbEntity
  8
HATCH
100
AcDbLine
 10
25.42087
 20
32.616236
 30
0.0
 11
25.45676
 21
32.667436
 31
0.0
  0
LINE
  5
F1
100
AcDbEntity
  8
HATCH
100
AcDbLine
 10
25.34598
 20
31.771936
 30
0.0
 11
25.38187
 21
31.823136
 31
0.0
  0
LINE
  5
F2
100
AcDbEntity
  8
HATCH
100
AcDbLine
 10
26.13278
 20
32.200436
 30
0.0
 11
26.14352
 21
32.261936
 31
0.0
  0
LINE
  5
F3
100
AcDbEntity
  8
HATCH
100
AcDbLine
 10
26.05789
 20
31.356036
 30
0.0
 11
26.06863
 21
31.417636
 31
0.0
  0
LINE
  5
F4
100
AcDbEntity
  8
HATCH
100
AcDbLine
 10
27.34158
 20
26.438836
 30
0.0
 11
27.40042
 21
26.460136
 31
0.0
  0
LINE
  5
F5
100
AcDbEntity
  8
HATCH
100
AcDbLine
 10
28.91414
 20
25.251136
 30
0.0
 11
28.91414
 21
25.251136
 31
0.0
  0
LINE
  5
F6
100
AcDbEntity
  8
HATCH
100
AcDbLine
 10
28.63791
 20
24.422436
 30
0.0
 11
28.63791
 21
24.422436
 31
0.0
  0
LINE
  5
F7
100
AcDbEntity
  8
HATCH
100
AcDbLine
 10
29.0152
 20
26.079736
 30
0.0
 11
29.0152
 21
26.079736
 31
0.0
  0
LINE
  5
F8
100
AcDbEntity
  8
HATCH
100
AcDbLine
 10
29.46657
 20
24.698636
 30
0.0
 11
29.46657
 21
24.698636
 31
0.0
  0
LINE
  5
F9
100
AcDbEntity
  8
HATCH
100
AcDbLine
 10
29.56763
 20
25.527336
 30
0.0
 11
29.56763
 21
25.527336
 31
0.0
  0
LINE
  5
FA
100
AcDbEntity
  8
HATCH
100
AcDbLine
 10
29.01521
 20
28.289436
 30
0.0
 11
29.01521
 21
28.289436
 31
0.0
  0
LINE
  5
FB
100
AcDbEntity
  8
HATCH
100
AcDbLine
 10
29.29143
 20
26.908436
 30
0.0
 11
29.29143
 21
26.908436
 31
0.0
  0
LINE
  5
FC
100
AcDbEntity
  8
HATCH
100
AcDbLine
 10
28.739
 20
27.460836
 30
0.0
 11
28.739
 21
27.460836
 31
0.0
  0
LINE
  5
FD
100
AcDbEntity
  8
HATCH
100
AcDbLine
 10
28.46277
 20
26.632136
 30
0.0
 11
28.46277
 21
26.632136
 31
0.0
  0
LINE
  5
FE
100
AcDbEntity
  8
HATCH
100
AcDbLine
 10
29.56764
 20
27.737036
 30
0.0
 11
29.56764
 21
27.737036
 31
0.0
  0
LINE
  5
FF
100
AcDbEntity
  8
HATCH
100
AcDbLine
 10
27.39383
 20
30.337936
 30
0.0
 11
27.42972
 21
30.389136
 31
0.0
  0
LINE
  5
100
100
AcDbEntity
  8
HATCH
100
AcDbLine
 10
29.01523
 20
30.499136
 30
0.0
 11
29.01523
 21
30.499136
 31
0.0
  0
LINE
  5
101
100
AcDbEntity
  8
HATCH
100
AcDbLine
 10
28.4628
 20
31.051636
 30
0.0
 11
28.4628
 21
31.051636
 31
0.0
  0
LINE
  5
102
100
AcDbEntity
  8
HATCH
100
AcDbLine
 10
29.29143
 20
29.118136
 30
0.0
 11
29.29143
 21
29.118136
 31
0.0
  0
LINE
  5
103
100
AcDbEntity
  8
HATCH
100
AcDbLine
 10
28.739
 20
29.670536
 30
0.0
 11
28.739
 21
29.670536
 31
0.0
  0
LINE
  5
104
100
AcDbEntity
  8
HATCH
100
AcDbLine
 10
28.46278
 20
28.841836
 30
0.0
 11
28.46278
 21
28.841836
 31
0.0
  0
LINE
  5
105
100
AcDbEntity
  8
HATCH
100
AcDbLine
 10
29.56766
 20
29.946736
 30
0.0
 11
29.56766
 21
29.946736
 31
0.0
  0
LINE
  5
106
100
AcDbEntity
  8
HATCH
100
AcDbLine
 10
29.01524
 20
32.708836
 30
0.0
 11
29.01524
 21
32.708836
 31
0.0
  0
LINE
  5
107
100
AcDbEntity
  8
HATCH
100
AcDbLine
 10
28.46281
 20
33.261336
 30
0.0
 11
28.46281
 21
33.261336
 31
0.0
  0
LINE
  5
108
100
AcDbEntity
  8
HATCH
100
AcDbLine
 10
29.29144
 20
31.327836
 30
0.0
 11
29.29144
 21
31.327836
 31
0.0
  0
LINE
  5
109
100
AcDbEntity
  8
HATCH
100
AcDbLine
 10
28.73901
 20
31.880236
 30
0.0
 11
28.73901
 21
31.880236
 31
0.0
  0
LINE
  5
10A
100
AcDbEntity
  8
HATCH
100
AcDbLine
 10
29.56767
 20
32.156436
 30
0.0
 11
29.56767
 21
32.156436
 31
0.0
  0
LINE
  5
10B
100
AcDbEntity
  8
DRAWING
100
AcDbLine
 10
33.59396
 20
36.333736
 30
0.0
 11
30.09396
 21
36.333736
 31
0.0
  0
LINE
  5
10C
100
AcDbEntity
  8
HATCH
100
AcDbLine
 10
30.09396
 20
36.333736
 30
0.0
 11
33.59396
 21
41.958736
 31
0.0
  0
LINE
  5
10D
100
AcDbEntity
  8
HATCH
100
AcDbLine
 10
30.09396
 20
41.958736
 30
0.0
 11
33.59396
 21
36.333736
 31
0.0
  0
LINE
  5
10E
100
AcDbEntity
  8
DRAWING
100
AcDbLine
 10
33.59396
 20
39.543736
 30
0.0
 11
25.83884
 21
39.543736
 31
0.0
  0
LINE
  5
10F
100
AcDbEntity
  8
DRAWING
100
AcDbLine
 10
33.59396
 20
38.793736
 30
0.0
 11
26.21384
 21
38.793736
 31
0.0
  0
LINE
  5
110
100
AcDbEntity
  8
DIM_TEXT
100
AcDbLine
 10
28.76032
 20
42.192452
 30
0.0
 11
27.79731
 21
42.884452
 31
0.0
  0
LINE
  5
111
100
AcDbEntity
  8
DIM_TEXT
100
AcDbLine
 10
27.57471
 20
42.168252
 30
0.0
 11
27.79731
 21
42.884452
 31
0.0
  0
LINE
  5
112
100
AcDbEntity
  8
DIM_TEXT
100
AcDbLine
 10
28.76032
 20
42.192452
 30
0.0
 11
27.57471
 21
42.168252
 31
0.0
  0
LINE
  5
113
100
AcDbEntity
  8
HATCH
100
AcDbLine
 10
26.56174
 20
36.306536
 30
0.0
 11
26.62057
 21
36.327836
 31
0.0
  0
ARC
  5
114
100
AcDbEntity
  8
DRAWING
100
AcDbCircle
 10
25.83884
 20
38.793736
 30
0.0
 40
0.749981
100
AcDbArc
 50
90.00001
 51
180.0
  0
LINE
  5
115
100
AcDbEntity
  8
HATCH
100
AcDbLine
 10
24.77688
 20
33.486536
 30
0.0
 11
24.83572
 21
33.507836
 31
0.0
  0
LINE
  5
116
100
AcDbEntity
  8
HATCH
100
AcDbLine
 10
24.21237
 20
35.451436
 30
0.0
 11
24.27121
 21
35.472736
 31
0.0
  0
LINE
  5
117
100
AcDbEntity
  8
HATCH
100
AcDbLine
 10
24.73221
 20
35.253636
 30
0.0
 11
24.7681
 21
35.304836
 31
0.0
  0
LINE
  5
118
100
AcDbEntity
  8
HATCH
100
AcDbLine
 10
24.0303
 20
34.252136
 30
0.0
 11
24.04104
 21
34.313736
 31
0.0
  0
LINE
  5
119
100
AcDbEntity
  8
HATCH
100
AcDbLine
 10
23.9219
 20
35.835736
 30
0.0
 11
23.98074
 21
35.857136
 31
0.0
  0
LINE
  5
11A
100
AcDbEntity
  8
HATCH
100
AcDbLine
 10
23.35739
 20
37.800636
 30
0.0
 11
23.41623
 21
37.822036
 31
0.0
  0
LINE
  5
11B
100
AcDbEntity
  8
HATCH
100
AcDbLine
 10
23.23703
 20
36.846536
 30
0.0
 11
23.24777
 21
36.908036
 31
0.0
  0
LINE
  5
11C
100
AcDbEntity
  8
HATCH
100
AcDbLine
 10
23.98678
 20
37.242436
 30
0.0
 11
24.02267
 21
37.293636
 31
0.0
  0
LINE
  5
11D
100
AcDbEntity
  8
HATCH
100
AcDbLine
 10
24.1243
 20
36.885636
 30
0.0
 11
24.11062
 21
36.808736
 31
0.0
  0
LINE
  5
11E
100
AcDbEntity
  8
HATCH
100
AcDbLine
 10
25.08688
 20
34.112336
 30
0.0
 11
25.04196
 21
34.048336
 31
0.0
  0
LINE
  5
11F
100
AcDbEntity
  8
HATCH
100
AcDbLine
 10
25.64596
 20
34.613536
 30
0.0
 11
25.63498
 21
34.551936
 31
0.0
  0
LINE
  5
120
100
AcDbEntity
  8
HATCH
100
AcDbLine
 10
26.49197
 20
33.818136
 30
0.0
 11
26.50271
 21
33.879636
 31
0.0
  0
LINE
  5
121
100
AcDbEntity
  8
DRAWING
100
AcDbLine
 10
25.83884
 20
37.525536
 30
0.0
 11
25.08884
 21
37.525536
 31
0.0
  0
LINE
  5
122
100
AcDbEntity
  8
HATCH
100
AcDbLine
 10
25.6987
 20
36.412436
 30
0.0
 11
25.70944
 21
36.473936
 31
0.0
  0
LINE
  5
123
100
AcDbEntity
  8
DRAWING
100
AcDbLine
 10
25.08884
 20
38.793736
 30
0.0
 11
25.08884
 21
37.525536
 31
0.0
  0
LINE
  5
124
100
AcDbEntity
  8
HATCH
100
AcDbLine
 10
25.53836
 20
37.025736
 30
0.0
 11
25.46487
 21
36.998936
 31
0.0
  0
LINE
  5
125
100
AcDbEntity
  8
HATCH
100
AcDbLine
 10
25.26956
 20
37.858436
 30
0.0
 11
25.22464
 21
37.794436
 31
0.0
  0
LINE
  5
126
100
AcDbEntity
  8
HATCH
100
AcDbLine
 10
26.03464
 20
35.808536
 30
0.0
 11
26.07052
 21
35.859736
 31
0.0
  0
ARC
  5
127
100
AcDbEntity
  8
DRAWING
100
AcDbCircle
 10
26.21384
 20
38.418736
 30
0.0
 40
0.374991
100
AcDbArc
 50
90.00001
 51
180.0
  0
LINE
  5
128
100
AcDbEntity
  8
DRAWING
100
AcDbLine
 10
25.83884
 20
38.418736
 30
0.0
 11
25.83884
 21
37.525536
 31
0.0
  0
LINE
  5
129
100
AcDbEntity
  8
DRAWING
100
AcDbLine
 10
23.92697
 20
42.874036
 30
0.0
 11
23.92697
 21
41.338436
 31
0.0
  0
LINE
  5
12A
100
AcDbEntity
  8
HATCH
100
AcDbLine
 10
23.67111
 20
39.308536
 30
0.0
 11
23.68185
 21
39.370136
 31
0.0
  0
LINE
  5
12B
100
AcDbEntity
  8
HATCH
100
AcDbLine
 10
23.21951
 20
39.034036
 30
0.0
 11
23.17459
 21
38.970036
 31
0.0
  0
LINE
  5
12C
100
AcDbEntity
  8
HATCH
100
AcDbLine
 10
23.37302
 20
40.724236
 30
0.0
 11
23.4089
 21
40.775336
 31
0.0
  0
LINE
  5
12D
100
AcDbEntity
  8
HATCH
100
AcDbLine
 10
24.10519
 20
41.770636
 30
0.0
 11
24.11593
 21
41.832136
 31
0.0
  0
CIRCLE
  5
12E
100
AcDbEntity
  8
DRAWING
100
AcDbCircle
 10
25.81395
 20
36.953597
 30
0.0
 40
0.375
  0
LINE
  5
12F
100
AcDbEntity
  8
HATCH
100
AcDbLine
 10
25.70676
 20
38.655636
 30
0.0
 11
25.76559
 21
38.677036
 31
0.0
  0
LINE
  5
130
100
AcDbEntity
  8
HATCH
100
AcDbLine
 10
25.42087
 20
39.290336
 30
0.0
 11
25.45676
 21
39.341536
 31
0.0
  0
LINE
  5
131
100
AcDbEntity
  8
HATCH
100
AcDbLine
 10
25.34598
 20
40.097836
 30
0.0
 11
25.38187
 21
40.149036
 31
0.0
  0
LINE
  5
132
100
AcDbEntity
  8
HATCH
100
AcDbLine
 10
26.13278
 20
38.874536
 30
0.0
 11
26.14352
 21
38.936036
 31
0.0
  0
LINE
  5
133
100
AcDbEntity
  8
HATCH
100
AcDbLine
 10
26.05789
 20
39.681936
 30
0.0
 11
26.06863
 21
39.743536
 31
0.0
  0
LINE
  5
134
100
AcDbEntity
  8
HATCH
100
AcDbLine
 10
24.85177
 20
41.004936
 30
0.0
 11
24.91061
 21
41.026236
 31
0.0
  0
LINE
  5
135
100
AcDbEntity
  8
HATCH
100
AcDbLine
 10
25.01199
 20
41.593936
 30
0.0
 11
24.96707
 21
41.529936
 31
0.0
  0
LINE
  5
136
100
AcDbEntity
  8
HATCH
100
AcDbLine
 10
25.57107
 20
42.095036
 30
0.0
 11
25.56009
 21
42.033536
 31
0.0
  0
LINE
  5
137
100
AcDbEntity
  8
HATCH
100
AcDbLine
 10
26.56686
 20
41.336536
 30
0.0
 11
26.5776
 21
41.398036
 31
0.0
  0
LINE
  5
138
100
AcDbEntity
  8
HATCH
100
AcDbLine
 10
27.12625
 20
34.341536
 30
0.0
 11
27.18509
 21
34.362936
 31
0.0
  0
LINE
  5
139
100
AcDbEntity
  8
HATCH
100
AcDbLine
 10
27.46872
 20
37.856436
 30
0.0
 11
27.50461
 21
37.907536
 31
0.0
  0
LINE
  5
13A
100
AcDbEntity
  8
HATCH
100
AcDbLine
 10
26.92605
 20
36.280136
 30
0.0
 11
26.9368
 21
36.341636
 31
0.0
  0
LINE
  5
13B
100
AcDbEntity
  8
HATCH
100
AcDbLine
 10
29.29147
 20
35.747236
 30
0.0
 11
29.29147
 21
35.747236
 31
0.0
  0
LINE
  5
13C
100
AcDbEntity
  8
HATCH
100
AcDbLine
 10
29.01524
 20
34.918636
 30
0.0
 11
29.01524
 21
34.918636
 31
0.0
  0
LINE
  5
13D
100
AcDbEntity
  8
HATCH
100
AcDbLine
 10
28.46281
 20
35.471036
 30
0.0
 11
28.46281
 21
35.471036
 31
0.0
  0
LINE
  5
13E
100
AcDbEntity
  8
HATCH
100
AcDbLine
 10
29.29146
 20
33.537536
 30
0.0
 11
29.29146
 21
33.537536
 31
0.0
  0
LINE
  5
13F
100
AcDbEntity
  8
HATCH
100
AcDbLine
 10
28.73903
 20
34.089936
 30
0.0
 11
28.73903
 21
34.089936
 31
0.0
  0
LINE
  5
140
100
AcDbEntity
  8
HATCH
100
AcDbLine
 10
29.56767
 20
34.366136
 30
0.0
 11
29.56767
 21
34.366136
 31
0.0
  0
LINE
  5
141
100
AcDbEntity
  8
HATCH
100
AcDbLine
 10
29.29147
 20
37.956936
 30
0.0
 11
29.29147
 21
37.956936
 31
0.0
  0
LINE
  5
142
100
AcDbEntity
  8
HATCH
100
AcDbLine
 10
29.01526
 20
37.128336
 30
0.0
 11
29.01526
 21
37.128336
 31
0.0
  0
LINE
  5
143
100
AcDbEntity
  8
HATCH
100
AcDbLine
 10
28.46283
 20
37.680736
 30
0.0
 11
28.46283
 21
37.680736
 31
0.0
  0
LINE
  5
144
100
AcDbEntity
  8
HATCH
100
AcDbLine
 10
28.73904
 20
36.299636
 30
0.0
 11
28.73904
 21
36.299636
 31
0.0
  0
LINE
  5
145
100
AcDbEntity
  8
HATCH
100
AcDbLine
 10
29.56769
 20
36.575836
 30
0.0
 11
29.56769
 21
36.575836
 31
0.0
  0
LINE
  5
146
100
AcDbEntity
  8
HATCH
100
AcDbLine
 10
27.20114
 20
41.859936
 30
0.0
 11
27.25998
 21
41.881336
 31
0.0
  0
LINE
  5
147
100
AcDbEntity
  8
HATCH
100
AcDbLine
 10
26.85495
 20
41.338236
 30
0.0
 11
26.89084
 21
41.389336
 31
0.0
  0
LINE
  5
148
100
AcDbEntity
  8
HATCH
100
AcDbLine
 10
27.34158
 20
41.438836
 30
0.0
 11
27.40042
 21
41.460136
 31
0.0
  0
LINE
  5
149
100
AcDbEntity
  8
HATCH
100
AcDbLine
 10
28.73904
 20
38.509336
 30
0.0
 11
28.73904
 21
38.509336
 31
0.0
  0
LINE
  5
14A
100
AcDbEntity
  8
HATCH
100
AcDbLine
 10
29.5677
 20
38.785636
 30
0.0
 11
29.5677
 21
38.785636
 31
0.0
  0
LINE
  5
14B
100
AcDbEntity
  8
HATCH
100
AcDbLine
 10
23.91189
 20
44.724036
 30
0.0
 11
23.94778
 21
44.775236
 31
0.0
  0
LINE
  5
14C
100
AcDbEntity
  8
HATCH
100
AcDbLine
 10
23.16214
 20
44.328136
 30
0.0
 11
23.17288
 21
44.389636
 31
0.0
  0
LINE
  5
14D
100
AcDbEntity
  8
HATCH
100
AcDbLine
 10
24.13748
 20
42.933036
 30
0.0
 11
24.19632
 21
42.954336
 31
0.0
  0
LINE
  5
14E
100
AcDbEntity
  8
HATCH
100
AcDbLine
 10
23.2825
 20
45.282236
 30
0.0
 11
23.34134
 21
45.303536
 31
0.0
  0
LINE
  5
14F
100
AcDbEntity
  8
HATCH
100
AcDbLine
 10
23.59622
 20
46.790136
 30
0.0
 11
23.60696
 21
46.851736
 31
0.0
  0
LINE
  5
150
100
AcDbEntity
  8
HATCH
100
AcDbLine
 10
25.62381
 20
43.894036
 30
0.0
 11
25.63455
 21
43.955536
 31
0.0
  0
LINE
  5
151
100
AcDbEntity
  8
HATCH
100
AcDbLine
 10
26.48685
 20
43.788036
 30
0.0
 11
26.54568
 21
43.809436
 31
0.0
  0
LINE
  5
152
100
AcDbEntity
  8
HATCH
100
AcDbLine
 10
27.50924
 20
42.808452
 30
0.0
 11
27.54512
 21
42.859752
 31
0.0
  0
LINE
  5
153
100
AcDbEntity
  8
HATCH
100
AcDbLine
 10
25.34598
 20
46.771936
 30
0.0
 11
25.38187
 21
46.823136
 31
0.0
  0
LINE
  5
154
100
AcDbEntity
  8
HATCH
100
AcDbLine
 10
26.05789
 20
46.356036
 30
0.0
 11
26.06863
 21
46.417636
 31
0.0
  0
LINE
  5
155
100
AcDbEntity
  8
HATCH
100
AcDbLine
 10
24.77688
 20
48.486536
 30
0.0
 11
24.83572
 21
48.507836
 31
0.0
  0
LINE
  5
156
100
AcDbEntity
  8
HATCH
100
AcDbLine
 10
23.29812
 20
48.205736
 30
0.0
 11
23.33401
 21
48.256936
 31
0.0
  0
LINE
  5
157
100
AcDbEntity
  8
HATCH
100
AcDbLine
 10
24.0303
 20
49.252136
 30
0.0
 11
24.04104
 21
49.313736
 31
0.0
  0
LINE
  5
158
100
AcDbEntity
  8
HATCH
100
AcDbLine
 10
23.9219
 20
50.835736
 30
0.0
 11
23.98074
 21
50.857136
 31
0.0
  0
LINE
  5
159
100
AcDbEntity
  8
HATCH
100
AcDbLine
 10
24.73221
 20
50.253636
 30
0.0
 11
24.7681
 21
50.304836
 31
0.0
  0
LINE
  5
15A
100
AcDbEntity
  8
HATCH
100
AcDbLine
 10
24.1243
 20
51.885636
 30
0.0
 11
24.11062
 21
51.808736
 31
0.0
  0
LINE
  5
15B
100
AcDbEntity
  8
HATCH
100
AcDbLine
 10
26.49197
 20
48.818136
 30
0.0
 11
26.50271
 21
48.879636
 31
0.0
  0
LINE
  5
15C
100
AcDbEntity
  8
HATCH
100
AcDbLine
 10
27.39383
 20
45.337936
 30
0.0
 11
27.42972
 21
45.389136
 31
0.0
  0
LINE
  5
15D
100
AcDbEntity
  8
HATCH
100
AcDbLine
 10
28.739
 20
44.670536
 30
0.0
 11
28.739
 21
44.670536
 31
0.0
  0
LINE
  5
15E
100
AcDbEntity
  8
HATCH
100
AcDbLine
 10
29.56766
 20
44.946736
 30
0.0
 11
29.56766
 21
44.946736
 31
0.0
  0
LINE
  5
15F
100
AcDbEntity
  8
HATCH
100
AcDbLine
 10
29.29144
 20
46.327836
 30
0.0
 11
29.29144
 21
46.327836
 31
0.0
  0
LINE
  5
160
100
AcDbEntity
  8
HATCH
100
AcDbLine
 10
28.73901
 20
46.880236
 30
0.0
 11
28.73901
 21
46.880236
 31
0.0
  0
LINE
  5
161
100
AcDbEntity
  8
HATCH
100
AcDbLine
 10
29.01523
 20
45.499136
 30
0.0
 11
29.01523
 21
45.499136
 31
0.0
  0
LINE
  5
162
100
AcDbEntity
  8
HATCH
100
AcDbLine
 10
28.4628
 20
46.051636
 30
0.0
 11
28.4628
 21
46.051636
 31
0.0
  0
LINE
  5
163
100
AcDbEntity
  8
HATCH
100
AcDbLine
 10
29.56767
 20
47.156436
 30
0.0
 11
29.56767
 21
47.156436
 31
0.0
  0
LINE
  5
164
100
AcDbEntity
  8
HATCH
100
AcDbLine
 10
27.12625
 20
49.341536
 30
0.0
 11
27.18509
 21
49.362936
 31
0.0
  0
LINE
  5
165
100
AcDbEntity
  8
HATCH
100
AcDbLine
 10
26.92605
 20
51.280136
 30
0.0
 11
26.9368
 21
51.341636
 31
0.0
  0
LINE
  5
166
100
AcDbEntity
  8
HATCH
100
AcDbLine
 10
29.29146
 20
48.537536
 30
0.0
 11
29.29146
 21
48.537536
 31
0.0
  0
LINE
  5
167
100
AcDbEntity
  8
HATCH
100
AcDbLine
 10
28.73903
 20
49.089936
 30
0.0
 11
28.73903
 21
49.089936
 31
0.0
  0
LINE
  5
168
100
AcDbEntity
  8
HATCH
100
AcDbLine
 10
29.01524
 20
47.708836
 30
0.0
 11
29.01524
 21
47.708836
 31
0.0
  0
LINE
  5
169
100
AcDbEntity
  8
HATCH
100
AcDbLine
 10
28.46281
 20
48.261336
 30
0.0
 11
28.46281
 21
48.261336
 31
0.0
  0
LINE
  5
16A
100
AcDbEntity
  8
HATCH
100
AcDbLine
 10
29.56767
 20
49.366136
 30
0.0
 11
29.56767
 21
49.366136
 31
0.0
  0
LINE
  5
16B
100
AcDbEntity
  8
HATCH
100
AcDbLine
 10
29.29147
 20
50.747236
 30
0.0
 11
29.29147
 21
50.747236
 31
0.0
  0
LINE
  5
16C
100
AcDbEntity
  8
HATCH
100
AcDbLine
 10
28.73904
 20
51.299636
 30
0.0
 11
28.73904
 21
51.299636
 31
0.0
  0
LINE
  5
16D
100
AcDbEntity
  8
HATCH
100
AcDbLine
 10
29.01524
 20
49.918636
 30
0.0
 11
29.01524
 21
49.918636
 31
0.0
  0
LINE
  5
16E
100
AcDbEntity
  8
HATCH
100
AcDbLine
 10
28.46281
 20
50.471036
 30
0.0
 11
28.46281
 21
50.471036
 31
0.0
  0
LINE
  5
16F
100
AcDbEntity
  8
HATCH
100
AcDbLine
 10
29.56769
 20
51.575836
 30
0.0
 11
29.56769
 21
51.575836
 31
0.0
  0
LINE
  5
170
100
AcDbEntity
  8
DIM_TEXT
100
AcDbLine
 10
31.7883
 20
43.139836
 30
0.0
 11
32.1633
 21
44.264836
 31
0.0
  0
LINE
  5
171
100
AcDbEntity
  8
DIM_TEXT
100
AcDbLine
 10
31.7883
 20
43.139836
 30
0.0
 11
32.7634
 21
43.814836
 31
0.0
  0
LINE
  5
172
100
AcDbEntity
  8
DRAWING
100
AcDbLine
 10
33.69293
 20
36.303336
 30
0.0
 11
35.37622
 21
36.303336
 31
0.0
  0
LINE
  5
173
100
AcDbEntity
  8
DRAWING
100
AcDbLine
 10
33.59396
 20
39.777736
 30
0.0
 11
34.10959
 21
39.777736
 31
0.0
  0
LINE
  5
174
100
AcDbEntity
  8
DRAWING
100
AcDbLine
 10
33.59396
 20
39.533836
 30
0.0
 11
33.97043
 21
39.533836
 31
0.0
  0
LINE
  5
175
100
AcDbEntity
  8
DRAWING
100
AcDbLine
 10
33.59396
 20
38.814236
 30
0.0
 11
33.97043
 21
38.814236
 31
0.0
  0
LINE
  5
176
100
AcDbEntity
  8
DRAWING
100
AcDbLine
 10
34.10959
 20
38.559736
 30
0.0
 11
33.59396
 21
38.559736
 31
0.0
  0
LINE
  5
177
100
AcDbEntity
  8
DRAWING
100
AcDbLine
 10
33.69293
 20
42.120936
 30
0.0
 11
33.69293
 21
36.303336
 31
0.0
  0
LINE
  5
178
100
AcDbEntity
  8
DRAWING
100
AcDbLine
 10
33.59396
 20
41.958736
 30
0.0
 11
33.59396
 21
36.333736
 31
0.0
  0
LINE
  5
179
100
AcDbEntity
  8
DIM_TEXT
100
AcDbLine
 10
31.61105
 20
36.538836
 30
0.0
 11
32.42306
 21
35.674536
 31
0.0
  0
LINE
  5
17A
100
AcDbEntity
  8
DIM_TEXT
100
AcDbLine
 10
32.42306
 20
35.674536
 30
0.0
 11
31.74191
 21
35.360236
 31
0.0
  0
LINE
  5
17B
100
AcDbEntity
  8
DIM_TEXT
100
AcDbLine
 10
31.61105
 20
36.538836
 30
0.0
 11
31.74191
 21
35.360236
 31
0.0
  0
LINE
  5
17C
100
AcDbEntity
  8
DRAWING
100
AcDbLine
 10
31.75851
 20
43.110336
 30
0.0
 11
31.75851
 21
40.452536
 31
0.0
  0
LINE
  5
17D
100
AcDbEntity
  8
HATCH
100
AcDbLine
 10
30.48996
 20
41.958736
 30
0.0
 11
31.23996
 21
42.708736
 31
0.0
  0
LINE
  5
17E
100
AcDbEntity
  8
DRAWING
100
AcDbLine
 10
32.65934
 20
42.120936
 30
0.0
 11
33.69293
 21
42.120936
 31
0.0
  0
LINE
  5
17F
100
AcDbEntity
  8
HATCH
100
AcDbLine
 10
32.47873
 20
41.958736
 30
0.0
 11
33.22873
 21
42.708736
 31
0.0
  0
LINE
  5
180
100
AcDbEntity
  8
DRAWING
100
AcDbLine
 10
34.63794
 20
37.514136
 30
0.0
 11
34.63794
 21
41.087436
 31
0.0
  0
LINE
  5
181
100
AcDbEntity
  8
DRAWING
100
AcDbLine
 10
34.62839
 20
38.793736
 30
0.0
 11
34.62839
 21
39.543736
 31
0.0
  0
LINE
  5
182
100
AcDbEntity
  8
DRAWING
100
AcDbLine
 10
34.10959
 20
39.777736
 30
0.0
 11
34.10959
 21
38.559736
 31
0.0
  0
LINE
  5
183
100
AcDbEntity
  8
DRAWING
100
AcDbLine
 10
35.37622
 20
36.303336
 30
0.0
 11
34.63794
 21
37.514136
 31
0.0
  0
LINE
  5
184
100
AcDbEntity
  8
DIM_TEXT
100
AcDbLine
 10
34.57887
 20
36.170436
 30
0.0
 11
35.50057
 21
35.424336
 31
0.0
  0
LINE
  5
185
100
AcDbEntity
  8
DIM_TEXT
100
AcDbLine
 10
34.57887
 20
36.170436
 30
0.0
 11
34.86855
 21
35.020536
 31
0.0
  0
LINE
  5
186
100
AcDbEntity
  8
DIM_TEXT
100
AcDbLine
 10
35.50057
 20
35.424336
 30
0.0
 11
34.86855
 21
35.020536
 31
0.0
  0
LINE
  5
187
100
AcDbEntity
  8
DRAWING
100
AcDbLine
 10
33.97043
 20
38.814236
 30
0.0
 11
34.10959
 21
38.920036
 31
0.0
  0
LINE
  5
188
100
AcDbEntity
  8
DRAWING
100
AcDbLine
 10
33.97043
 20
38.814236
 30
0.0
 11
34.10959
 21
38.708436
 31
0.0
  0
LINE
  5
189
100
AcDbEntity
  8
DRAWING
100
AcDbLine
 10
34.10959
 20
38.793736
 30
0.0
 11
34.62839
 21
38.793736
 31
0.0
  0
LINE
  5
18A
100
AcDbEntity
  8
DRAWING
100
AcDbLine
 10
34.63794
 20
41.087436
 30
0.0
 11
33.69293
 21
41.869455
 31
0.0
  0
LINE
  5
18B
100
AcDbEntity
  8
DRAWING
100
AcDbLine
 10
34.95309
 20
43.110336
 30
0.0
 11
34.95309
 21
40.806836
 31
0.0
  0
LINE
  5
18C
100
AcDbEntity
  8
DRAWING
100
AcDbLine
 10
33.97043
 20
39.533836
 30
0.0
 11
34.10959
 21
39.640036
 31
0.0
  0
LINE
  5
18D
100
AcDbEntity
  8
DRAWING
100
AcDbLine
 10
33.97043
 20
39.533836
 30
0.0
 11
34.10959
 21
39.428336
 31
0.0
  0
LINE
  5
18E
100
AcDbEntity
  8
DRAWING
100
AcDbLine
 10
34.62839
 20
39.543736
 30
0.0
 11
34.10959
 21
39.543736
 31
0.0
  0
LINE
  5
18F
100
AcDbEntity
  8
HATCH
100
AcDbLine
 10
34.4675
 20
41.958736
 30
0.0
 11
35.2175
 21
42.708736
 31
0.0
  0
LINE
  5
190
100
AcDbEntity
  8
DRAWING
100
AcDbLine
 10
36.95309
 20
43.110336
 30
0.0
 11
36.95309
 21
40.806836
 31
0.0
  0
LINE
  5
191
100
AcDbEntity
  8
HATCH
100
AcDbLine
 10
36.45627
 20
41.958736
 30
0.0
 11
37.20627
 21
42.708736
 31
0.0
  0
LINE
  5
192
100
AcDbEntity
  8
DIM_TEXT
100
AcDbLine
 10
32.1633
 20
44.264836
 30
0.0
 11
32.7634
 21
43.814836
 31
0.0
  0
ARC
  5
193
100
AcDbEntity
  8
DRAWING
100
AcDbCircle
 10
25.01907
 20
54.146236
 30
0.0
 40
3.0
100
AcDbArc
 50
0.0
 51
180.0
  0
ARC
  5
194
100
AcDbEntity
  8
DRAWING
100
AcDbCircle
 10
25.01907
 20
67.071245
 30
0.0
 40
3.0
100
AcDbArc
 50
180.0
 51
0.0
  0
ARC
  5
195
100
AcDbEntity
  8
DRAWING
100
AcDbCircle
 10
25.01625
 20
67.071245
 30
0.0
 40
3.0
100
AcDbArc
 50
0.0
 51
180.0
  0
LINE
  5
196
100
AcDbEntity
  8
DRAWING
100
AcDbLine
 10
20.01625
 20
74.571245
 30
0.0
 11
30.01625
 21
74.571245
 31
0.0
  0
LINE
  5
197
100
AcDbEntity
  8
HATCH
100
AcDbLine
 10
19.25125
 20
61.556445
 30
0.0
 11
23.3506
 21
62.092945
 31
0.0
  0
LINE
  5
198
100
AcDbEntity
  8
HATCH
100
AcDbLine
 10
19.25125
 20
58.640636
 30
0.0
 11
23.3506
 21
59.177236
 31
0.0
  0
LINE
  5
199
100
AcDbEntity
  8
DRAWING
100
AcDbLine
 10
20.01625
 20
74.571245
 30
0.0
 11
20.01625
 21
67.071245
 31
0.0
  0
LINE
  5
19A
100
AcDbEntity
  8
DRAWING
100
AcDbLine
 10
20.01907
 20
67.071245
 30
0.0
 11
20.01907
 21
61.677945
 31
0.0
  0
LINE
  5
19B
100
AcDbEntity
  8
DRAWING
100
AcDbLine
 10
21.89407
 20
67.071245
 30
0.0
 11
21.89407
 21
61.902345
 31
0.0
  0
LINE
  5
19C
100
AcDbEntity
  8
DRAWING
100
AcDbLine
 10
20.01907
 20
58.640636
 30
0.0
 11
20.01907
 21
54.146236
 31
0.0
  0
LINE
  5
19D
100
AcDbEntity
  8
DRAWING
100
AcDbLine
 10
21.89407
 20
58.986636
 30
0.0
 11
21.89407
 21
54.146236
 31
0.0
  0
LINE
  5
19E
100
AcDbEntity
  8
DRAWING
100
AcDbLine
 10
21.89407
 20
54.146236
 30
0.0
 11
20.01907
 21
54.146236
 31
0.0
  0
LINE
  5
19F
100
AcDbEntity
  8
DRAWING
100
AcDbLine
 10
20.01907
 20
54.146236
 30
0.0
 11
21.89407
 21
54.146236
 31
0.0
  0
LINE
  5
1A0
100
AcDbEntity
  8
DRAWING
100
AcDbLine
 10
21.89407
 20
54.146236
 30
0.0
 11
20.01907
 21
54.146236
 31
0.0
  0
LINE
  5
1A1
100
AcDbEntity
  8
DRAWING
100
AcDbLine
 10
20.01907
 20
54.146236
 30
0.0
 11
21.89407
 21
54.146236
 31
0.0
  0
LINE
  5
1A2
100
AcDbEntity
  8
HATCH
100
AcDbLine
 10
20.47044
 20
53.785636
 30
0.0
 11
20.47044
 21
53.785636
 31
0.0
  0
LINE
  5
1A3
100
AcDbEntity
  8
HATCH
100
AcDbLine
 10
20.74667
 20
52.956936
 30
0.0
 11
20.74667
 21
52.956936
 31
0.0
  0
LINE
  5
1A4
100
AcDbEntity
  8
HATCH
100
AcDbLine
 10
21.02289
 20
52.128336
 30
0.0
 11
21.02289
 21
52.128336
 31
0.0
  0
LINE
  5
1A5
100
AcDbEntity
  8
HATCH
100
AcDbLine
 10
20.47052
 20
55.527336
 30
0.0
 11
20.47052
 21
55.527336
 31
0.0
  0
LINE
  5
1A6
100
AcDbEntity
  8
HATCH
100
AcDbLine
 10
21.02295
 20
56.079736
 30
0.0
 11
21.02295
 21
56.079736
 31
0.0
  0
LINE
  5
1A7
100
AcDbEntity
  8
HATCH
100
AcDbLine
 10
20.57158
 20
54.698636
 30
0.0
 11
20.57158
 21
54.698636
 31
0.0
  0
LINE
  5
1A8
100
AcDbEntity
  8
HATCH
100
AcDbLine
 10
21.12401
 20
55.251136
 30
0.0
 11
21.12401
 21
55.251136
 31
0.0
  0
LINE
  5
1A9
100
AcDbEntity
  8
HATCH
100
AcDbLine
 10
21.2991
 20
53.509336
 30
0.0
 11
21.2991
 21
53.509336
 31
0.0
  0
LINE
  5
1AA
100
AcDbEntity
  8
HATCH
100
AcDbLine
 10
21.85153
 20
54.061836
 30
0.0
 11
21.85153
 21
54.061836
 31
0.0
  0
LINE
  5
1AB
100
AcDbEntity
  8
HATCH
100
AcDbLine
 10
21.57532
 20
52.680736
 30
0.0
 11
21.57532
 21
52.680736
 31
0.0
  0
LINE
  5
1AC
100
AcDbEntity
  8
HATCH
100
AcDbLine
 10
21.40024
 20
54.422436
 30
0.0
 11
21.40024
 21
54.422436
 31
0.0
  0
LINE
  5
1AD
100
AcDbEntity
  8
HATCH
100
AcDbLine
 10
20.4705
 20
57.737036
 30
0.0
 11
20.4705
 21
57.737036
 31
0.0
  0
LINE
  5
1AE
100
AcDbEntity
  8
HATCH
100
AcDbLine
 10
21.02293
 20
58.289436
 30
0.0
 11
21.02293
 21
58.289436
 31
0.0
  0
LINE
  5
1AF
100
AcDbEntity
  8
HATCH
100
AcDbLine
 10
20.74672
 20
56.908436
 30
0.0
 11
20.74672
 21
56.908436
 31
0.0
  0
LINE
  5
1B0
100
AcDbEntity
  8
HATCH
100
AcDbLine
 10
20.47046
 20
62.291145
 30
0.0
 11
20.47046
 21
62.291145
 31
0.0
  0
LINE
  5
1B1
100
AcDbEntity
  8
HATCH
100
AcDbLine
 10
21.57536
 20
58.841836
 30
0.0
 11
21.57536
 21
58.841836
 31
0.0
  0
LINE
  5
1B2
100
AcDbEntity
  8
HATCH
100
AcDbLine
 10
21.29915
 20
57.460836
 30
0.0
 11
21.29915
 21
57.460836
 31
0.0
  0
LINE
  5
1B3
100
AcDbEntity
  8
HATCH
100
AcDbLine
 10
21.57538
 20
56.632136
 30
0.0
 11
21.57538
 21
56.632136
 31
0.0
  0
LINE
  5
1B4
100
AcDbEntity
  8
HATCH
100
AcDbLine
 10
22.47781
 20
57.676136
 30
0.0
 11
22.5137
 21
57.727336
 31
0.0
  0
LINE
  5
1B5
100
AcDbEntity
  8
HATCH
100
AcDbLine
 10
22.72806
 20
56.866036
 30
0.0
 11
22.7388
 21
56.927636
 31
0.0
  0
LINE
  5
1B6
100
AcDbEntity
  8
DRAWING
100
AcDbLine
 10
21.89407
 20
67.071245
 30
0.0
 11
20.01907
 21
67.071245
 31
0.0
  0
LINE
  5
1B7
100
AcDbEntity
  8
DRAWING
100
AcDbLine
 10
20.01907
 20
67.071245
 30
0.0
 11
21.89407
 21
67.071245
 31
0.0
  0
LINE
  5
1B8
100
AcDbEntity
  8
DRAWING
100
AcDbLine
 10
20.01625
 20
67.071245
 30
0.0
 11
21.89125
 21
67.071245
 31
0.0
  0
LINE
  5
1B9
100
AcDbEntity
  8
DRAWING
100
AcDbLine
 10
22.01907
 20
67.071245
 30
0.0
 11
20.01625
 21
67.071245
 31
0.0
  0
LINE
  5
1BA
100
AcDbEntity
  8
HATCH
100
AcDbLine
 10
20.47046
 20
64.500845
 30
0.0
 11
20.47046
 21
64.500845
 31
0.0
  0
LINE
  5
1BB
100
AcDbEntity
  8
HATCH
100
AcDbLine
 10
21.02289
 20
65.053245
 30
0.0
 11
21.02289
 21
65.053245
 31
0.0
  0
LINE
  5
1BC
100
AcDbEntity
  8
HATCH
100
AcDbLine
 10
21.02289
 20
62.843545
 30
0.0
 11
21.02289
 21
62.843545
 31
0.0
  0
LINE
  5
1BD
100
AcDbEntity
  8
HATCH
100
AcDbLine
 10
20.74667
 20
63.672245
 30
0.0
 11
20.74667
 21
63.672245
 31
0.0
  0
LINE
  5
1BE
100
AcDbEntity
  8
HATCH
100
AcDbLine
 10
20.47044
 20
66.710545
 30
0.0
 11
20.47044
 21
66.710545
 31
0.0
  0
LINE
  5
1BF
100
AcDbEntity
  8
HATCH
100
AcDbLine
 10
20.74667
 20
65.881945
 30
0.0
 11
20.74667
 21
65.881945
 31
0.0
  0
LINE
  5
1C0
100
AcDbEntity
  8
HATCH
100
AcDbLine
 10
20.47343
 20
67.396645
 30
0.0
 11
20.47343
 21
67.396645
 31
0.0
  0
LINE
  5
1C1
100
AcDbEntity
  8
HATCH
100
AcDbLine
 10
21.2991
 20
64.224645
 30
0.0
 11
21.2991
 21
64.224645
 31
0.0
  0
LINE
  5
1C2
100
AcDbEntity
  8
HATCH
100
AcDbLine
 10
21.57532
 20
63.395945
 30
0.0
 11
21.57532
 21
63.395945
 31
0.0
  0
LINE
  5
1C3
100
AcDbEntity
  8
HATCH
100
AcDbLine
 10
22.68411
 20
64.612545
 30
0.0
 11
22.72
 21
64.663745
 31
0.0
  0
LINE
  5
1C4
100
AcDbEntity
  8
HATCH
100
AcDbLine
 10
21.2991
 20
66.434345
 30
0.0
 11
21.2991
 21
66.434345
 31
0.0
  0
LINE
  5
1C5
100
AcDbEntity
  8
HATCH
100
AcDbLine
 10
21.85153
 20
66.986745
 30
0.0
 11
21.85153
 21
66.986745
 31
0.0
  0
LINE
  5
1C6
100
AcDbEntity
  8
HATCH
100
AcDbLine
 10
21.57532
 20
65.605745
 30
0.0
 11
21.57532
 21
65.605745
 31
0.0
  0
LINE
  5
1C7
100
AcDbEntity
  8
DRAWING
100
AcDbLine
 10
21.30202
 20
67.121045
 30
0.0
 11
21.30202
 21
67.121045
 31
0.0
  0
LINE
  5
1C8
100
AcDbEntity
  8
HATCH
100
AcDbLine
 10
20.19731
 20
68.225545
 30
0.0
 11
20.19731
 21
68.225545
 31
0.0
  0
LINE
  5
1C9
100
AcDbEntity
  8
HATCH
100
AcDbLine
 10
21.02586
 20
67.949145
 30
0.0
 11
21.02586
 21
67.949145
 31
0.0
  0
LINE
  5
1CA
100
AcDbEntity
  8
HATCH
100
AcDbLine
 10
20.74974
 20
68.778045
 30
0.0
 11
20.74974
 21
68.778045
 31
0.0
  0
LINE
  5
1CB
100
AcDbEntity
  8
HATCH
100
AcDbLine
 10
20.47346
 20
69.606845
 30
0.0
 11
20.47346
 21
69.606845
 31
0.0
  0
LINE
  5
1CC
100
AcDbEntity
  8
HATCH
100
AcDbLine
 10
20.19734
 20
70.435745
 30
0.0
 11
20.19734
 21
70.435745
 31
0.0
  0
LINE
  5
1CD
100
AcDbEntity
  8
HATCH
100
AcDbLine
 10
21.02589
 20
70.159345
 30
0.0
 11
21.02589
 21
70.159345
 31
0.0
  0
LINE
  5
1CE
100
AcDbEntity
  8
HATCH
100
AcDbLine
 10
20.74977
 20
70.988245
 30
0.0
 11
20.74977
 21
70.988245
 31
0.0
  0
LINE
  5
1CF
100
AcDbEntity
  8
HATCH
100
AcDbLine
 10
20.47365
 20
71.817145
 30
0.0
 11
20.47365
 21
71.817145
 31
0.0
  0
LINE
  5
1D0
100
AcDbEntity
  8
HATCH
100
AcDbLine
 10
21.85445
 20
67.673545
 30
0.0
 11
21.85445
 21
67.673545
 31
0.0
  0
LINE
  5
1D1
100
AcDbEntity
  8
HATCH
100
AcDbLine
 10
22.13072
 20
69.054145
 30
0.0
 11
22.13072
 21
69.054145
 31
0.0
  0
LINE
  5
1D2
100
AcDbEntity
  8
HATCH
100
AcDbLine
 10
21.57829
 20
68.501645
 30
0.0
 11
21.57829
 21
68.501645
 31
0.0
  0
LINE
  5
1D3
100
AcDbEntity
  8
HATCH
100
AcDbLine
 10
21.30217
 20
69.330545
 30
0.0
 11
21.30217
 21
69.330545
 31
0.0
  0
LINE
  5
1D4
100
AcDbEntity
  8
HATCH
100
AcDbLine
 10
22.68315
 20
69.606645
 30
0.0
 11
22.68315
 21
69.606645
 31
0.0
  0
LINE
  5
1D5
100
AcDbEntity
  8
HATCH
100
AcDbLine
 10
21.8546
 20
69.883045
 30
0.0
 11
21.8546
 21
69.883045
 31
0.0
  0
LINE
  5
1D6
100
AcDbEntity
  8
HATCH
100
AcDbLine
 10
22.13075
 20
71.264345
 30
0.0
 11
22.13075
 21
71.264345
 31
0.0
  0
LINE
  5
1D7
100
AcDbEntity
  8
HATCH
100
AcDbLine
 10
21.57832
 20
70.711845
 30
0.0
 11
21.57832
 21
70.711845
 31
0.0
  0
LINE
  5
1D8
100
AcDbEntity
  8
HATCH
100
AcDbLine
 10
21.3022
 20
71.540745
 30
0.0
 11
21.3022
 21
71.540745
 31
0.0
  0
LINE
  5
1D9
100
AcDbEntity
  8
HATCH
100
AcDbLine
 10
22.95946
 20
70.988045
 30
0.0
 11
22.95946
 21
70.988045
 31
0.0
  0
LINE
  5
1DA
100
AcDbEntity
  8
HATCH
100
AcDbLine
 10
22.40703
 20
70.435545
 30
0.0
 11
22.40703
 21
70.435545
 31
0.0
  0
LINE
  5
1DB
100
AcDbEntity
  8
HATCH
100
AcDbLine
 10
22.68318
 20
71.816845
 30
0.0
 11
22.68318
 21
71.816845
 31
0.0
  0
LINE
  5
1DC
100
AcDbEntity
  8
HATCH
100
AcDbLine
 10
20.19728
 20
72.646245
 30
0.0
 11
20.19728
 21
72.646245
 31
0.0
  0
LINE
  5
1DD
100
AcDbEntity
  8
HATCH
100
AcDbLine
 10
21.02608
 20
72.369545
 30
0.0
 11
21.02608
 21
72.369545
 31
0.0
  0
LINE
  5
1DE
100
AcDbEntity
  8
HATCH
100
AcDbLine
 10
20.74971
 20
73.198645
 30
0.0
 11
20.74971
 21
73.198645
 31
0.0
  0
LINE
  5
1DF
100
AcDbEntity
  8
HATCH
100
AcDbLine
 10
20.47368
 20
74.027345
 30
0.0
 11
20.47368
 21
74.027345
 31
0.0
  0
LINE
  5
1E0
100
AcDbEntity
  8
HATCH
100
AcDbLine
 10
21.85463
 20
72.093245
 30
0.0
 11
21.85463
 21
72.093245
 31
0.0
  0
LINE
  5
1E1
100
AcDbEntity
  8
HATCH
100
AcDbLine
 10
22.13093
 20
73.474545
 30
0.0
 11
22.13093
 21
73.474545
 31
0.0
  0
LINE
  5
1E2
100
AcDbEntity
  8
HATCH
100
AcDbLine
 10
21.57851
 20
72.922045
 30
0.0
 11
21.57851
 21
72.922045
 31
0.0
  0
LINE
  5
1E3
100
AcDbEntity
  8
HATCH
100
AcDbLine
 10
21.85457
 20
74.303645
 30
0.0
 11
21.85457
 21
74.303645
 31
0.0
  0
LINE
  5
1E4
100
AcDbEntity
  8
HATCH
100
AcDbLine
 10
21.30214
 20
73.751145
 30
0.0
 11
21.30214
 21
73.751145
 31
0.0
  0
LINE
  5
1E5
100
AcDbEntity
  8
HATCH
100
AcDbLine
 10
22.95949
 20
73.198245
 30
0.0
 11
22.95949
 21
73.198245
 31
0.0
  0
LINE
  5
1E6
100
AcDbEntity
  8
HATCH
100
AcDbLine
 10
22.40706
 20
72.645745
 30
0.0
 11
22.40706
 21
72.645745
 31
0.0
  0
LINE
  5
1E7
100
AcDbEntity
  8
HATCH
100
AcDbLine
 10
22.68336
 20
74.027045
 30
0.0
 11
22.68336
 21
74.027045
 31
0.0
  0
LINE
  5
1E8
100
AcDbEntity
  8
DRAWING
100
AcDbLine
 10
30.01625
 20
67.071245
 30
0.0
 11
30.01625
 21
74.571245
 31
0.0
  0
LINE
  5
1E9
100
AcDbEntity
  8
HATCH
100
AcDbLine
 10
26.99746
 20
62.570345
 30
0.0
 11
30.53219
 21
63.032945
 31
0.0
  0
LINE
  5
1EA
100
AcDbEntity
  8
HATCH
100
AcDbLine
 10
26.99746
 20
59.654536
 30
0.0
 11
30.53219
 21
60.117236
 31
0.0
  0
LINE
  5
1EB
100
AcDbEntity
  8
DRAWING
100
AcDbLine
 10
28.14407
 20
62.720345
 30
0.0
 11
28.14407
 21
67.071245
 31
0.0
  0
LINE
  5
1EC
100
AcDbEntity
  8
HATCH
100
AcDbLine
 10
24.2125
 20
64.391445
 30
0.0
 11
25.98439
 21
60.138945
 31
0.0
  0
LINE
  5
1ED
100
AcDbEntity
  8
HATCH
100
AcDbLine
 10
23.3506
 20
62.092945
 30
0.0
 11
24.2125
 21
64.391445
 31
0.0
  0
LINE
  5
1EE
100
AcDbEntity
  8
HATCH
100
AcDbLine
 10
24.2125
 20
61.475636
 30
0.0
 11
25.98439
 21
57.223136
 31
0.0
  0
LINE
  5
1EF
100
AcDbEntity
  8
HATCH
100
AcDbLine
 10
23.3506
 20
59.177236
 30
0.0
 11
24.2125
 21
61.475636
 31
0.0
  0
LINE
  5
1F0
100
AcDbEntity
  8
HATCH
100
AcDbLine
 10
25.98439
 20
60.138945
 30
0.0
 11
26.99746
 21
62.570345
 31
0.0
  0
LINE
  5
1F1
100
AcDbEntity
  8
HATCH
100
AcDbLine
 10
25.98439
 20
57.223136
 30
0.0
 11
26.99746
 21
59.654536
 31
0.0
  0
LINE
  5
1F2
100
AcDbEntity
  8
HATCH
100
AcDbLine
 10
23.21951
 20
54.034036
 30
0.0
 11
23.17459
 21
53.970036
 31
0.0
  0
CIRCLE
  5
1F3
100
AcDbEntity
  8
DRAWING
100
AcDbCircle
 10
25.883288
 20
52.166045
 30
0.0
 40
0.375
  0
LINE
  5
1F4
100
AcDbEntity
  8
HATCH
100
AcDbLine
 10
25.53836
 20
52.025736
 30
0.0
 11
25.46487
 21
51.998936
 31
0.0
  0
LINE
  5
1F5
100
AcDbEntity
  8
HATCH
100
AcDbLine
 10
25.26956
 20
52.858436
 30
0.0
 11
25.22464
 21
52.794436
 31
0.0
  0
LINE
  5
1F6
100
AcDbEntity
  8
HATCH
100
AcDbLine
 10
25.01199
 20
56.593936
 30
0.0
 11
24.96707
 21
56.529936
 31
0.0
  0
LINE
  5
1F7
100
AcDbEntity
  8
HATCH
100
AcDbLine
 10
25.34598
 20
55.097836
 30
0.0
 11
25.38187
 21
55.149036
 31
0.0
  0
LINE
  5
1F8
100
AcDbEntity
  8
HATCH
100
AcDbLine
 10
26.05789
 20
54.681936
 30
0.0
 11
26.06863
 21
54.743536
 31
0.0
  0
LINE
  5
1F9
100
AcDbEntity
  8
HATCH
100
AcDbLine
 10
24.13748
 20
57.933036
 30
0.0
 11
24.19632
 21
57.954336
 31
0.0
  0
LINE
  5
1FA
100
AcDbEntity
  8
HATCH
100
AcDbLine
 10
25.57107
 20
57.095036
 30
0.0
 11
25.56009
 21
57.033536
 31
0.0
  0
LINE
  5
1FB
100
AcDbEntity
  8
DRAWING
100
AcDbLine
 10
30.01907
 20
54.146236
 30
0.0
 11
30.01907
 21
60.050036
 31
0.0
  0
LINE
  5
1FC
100
AcDbEntity
  8
DRAWING
100
AcDbLine
 10
28.14407
 20
54.146236
 30
0.0
 11
28.14407
 21
59.827536
 31
0.0
  0
LINE
  5
1FD
100
AcDbEntity
  8
DRAWING
100
AcDbLine
 10
30.01907
 20
54.146236
 30
0.0
 11
28.14407
 21
54.146236
 31
0.0
  0
LINE
  5
1FE
100
AcDbEntity
  8
DRAWING
100
AcDbLine
 10
28.14407
 20
54.146236
 30
0.0
 11
30.01907
 21
54.146236
 31
0.0
  0
LINE
  5
1FF
100
AcDbEntity
  8
DRAWING
100
AcDbLine
 10
30.01907
 20
54.146236
 30
0.0
 11
28.14407
 21
54.146236
 31
0.0
  0
LINE
  5
200
100
AcDbEntity
  8
DRAWING
100
AcDbLine
 10
28.14407
 20
54.146236
 30
0.0
 11
30.01907
 21
54.146236
 31
0.0
  0
LINE
  5
201
100
AcDbEntity
  8
HATCH
100
AcDbLine
 10
28.18661
 20
54.061836
 30
0.0
 11
28.18661
 21
54.061836
 31
0.0
  0
LINE
  5
202
100
AcDbEntity
  8
HATCH
100
AcDbLine
 10
27.34158
 20
56.438836
 30
0.0
 11
27.40042
 21
56.460136
 31
0.0
  0
LINE
  5
203
100
AcDbEntity
  8
HATCH
100
AcDbLine
 10
29.29147
 20
52.956936
 30
0.0
 11
29.29147
 21
52.956936
 31
0.0
  0
LINE
  5
204
100
AcDbEntity
  8
HATCH
100
AcDbLine
 10
28.73904
 20
53.509336
 30
0.0
 11
28.73904
 21
53.509336
 31
0.0
  0
LINE
  5
205
100
AcDbEntity
  8
HATCH
100
AcDbLine
 10
29.01526
 20
52.128336
 30
0.0
 11
29.01526
 21
52.128336
 31
0.0
  0
LINE
  5
206
100
AcDbEntity
  8
HATCH
100
AcDbLine
 10
28.46283
 20
52.680736
 30
0.0
 11
28.46283
 21
52.680736
 31
0.0
  0
LINE
  5
207
100
AcDbEntity
  8
HATCH
100
AcDbLine
 10
29.5677
 20
53.785636
 30
0.0
 11
29.5677
 21
53.785636
 31
0.0
  0
LINE
  5
208
100
AcDbEntity
  8
HATCH
100
AcDbLine
 10
28.91414
 20
55.251136
 30
0.0
 11
28.91414
 21
55.251136
 31
0.0
  0
LINE
  5
209
100
AcDbEntity
  8
HATCH
100
AcDbLine
 10
28.63791
 20
54.422436
 30
0.0
 11
28.63791
 21
54.422436
 31
0.0
  0
LINE
  5
20A
100
AcDbEntity
  8
HATCH
100
AcDbLine
 10
29.0152
 20
56.079736
 30
0.0
 11
29.0152
 21
56.079736
 31
0.0
  0
LINE
  5
20B
100
AcDbEntity
  8
HATCH
100
AcDbLine
 10
29.46657
 20
54.698636
 30
0.0
 11
29.46657
 21
54.698636
 31
0.0
  0
LINE
  5
20C
100
AcDbEntity
  8
HATCH
100
AcDbLine
 10
29.56763
 20
55.527336
 30
0.0
 11
29.56763
 21
55.527336
 31
0.0
  0
LINE
  5
20D
100
AcDbEntity
  8
HATCH
100
AcDbLine
 10
29.01521
 20
58.289436
 30
0.0
 11
29.01521
 21
58.289436
 31
0.0
  0
LINE
  5
20E
100
AcDbEntity
  8
HATCH
100
AcDbLine
 10
28.46278
 20
58.841836
 30
0.0
 11
28.46278
 21
58.841836
 31
0.0
  0
LINE
  5
20F
100
AcDbEntity
  8
HATCH
100
AcDbLine
 10
29.29143
 20
56.908436
 30
0.0
 11
29.29143
 21
56.908436
 31
0.0
  0
LINE
  5
210
100
AcDbEntity
  8
HATCH
100
AcDbLine
 10
28.739
 20
57.460836
 30
0.0
 11
28.739
 21
57.460836
 31
0.0
  0
LINE
  5
211
100
AcDbEntity
  8
HATCH
100
AcDbLine
 10
28.46277
 20
56.632136
 30
0.0
 11
28.46277
 21
56.632136
 31
0.0
  0
LINE
  5
212
100
AcDbEntity
  8
HATCH
100
AcDbLine
 10
29.56764
 20
57.737036
 30
0.0
 11
29.56764
 21
57.737036
 31
0.0
  0
LINE
  5
213
100
AcDbEntity
  8
HATCH
100
AcDbLine
 10
29.29143
 20
59.118136
 30
0.0
 11
29.29143
 21
59.118136
 31
0.0
  0
LINE
  5
214
100
AcDbEntity
  8
HATCH
100
AcDbLine
 10
28.739
 20
59.670536
 30
0.0
 11
28.739
 21
59.670536
 31
0.0
  0
LINE
  5
215
100
AcDbEntity
  8
HATCH
100
AcDbLine
 10
29.56766
 20
59.946736
 30
0.0
 11
29.56766
 21
59.946736
 31
0.0
  0
CIRCLE
  5
216
100
AcDbEntity
  8
DRAWING
100
AcDbCircle
 10
25.81395
 20
65.140572
 30
0.0
 40
0.375
  0
LINE
  5
217
100
AcDbEntity
  8
HATCH
100
AcDbLine
 10
24.1243
 20
64.810645
 30
0.0
 11
24.11062
 21
64.733645
 31
0.0
  0
LINE
  5
218
100
AcDbEntity
  8
HATCH
100
AcDbLine
 10
25.53836
 20
64.950645
 30
0.0
 11
25.46487
 21
64.923945
 31
0.0
  0
LINE
  5
219
100
AcDbEntity
  8
HATCH
100
AcDbLine
 10
25.26956
 20
65.783345
 30
0.0
 11
25.22464
 21
65.719345
 31
0.0
  0
LINE
  5
21A
100
AcDbEntity
  8
HATCH
100
AcDbLine
 10
23.78801
 20
70.711645
 30
0.0
 11
23.78801
 21
70.711645
 31
0.0
  0
LINE
  5
21B
100
AcDbEntity
  8
HATCH
100
AcDbLine
 10
23.23558
 20
70.159145
 30
0.0
 11
23.23558
 21
70.159145
 31
0.0
  0
LINE
  5
21C
100
AcDbEntity
  8
HATCH
100
AcDbLine
 10
23.51189
 20
71.540445
 30
0.0
 11
23.51189
 21
71.540445
 31
0.0
  0
LINE
  5
21D
100
AcDbEntity
  8
HATCH
100
AcDbLine
 10
24.61662
 20
70.435245
 30
0.0
 11
24.61662
 21
70.435245
 31
0.0
  0
LINE
  5
21E
100
AcDbEntity
  8
HATCH
100
AcDbLine
 10
24.34044
 20
71.264145
 30
0.0
 11
24.34044
 21
71.264145
 31
0.0
  0
LINE
  5
21F
100
AcDbEntity
  8
HATCH
100
AcDbLine
 10
25.44514
 20
70.158945
 30
0.0
 11
25.44514
 21
70.158945
 31
0.0
  0
LINE
  5
220
100
AcDbEntity
  8
HATCH
100
AcDbLine
 10
25.16905
 20
70.987745
 30
0.0
 11
25.16905
 21
70.987745
 31
0.0
  0
LINE
  5
221
100
AcDbEntity
  8
HATCH
100
AcDbLine
 10
24.89287
 20
71.816645
 30
0.0
 11
24.89287
 21
71.816645
 31
0.0
  0
LINE
  5
222
100
AcDbEntity
  8
HATCH
100
AcDbLine
 10
26.274
 20
69.882245
 30
0.0
 11
26.274
 21
69.882245
 31
0.0
  0
LINE
  5
223
100
AcDbEntity
  8
HATCH
100
AcDbLine
 10
26.55
 20
71.263845
 30
0.0
 11
26.55
 21
71.263845
 31
0.0
  0
LINE
  5
224
100
AcDbEntity
  8
HATCH
100
AcDbLine
 10
25.99757
 20
70.711345
 30
0.0
 11
25.99757
 21
70.711345
 31
0.0
  0
LINE
  5
225
100
AcDbEntity
  8
HATCH
100
AcDbLine
 10
25.72148
 20
71.540245
 30
0.0
 11
25.72148
 21
71.540245
 31
0.0
  0
LINE
  5
226
100
AcDbEntity
  8
DRAWING
100
AcDbLine
 10
30.01907
 20
67.071245
 30
0.0
 11
28.14407
 21
67.071245
 31
0.0
  0
LINE
  5
227
100
AcDbEntity
  8
DRAWING
100
AcDbLine
 10
28.14407
 20
67.071245
 30
0.0
 11
30.01907
 21
67.071245
 31
0.0
  0
LINE
  5
228
100
AcDbEntity
  8
DRAWING
100
AcDbLine
 10
28.14125
 20
67.071245
 30
0.0
 11
30.01625
 21
67.071245
 31
0.0
  0
LINE
  5
229
100
AcDbEntity
  8
DRAWING
100
AcDbLine
 10
30.01625
 20
67.071245
 30
0.0
 11
28.01907
 21
67.071245
 31
0.0
  0
LINE
  5
22A
100
AcDbEntity
  8
HATCH
100
AcDbLine
 10
26.92605
 20
64.205145
 30
0.0
 11
26.9368
 21
64.266645
 31
0.0
  0
LINE
  5
22B
100
AcDbEntity
  8
HATCH
100
AcDbLine
 10
28.18661
 20
66.986745
 30
0.0
 11
28.18661
 21
66.986745
 31
0.0
  0
LINE
  5
22C
100
AcDbEntity
  8
DRAWING
100
AcDbLine
 10
30.01907
 20
62.942945
 30
0.0
 11
30.01907
 21
67.071245
 31
0.0
  0
LINE
  5
22D
100
AcDbEntity
  8
HATCH
100
AcDbLine
 10
29.01526
 20
65.053245
 30
0.0
 11
29.01526
 21
65.053245
 31
0.0
  0
LINE
  5
22E
100
AcDbEntity
  8
HATCH
100
AcDbLine
 10
28.73904
 20
64.224645
 30
0.0
 11
28.73904
 21
64.224645
 31
0.0
  0
LINE
  5
22F
100
AcDbEntity
  8
HATCH
100
AcDbLine
 10
29.29147
 20
63.672245
 30
0.0
 11
29.29147
 21
63.672245
 31
0.0
  0
LINE
  5
230
100
AcDbEntity
  8
HATCH
100
AcDbLine
 10
29.56769
 20
64.500845
 30
0.0
 11
29.56769
 21
64.500845
 31
0.0
  0
LINE
  5
231
100
AcDbEntity
  8
HATCH
100
AcDbLine
 10
29.29147
 20
65.881945
 30
0.0
 11
29.29147
 21
65.881945
 31
0.0
  0
LINE
  5
232
100
AcDbEntity
  8
HATCH
100
AcDbLine
 10
28.73904
 20
66.434345
 30
0.0
 11
28.73904
 21
66.434345
 31
0.0
  0
LINE
  5
233
100
AcDbEntity
  8
HATCH
100
AcDbLine
 10
28.46283
 20
65.605745
 30
0.0
 11
28.46283
 21
65.605745
 31
0.0
  0
LINE
  5
234
100
AcDbEntity
  8
HATCH
100
AcDbLine
 10
29.5677
 20
66.710545
 30
0.0
 11
29.5677
 21
66.710545
 31
0.0
  0
LINE
  5
235
100
AcDbEntity
  8
HATCH
100
AcDbLine
 10
29.31221
 20
67.395945
 30
0.0
 11
29.31221
 21
67.395945
 31
0.0
  0
LINE
  5
236
100
AcDbEntity
  8
HATCH
100
AcDbLine
 10
27.10261
 20
69.606145
 30
0.0
 11
27.10261
 21
69.606145
 31
0.0
  0
LINE
  5
237
100
AcDbEntity
  8
HATCH
100
AcDbLine
 10
28.20729
 20
68.501145
 30
0.0
 11
28.20729
 21
68.501145
 31
0.0
  0
LINE
  5
238
100
AcDbEntity
  8
HATCH
100
AcDbLine
 10
27.93104
 20
69.330045
 30
0.0
 11
27.93104
 21
69.330045
 31
0.0
  0
LINE
  5
239
100
AcDbEntity
  8
HATCH
100
AcDbLine
 10
27.37886
 20
70.987245
 30
0.0
 11
27.37886
 21
70.987245
 31
0.0
  0
LINE
  5
23A
100
AcDbEntity
  8
HATCH
100
AcDbLine
 10
26.82643
 20
70.434745
 30
0.0
 11
26.82643
 21
70.434745
 31
0.0
  0
LINE
  5
23B
100
AcDbEntity
  8
HATCH
100
AcDbLine
 10
27.10243
 20
71.816345
 30
0.0
 11
27.10243
 21
71.816345
 31
0.0
  0
LINE
  5
23C
100
AcDbEntity
  8
HATCH
100
AcDbLine
 10
28.20747
 20
70.711145
 30
0.0
 11
28.20747
 21
70.711145
 31
0.0
  0
LINE
  5
23D
100
AcDbEntity
  8
HATCH
100
AcDbLine
 10
27.65504
 20
70.158645
 30
0.0
 11
27.65504
 21
70.158645
 31
0.0
  0
LINE
  5
23E
100
AcDbEntity
  8
HATCH
100
AcDbLine
 10
27.93129
 20
71.539745
 30
0.0
 11
27.93129
 21
71.539745
 31
0.0
  0
LINE
  5
23F
100
AcDbEntity
  8
HATCH
100
AcDbLine
 10
29.03581
 20
68.225045
 30
0.0
 11
29.03581
 21
68.225045
 31
0.0
  0
LINE
  5
240
100
AcDbEntity
  8
HATCH
100
AcDbLine
 10
28.48338
 20
67.672545
 30
0.0
 11
28.48338
 21
67.672545
 31
0.0
  0
LINE
  5
241
100
AcDbEntity
  8
HATCH
100
AcDbLine
 10
28.75972
 20
69.053645
 30
0.0
 11
28.75972
 21
69.053645
 31
0.0
  0
LINE
  5
242
100
AcDbEntity
  8
HATCH
100
AcDbLine
 10
29.86464
 20
67.948445
 30
0.0
 11
29.86464
 21
67.948445
 31
0.0
  0
LINE
  5
243
100
AcDbEntity
  8
HATCH
100
AcDbLine
 10
29.58824
 20
68.777545
 30
0.0
 11
29.58824
 21
68.777545
 31
0.0
  0
LINE
  5
244
100
AcDbEntity
  8
HATCH
100
AcDbLine
 10
29.31215
 20
69.606145
 30
0.0
 11
29.31215
 21
69.606145
 31
0.0
  0
LINE
  5
245
100
AcDbEntity
  8
HATCH
100
AcDbLine
 10
29.0359
 20
70.435045
 30
0.0
 11
29.0359
 21
70.435045
 31
0.0
  0
LINE
  5
246
100
AcDbEntity
  8
HATCH
100
AcDbLine
 10
28.48347
 20
69.882545
 30
0.0
 11
28.48347
 21
69.882545
 31
0.0
  0
LINE
  5
247
100
AcDbEntity
  8
HATCH
100
AcDbLine
 10
28.7599
 20
71.263645
 30
0.0
 11
28.7599
 21
71.263645
 31
0.0
  0
LINE
  5
248
100
AcDbEntity
  8
HATCH
100
AcDbLine
 10
29.86458
 20
70.158645
 30
0.0
 11
29.86458
 21
70.158645
 31
0.0
  0
LINE
  5
249
100
AcDbEntity
  8
HATCH
100
AcDbLine
 10
29.58833
 20
70.987545
 30
0.0
 11
29.58833
 21
70.987545
 31
0.0
  0
LINE
  5
24A
100
AcDbEntity
  8
HATCH
100
AcDbLine
 10
29.31233
 20
71.816145
 30
0.0
 11
29.31233
 21
71.816145
 31
0.0
  0
LINE
  5
24F
100
AcDbEntity
  8
HATCH
100
AcDbLine
 10
23.78804
 20
72.921845
 30
0.0
 11
23.78804
 21
72.921845
 31
0.0
  0
LINE
  5
250
100
AcDbEntity
  8
HATCH
100
AcDbLine
 10
23.23561
 20
72.369345
 30
0.0
 11
23.23561
 21
72.369345
 31
0.0
  0
LINE
  5
251
100
AcDbEntity
  8
HATCH
100
AcDbLine
 10
23.51192
 20
73.750645
 30
0.0
 11
23.51192
 21
73.750645
 31
0.0
  0
LINE
  5
252
100
AcDbEntity
  8
HATCH
100
AcDbLine
 10
24.61674
 20
72.645445
 30
0.0
 11
24.61674
 21
72.645445
 31
0.0
  0
LINE
  5
253
100
AcDbEntity
  8
HATCH
100
AcDbLine
 10
24.06431
 20
72.092945
 30
0.0
 11
24.06431
 21
72.092945
 31
0.0
  0
LINE
  5
254
100
AcDbEntity
  8
HATCH
100
AcDbLine
 10
24.34047
 20
73.474345
 30
0.0
 11
24.34047
 21
73.474345
 31
0.0
  0
LINE
  5
255
100
AcDbEntity
  8
HATCH
100
AcDbLine
 10
24.06434
 20
74.303145
 30
0.0
 11
24.06434
 21
74.303145
 31
0.0
  0
LINE
  5
256
100
AcDbEntity
  8
HATCH
100
AcDbLine
 10
25.4453
 20
72.369145
 30
0.0
 11
25.4453
 21
72.369145
 31
0.0
  0
LINE
  5
257
100
AcDbEntity
  8
HATCH
100
AcDbLine
 10
25.16917
 20
73.197945
 30
0.0
 11
25.16917
 21
73.197945
 31
0.0
  0
LINE
  5
258
100
AcDbEntity
  8
HATCH
100
AcDbLine
 10
24.8929
 20
74.026845
 30
0.0
 11
24.8929
 21
74.026845
 31
0.0
  0
LINE
  5
259
100
AcDbEntity
  8
HATCH
100
AcDbLine
 10
26.27391
 20
72.092745
 30
0.0
 11
26.27391
 21
72.092745
 31
0.0
  0
LINE
  5
25A
100
AcDbEntity
  8
HATCH
100
AcDbLine
 10
26.55015
 20
73.474045
 30
0.0
 11
26.55015
 21
73.474045
 31
0.0
  0
LINE
  5
25B
100
AcDbEntity
  8
HATCH
100
AcDbLine
 10
25.99773
 20
72.921545
 30
0.0
 11
25.99773
 21
72.921545
 31
0.0
  0
LINE
  5
25C
100
AcDbEntity
  8
HATCH
100
AcDbLine
 10
26.27403
 20
74.302945
 30
0.0
 11
26.27403
 21
74.302945
 31
0.0
  0
LINE
  5
25D
100
AcDbEntity
  8
HATCH
100
AcDbLine
 10
25.7216
 20
73.750445
 30
0.0
 11
25.7216
 21
73.750445
 31
0.0
  0
LINE
  5
25E
100
AcDbEntity
  8
HATCH
100
AcDbLine
 10
27.37877
 20
73.197745
 30
0.0
 11
27.37877
 21
73.197745
 31
0.0
  0
LINE
  5
25F
100
AcDbEntity
  8
HATCH
100
AcDbLine
 10
26.82634
 20
72.645245
 30
0.0
 11
26.82634
 21
72.645245
 31
0.0
  0
LINE
  5
260
100
AcDbEntity
  8
HATCH
100
AcDbLine
 10
27.10258
 20
74.026545
 30
0.0
 11
27.10258
 21
74.026545
 31
0.0
  0
LINE
  5
261
100
AcDbEntity
  8
HATCH
100
AcDbLine
 10
28.20729
 20
72.921345
 30
0.0
 11
28.20729
 21
72.921345
 31
0.0
  0
LINE
  5
262
100
AcDbEntity
  8
HATCH
100
AcDbLine
 10
27.65486
 20
72.368845
 30
0.0
 11
27.65486
 21
72.368845
 31
0.0
  0
LINE
  5
263
100
AcDbEntity
  8
HATCH
100
AcDbLine
 10
27.9312
 20
73.750245
 30
0.0
 11
27.9312
 21
73.750245
 31
0.0
  0
LINE
  5
264
100
AcDbEntity
  8
HATCH
100
AcDbLine
 10
29.03615
 20
72.644745
 30
0.0
 11
29.03615
 21
72.644745
 31
0.0
  0
LINE
  5
265
100
AcDbEntity
  8
HATCH
100
AcDbLine
 10
28.48372
 20
72.092245
 30
0.0
 11
28.48372
 21
72.092245
 31
0.0
  0
LINE
  5
266
100
AcDbEntity
  8
HATCH
100
AcDbLine
 10
28.75972
 20
73.473845
 30
0.0
 11
28.75972
 21
73.473845
 31
0.0
  0
LINE
  5
267
100
AcDbEntity
  8
HATCH
100
AcDbLine
 10
28.48363
 20
74.302645
 30
0.0
 11
28.48363
 21
74.302645
 31
0.0
  0
LINE
  5
268
100
AcDbEntity
  8
HATCH
100
AcDbLine
 10
29.86476
 20
72.368645
 30
0.0
 11
29.86476
 21
72.368645
 31
0.0
  0
LINE
  5
269
100
AcDbEntity
  8
HATCH
100
AcDbLine
 10
29.58858
 20
73.197245
 30
0.0
 11
29.58858
 21
73.197245
 31
0.0
  0
LINE
  5
26A
100
AcDbEntity
  8
HATCH
100
AcDbLine
 10
29.31215
 20
74.026345
 30
0.0
 11
29.31215
 21
74.026345
 31
0.0
  0
TEXT
  5
26B
100
AcDbEntity
  8
DIM_TEXT
100
AcDbText
 10
55.08826
 20
26.749936
 30
0.0
 40
1.125
  1
MEMBER PER PLAN
 51
15.0
  7
INFO
100
AcDbText
  0
TEXT
  5
26C
100
AcDbEntity
  8
DIM_TEXT
100
AcDbText
 10
62.08723
 20
31.681636
 30
0.0
 40
1.125
  1
FLAT BLK'G IN "Z" CLIPS
 51
15.0
  7
INFO
100
AcDbText
  0
TEXT
  5
26D
100
AcDbEntity
  8
DIM_TEXT
100
AcDbText
 10
62.08723
 20
29.753136
 30
0.0
 40
1.125
  1
(@ 48" O.C. MAX)
 51
15.0
  7
INFO
100
AcDbText
  0
TEXT
  5
26E
100
AcDbEntity
  8
DIM_TEXT
100
AcDbText
 10
47.55783
 20
46.151936
 30
0.0
 40
1.125
  1
WALL / MEMBER ANCHORAGE
 51
15.0
  7
INFO
100
AcDbText
  0
TEXT
  5
26F
100
AcDbEntity
  8
DIM_TEXT
100
AcDbText
 10
40.29318
 20
51.467636
 30
0.0
 40
1.125
  1
BOUND. NAILING
 51
15.0
  7
INFO
100
AcDbText
  0
TEXT
  5
270
100
AcDbEntity
  8
DIM_TEXT
100
AcDbText
 10
39.14136
 20
22.806836
 30
0.0
 40
1.125
  1
WOOD LEDGER W/ ANCHOR BOLTS
 51
15.0
  7
INFO
100
AcDbText
  0
TEXT
  5
271
100
AcDbEntity
  8
DIM_TEXT
100
AcDbText
 10
39.14136
 20
20.878236
 30
0.0
 40
1.125
  1
(MIN. 5/8" %%C A.B. @ 45" O.C.)
 51
15.0
  7
INFO
100
AcDbText
  0
TEXT
  5
272
100
AcDbEntity
  8
DIM_TEXT
100
AcDbText
 10
44.36862
 20
48.632636
 30
0.0
 40
1.125
  1
SHEATHING
 51
15.0
  7
INFO
100
AcDbText
  0
LINE
  5
273
100
AcDbEntity
  8
DRAWING
100
AcDbLine
 10
52.29763
 20
36.303336
 30
0.0
 11
50.61434
 21
36.303336
 31
0.0
  0
LINE
  5
274
100
AcDbEntity
  8
DRAWING
100
AcDbLine
 10
51.35262
 20
41.087436
 30
0.0
 11
52.20903
 21
41.796136
 31
0.0
  0
TEXT
  5
275
100
AcDbEntity
  8
DIM_TEXT
100
AcDbText
 10
37.50246
 20
32.626736
 30
0.0
 40
1.125
  1
"JB" HANGER
 51
15.0
  7
INFO
100
AcDbText
  0
TEXT
  5
276
100
AcDbEntity
  8
DIM_TEXT
100
AcDbText
 10
37.50246
 20
30.698136
 30
0.0
 40
1.125
  1
TYPICAL
 51
15.0
  7
INFO
100
AcDbText
  0
LINE
  5
277
100
AcDbEntity
  8
DIM_TEXT
100
AcDbLine
 10
39.14136
 20
23.338436
 30
0.0
 11
37.54664
 21
23.338436
 31
0.0
  0
LINE
  5
278
100
AcDbEntity
  8
DIM_TEXT
100
AcDbLine
 10
45.60885
 20
46.506336
 30
0.0
 11
42.68332
 21
43.580936
 31
0.0
  0
LINE
  5
279
100
AcDbEntity
  8
HATCH
100
AcDbLine
 10
44.4111
 20
41.958736
 30
0.0
 11
45.1611
 21
42.708736
 31
0.0
  0
LINE
  5
27A
100
AcDbEntity
  8
DIM_TEXT
100
AcDbLine
 10
41.88791
 20
42.785436
 30
0.0
 11
42.41818
 21
43.846036
 31
0.0
  0
LINE
  5
27B
100
AcDbEntity
  8
DIM_TEXT
100
AcDbLine
 10
42.41818
 20
43.846036
 30
0.0
 11
42.94845
 21
43.315736
 31
0.0
  0
LINE
  5
27C
100
AcDbEntity
  8
DIM_TEXT
100
AcDbLine
 10
42.06515
 20
49.164136
 30
0.0
 11
38.08224
 21
43.189836
 31
0.0
  0
LINE
  5
27D
100
AcDbEntity
  8
HATCH
100
AcDbLine
 10
40.43356
 20
41.958736
 30
0.0
 11
41.18356
 21
42.708736
 31
0.0
  0
LINE
  5
27E
100
AcDbEntity
  8
HATCH
100
AcDbLine
 10
38.44504
 20
41.958736
 30
0.0
 11
39.19504
 21
42.708736
 31
0.0
  0
LINE
  5
27F
100
AcDbEntity
  8
DRAWING
100
AcDbLine
 10
38.95309
 20
43.110336
 30
0.0
 11
38.95309
 21
40.806836
 31
0.0
  0
LINE
  5
280
100
AcDbEntity
  8
DIM_TEXT
100
AcDbLine
 10
37.45822
 20
42.253836
 30
0.0
 11
38.39426
 21
42.981836
 31
0.0
  0
LINE
  5
281
100
AcDbEntity
  8
DIM_TEXT
100
AcDbLine
 10
37.77023
 20
43.397836
 30
0.0
 11
38.39426
 21
42.981836
 31
0.0
  0
LINE
  5
282
100
AcDbEntity
  8
DIM_TEXT
100
AcDbLine
 10
37.45822
 20
42.253836
 30
0.0
 11
37.77023
 21
43.397836
 31
0.0
  0
LINE
  5
283
100
AcDbEntity
  8
DIM_TEXT
100
AcDbLine
 10
41.88791
 20
42.785436
 30
0.0
 11
42.94845
 21
43.315736
 31
0.0
  0
LINE
  5
284
100
AcDbEntity
  8
HATCH
100
AcDbLine
 10
42.42233
 20
41.958736
 30
0.0
 11
43.17233
 21
42.708736
 31
0.0
  0
LINE
  5
285
100
AcDbEntity
  8
DRAWING
100
AcDbLine
 10
40.95309
 20
43.110336
 30
0.0
 11
40.95309
 21
40.806836
 31
0.0
  0
LINE
  5
286
100
AcDbEntity
  8
DRAWING
100
AcDbLine
 10
42.95309
 20
43.110336
 30
0.0
 11
42.95309
 21
40.806836
 31
0.0
  0
LINE
  5
287
100
AcDbEntity
  8
DIM_TEXT
100
AcDbLine
 10
39.93893
 20
52.353536
 30
0.0
 11
38.34445
 21
52.353536
 31
0.0
  0
LINE
  5
288
100
AcDbEntity
  8
DIM_TEXT
100
AcDbLine
 10
43.83688
 20
49.341336
 30
0.0
 11
42.06515
 21
49.164136
 31
0.0
  0
LINE
  5
289
100
AcDbEntity
  8
DRAWING
100
AcDbLine
 10
44.95309
 20
43.110336
 30
0.0
 11
44.95309
 21
40.806836
 31
0.0
  0
LINE
  5
28A
100
AcDbEntity
  8
DRAWING
100
AcDbLine
 10
46.95309
 20
43.110336
 30
0.0
 11
46.95309
 21
40.806836
 31
0.0
  0
LINE
  5
28B
100
AcDbEntity
  8
HATCH
100
AcDbLine
 10
46.39987
 20
41.958736
 30
0.0
 11
47.14987
 21
42.708736
 31
0.0
  0
LINE
  5
28C
100
AcDbEntity
  8
DRAWING
100
AcDbLine
 10
51.35262
 20
37.514136
 30
0.0
 11
51.35262
 21
41.087436
 31
0.0
  0
LINE
  5
28D
100
AcDbEntity
  8
DRAWING
100
AcDbLine
 10
50.61434
 20
36.303336
 30
0.0
 11
51.35262
 21
37.514136
 31
0.0
  0
LINE
  5
28E
100
AcDbEntity
  8
DRAWING
100
AcDbLine
 10
48.95309
 20
43.110336
 30
0.0
 11
48.95309
 21
40.806836
 31
0.0
  0
LINE
  5
28F
100
AcDbEntity
  8
HATCH
100
AcDbLine
 10
48.38864
 20
41.958736
 30
0.0
 11
49.13864
 21
42.708736
 31
0.0
  0
LINE
  5
290
100
AcDbEntity
  8
DRAWING
100
AcDbLine
 10
50.95309
 20
43.110336
 30
0.0
 11
50.95309
 21
40.806836
 31
0.0
  0
LINE
  5
291
100
AcDbEntity
  8
HATCH
100
AcDbLine
 10
50.37741
 20
41.958736
 30
0.0
 11
51.12741
 21
42.708736
 31
0.0
  0
LINE
  5
292
100
AcDbEntity
  8
DIM_TEXT
100
AcDbLine
 10
47.02634
 20
46.506336
 30
0.0
 11
45.60885
 21
46.506336
 31
0.0
  0
LINE
  5
293
100
AcDbEntity
  8
DRAWING
100
AcDbLine
 10
52.39101
 20
41.983336
 30
0.0
 11
52.39101
 21
30.677636
 31
0.0
  0
LINE
  5
294
100
AcDbEntity
  8
DRAWING
100
AcDbLine
 10
53.89101
 20
41.983336
 30
0.0
 11
53.89101
 21
30.677636
 31
0.0
  0
LINE
  5
295
100
AcDbEntity
  8
HATCH
100
AcDbLine
 10
52.38621
 20
30.677636
 30
0.0
 11
53.89101
 21
41.983336
 31
0.0
  0
LINE
  5
296
100
AcDbEntity
  8
HATCH
100
AcDbLine
 10
52.39101
 20
41.983336
 30
0.0
 11
53.89101
 21
30.677636
 31
0.0
  0
LINE
  5
297
100
AcDbEntity
  8
DIM_TEXT
100
AcDbLine
 10
60.89121
 20
32.006536
 30
0.0
 11
59.47391
 21
35.313536
 31
0.0
  0
LINE
  5
298
100
AcDbEntity
  8
DIM_TEXT
100
AcDbLine
 10
52.74059
 20
30.766236
 30
0.0
 11
53.44437
 21
29.811736
 31
0.0
  0
LINE
  5
299
100
AcDbEntity
  8
DIM_TEXT
100
AcDbLine
 10
52.74059
 20
30.766236
 30
0.0
 11
52.73095
 21
29.580436
 31
0.0
  0
LINE
  5
29A
100
AcDbEntity
  8
DIM_TEXT
100
AcDbLine
 10
53.80372
 20
27.488236
 30
0.0
 11
53.08766
 21
29.696136
 31
0.0
  0
LINE
  5
29B
100
AcDbEntity
  8
DIM_TEXT
100
AcDbLine
 10
53.44437
 20
29.811736
 30
0.0
 11
52.73095
 21
29.580436
 31
0.0
  0
LINE
  5
29C
100
AcDbEntity
  8
DIM_TEXT
100
AcDbLine
 10
54.77824
 20
27.311036
 30
0.0
 11
53.80372
 21
27.488236
 31
0.0
  0
LINE
  5
29D
100
AcDbEntity
  8
DRAWING
100
AcDbLine
 10
52.39101
 20
30.677636
 30
0.0
 11
53.89101
 21
30.677636
 31
0.0
  0
LINE
  5
29E
100
AcDbEntity
  8
DIM_TEXT
100
AcDbLine
 10
61.86574
 20
32.006536
 30
0.0
 11
60.89121
 21
32.006536
 31
0.0
  0
LINE
  5
29F
100
AcDbEntity
  8
HATCH
100
AcDbLine
 10
58.33347
 20
41.958736
 30
0.0
 11
59.08347
 21
42.708736
 31
0.0
  0
LINE
  5
2A0
100
AcDbEntity
  8
DRAWING
100
AcDbLine
 10
55.57295
 20
36.458736
 30
0.0
 11
61.95434
 21
36.458736
 31
0.0
  0
LINE
  5
2A1
100
AcDbEntity
  8
DRAWING
100
AcDbLine
 10
53.9844
 20
36.303336
 30
0.0
 11
55.66769
 21
36.303336
 31
0.0
  0
LINE
  5
2A2
100
AcDbEntity
  8
DRAWING
100
AcDbLine
 10
55.66769
 20
36.303336
 30
0.0
 11
54.9294
 21
37.514136
 31
0.0
  0
LINE
  5
2A3
100
AcDbEntity
  8
DRAWING
100
AcDbLine
 10
52.29763
 20
42.120936
 30
0.0
 11
52.29763
 21
36.303336
 31
0.0
  0
LINE
  5
2A4
100
AcDbEntity
  8
DRAWING
100
AcDbLine
 10
53.9844
 20
42.120936
 30
0.0
 11
53.9844
 21
36.303336
 31
0.0
  0
LINE
  5
2A5
100
AcDbEntity
  8
DRAWING
100
AcDbLine
 10
54.9294
 20
37.514136
 30
0.0
 11
54.9294
 21
41.087436
 31
0.0
  0
LINE
  5
2A6
100
AcDbEntity
  8
DRAWING
100
AcDbLine
 10
52.95081
 20
42.120936
 30
0.0
 11
53.9844
 21
42.120936
 31
0.0
  0
LINE
  5
2A7
100
AcDbEntity
  8
DRAWING
100
AcDbLine
 10
52.95309
 20
43.110336
 30
0.0
 11
52.95309
 21
40.806836
 31
0.0
  0
LINE
  5
2A8
100
AcDbEntity
  8
DRAWING
100
AcDbLine
 10
53.33122
 20
42.120936
 30
0.0
 11
52.29763
 21
42.120936
 31
0.0
  0
LINE
  5
2A9
100
AcDbEntity
  8
HATCH
100
AcDbLine
 10
52.36642
 20
41.958736
 30
0.0
 11
53.11642
 21
42.708736
 31
0.0
  0
LINE
  5
2AA
100
AcDbEntity
  8
DRAWING
100
AcDbLine
 10
54.9294
 20
41.087436
 30
0.0
 11
54.073
 21
41.796136
 31
0.0
  0
LINE
  5
2AB
100
AcDbEntity
  8
DRAWING
100
AcDbLine
 10
54.95309
 20
43.110336
 30
0.0
 11
54.95309
 21
40.806836
 31
0.0
  0
LINE
  5
2AC
100
AcDbEntity
  8
HATCH
100
AcDbLine
 10
54.35544
 20
41.958736
 30
0.0
 11
55.10544
 21
42.708736
 31
0.0
  0
LINE
  5
2AD
100
AcDbEntity
  8
HATCH
100
AcDbLine
 10
56.34446
 20
41.958736
 30
0.0
 11
57.09446
 21
42.708736
 31
0.0
  0
LINE
  5
2AE
100
AcDbEntity
  8
DRAWING
100
AcDbLine
 10
56.95309
 20
43.110336
 30
0.0
 11
56.95309
 21
40.806836
 31
0.0
  0
LINE
  5
2AF
100
AcDbEntity
  8
HATCH
100
AcDbLine
 10
61.95434
 20
43.759936
 30
0.0
 11
61.95434
 21
40.482036
 31
0.0
  0
LINE
  5
2B0
100
AcDbEntity
  8
HATCH
100
AcDbLine
 10
61.95434
 20
40.482036
 30
0.0
 11
63.46043
 21
39.861836
 31
0.0
  0
LINE
  5
2B1
100
AcDbEntity
  8
HATCH
100
AcDbLine
 10
63.46043
 20
39.861836
 30
0.0
 11
60.35966
 21
38.089936
 31
0.0
  0
LINE
  5
2B2
100
AcDbEntity
  8
HATCH
100
AcDbLine
 10
60.35966
 20
38.089936
 30
0.0
 11
61.95434
 21
37.824236
 31
0.0
  0
LINE
  5
2B3
100
AcDbEntity
  8
DIM_TEXT
100
AcDbLine
 10
59.03075
 20
36.347636
 30
0.0
 11
59.81859
 21
35.461336
 31
0.0
  0
LINE
  5
2B4
100
AcDbEntity
  8
DIM_TEXT
100
AcDbLine
 10
59.81859
 20
35.461336
 30
0.0
 11
59.12923
 21
35.165836
 31
0.0
  0
LINE
  5
2B5
100
AcDbEntity
  8
DIM_TEXT
100
AcDbLine
 10
59.03075
 20
36.347636
 30
0.0
 11
59.12923
 21
35.165836
 31
0.0
  0
LINE
  5
2B6
100
AcDbEntity
  8
HATCH
100
AcDbLine
 10
61.95434
 20
37.824236
 30
0.0
 11
61.95434
 21
35.520736
 31
0.0
  0
LINE
  5
2B7
100
AcDbEntity
  8
HATCH
100
AcDbLine
 10
60.32249
 20
41.958736
 30
0.0
 11
61.07249
 21
42.708736
 31
0.0
  0
LINE
  5
2B8
100
AcDbEntity
  8
DRAWING
100
AcDbLine
 10
58.95309
 20
43.110336
 30
0.0
 11
58.95309
 21
40.806836
 31
0.0
  0
ARC
  5
2BE
100
AcDbEntity
  8
DRAWING
100
AcDbCircle
 10
25.01907
 20
39.146236
 30
0.0
 40
3.0
100
AcDbArc
 50
7.614082
 51
180.0
  0
LINE
  5
2BF
100
AcDbEntity
  8
DRAWING
100
AcDbLine
 10
28.14407
 20
43.874036
 30
0.0
 11
30.01907
 21
43.874036
 31
0.0
  0
LINE
  5
2C0
100
AcDbEntity
  8
DRAWING
100
AcDbLine
 10
28.14407
 20
37.874036
 30
0.0
 11
30.01907
 21
37.874036
 31
0.0
  0
LINE
  5
2C1
100
AcDbEntity
  8
DRAWING
100
AcDbLine
 10
25.26176
 20
37.525536
 30
0.0
 11
25.26176
 21
14.955936
 31
0.0
  0
LINE
  5
2C2
100
AcDbEntity
  8
HATCH
100
AcDbLine
 10
28.390254
 20
40.262754
 30
0.0
 11
28.400994
 21
40.324354
 31
0.0
  0
LINE
  5
2C3
100
AcDbEntity
  8
HATCH
100
AcDbLine
 10
28.281854
 20
41.846354
 30
0.0
 11
28.340694
 21
41.867754
 31
0.0
  0
LINE
  5
2C4
100
AcDbEntity
  8
HATCH
100
AcDbLine
 10
28.572324
 20
41.462054
 30
0.0
 11
28.631164
 21
41.483354
 31
0.0
  0
LINE
  5
2C5
100
AcDbEntity
  8
HATCH
100
AcDbLine
 10
29.092164
 20
41.264254
 30
0.0
 11
29.128054
 21
41.315454
 31
0.0
  0
LINE
  5
2C6
100
AcDbEntity
  8
HATCH
100
AcDbLine
 10
29.446834
 20
40.122954
 30
0.0
 11
29.401914
 21
40.058954
 31
0.0
  0
LINE
  5
2C7
100
AcDbEntity
  8
HATCH
100
AcDbLine
 10
29.027325
 20
43.208355
 30
0.0
 11
29.038065
 21
43.269955
 31
0.0
  0
TEXT
  5
2E4
100
AcDbEntity
  8
DIM_TEXT
100
AcDbText
 10
-0.41278
 20
30.042909
 30
0.0
 40
1.125
  1
VERT. REINF.
 51
15.0
  7
INFO
100
AcDbText
  0
TEXT
  5
2E5
100
AcDbEntity
  8
DIM_TEXT
100
AcDbText
 10
-7.217549
 20
27.723647
 30
0.0
 40
1.125
  1
(MIN. #4 @ 30" O.C.
 51
15.0
  7
INFO
100
AcDbText
  0
TEXT
  5
2E6
100
AcDbEntity
  8
DIM_TEXT
100
AcDbText
 10
-9.84009
 20
24.982812
 30
0.0
 40
1.125
  1
REQUIRED, PER DESIGN)
 51
15.0
  7
INFO
100
AcDbText
  0
TEXT
  5
2E7
100
AcDbEntity
  8
DIM_TEXT
100
AcDbText
 10
-1.128796
 20
17.811208
 30
0.0
 40
1.125
  1
HORIZ. REINF.
 51
15.0
  7
INFO
100
AcDbText
  0
TEXT
  5
2E8
100
AcDbEntity
  8
DIM_TEXT
100
AcDbText
 10
-7.225318
 20
15.326057
 30
0.0
 40
1.125
  1
(MIN. #4 @ 30" O.C.
 51
15.0
  7
INFO
100
AcDbText
  0
TEXT
  5
2E9
100
AcDbEntity
  8
DIM_TEXT
100
AcDbText
 10
-9.753129
 20
12.715943
 30
0.0
 40
1.125
  1
REQUIRED, PER DESIGN)
 51
15.0
  7
INFO
100
AcDbText
  0
LEADER
  5
2F5
100
AcDbEntity
  8
RF-SW
 62
     6
100
AcDbLeader
  3
ARCHITECTURAL
 76
     3
 10
25.08688
 20
34.112336
 30
0.0
 10
15.54775
 20
30.385494
 30
0.0
 10
12.73194
 20
30.385494
 30
0.0
 77
     6
1001
ACAD
1000
DSTYLE
1002
{
1070
    40
1040
12.0
1070
   173
1070
     1
1070
   176
1070
     6
1070
     7
1000
_CLOSEDBLANK
1070
     6
1000
_CLOSEDBLANK
1002
}
  0
LEADER
  5
2F6
100
AcDbEntity
  8
RF-SW
 62
     6
100
AcDbLeader
  3
ARCHITECTURAL
 76
     3
 10
26.000454
 20
22.244363
 30
0.0
 10
16.461324
 20
18.517521
 30
0.0
 10
13.645514
 20
18.517521
 30
0.0
 77
     6
1001
ACAD
1000
DSTYLE
1002
{
1070
    40
1040
12.0
1070
   173
1070
     1
1070
   176
1070
     6
1070
     7
1000
_CLOSEDBLANK
1070
     6
1000
_CLOSEDBLANK
1002
}
  0
LEADER
  5
2F8
100
AcDbEntity
  8
RF-SW
 62
     6
100
AcDbLeader
  3
ARCHITECTURAL
 76
     3
 10
19.905899
 20
53.393227
 30
0.0
 10
10.36677
 20
54.554365
 30
0.0
 10
7.550959
 20
54.554365
 30
0.0
 77
     6
1001
ACAD
1000
DSTYLE
1002
{
1070
    40
1040
12.0
1070
   173
1070
     1
1070
   176
1070
     6
1070
     7
1000
_CLOSEDBLANK
1070
     6
1000
_CLOSEDBLANK
1002
}
  0
TEXT
  5
2F9
100
AcDbEntity
  8
DIM_TEXT
100
AcDbText
 10
-5.057797
 20
54.501075
 30
0.0
 40
1.125
  1
RASTRA WALL
 51
15.0
  7
INFO
100
AcDbText
  0
ENDSEC
  0
SECTION
  2
OBJECTS
  0
DICTIONARY
  5
C
100
AcDbDictionary
  3
ACAD_GROUP
350
D
  3
ACAD_MLINESTYLE
350
1A
  3
ACDBVARIABLEDICTIONARY
350
29
  0
DICTIONARY
  5
D
102
{ACAD_REACTORS
330
C
102
}
100
AcDbDictionary
  0
DICTIONARY
  5
1A
102
{ACAD_REACTORS
330
C
102
}
100
AcDbDictionary
  3
STANDARD
350
1B
  0
DICTIONARY
  5
29
102
{ACAD_REACTORS
330
C
102
}
100
AcDbDictionary
  3
DIMADEC
350
2A
  0
MLINESTYLE
  5
1B
102
{ACAD_REACTORS
330
1A
102
}
100
AcDbMlineStyle
  2
STANDARD
 70
     0
  3

 62
   256
 51
90.0
 52
90.0
 71
     2
 49
0.5
 62
   256
  6
BYLAYER
 49
-0.5
 62
   256
  6
BYLAYER
  0
DICTIONARYVAR
  5
2A
102
{ACAD_REACTORS
330
29
102
}
100
DictionaryVariables
280
     0
  1
0
  0
ENDSEC
  0
EOF
