  0
SECTION
  2
HEADER
  9
$ACADVER
  1
AC1014
  9
$ACADMAINTVER
 70
     8
  9
$DWGCODEPAGE
  3
ANSI_1252
  9
$INSBASE
 10
0.0
 20
0.0
 30
0.0
  9
$EXTMIN
 10
5.515797
 20
5.461431
 30
0.0
  9
$EXTMAX
 10
76.574524
 20
73.435684
 30
0.0
  9
$LIMMIN
 10
0.0
 20
0.0
  9
$LIMMAX
 10
85.0
 20
110.0
  9
$ORTHOMODE
 70
     1
  9
$REGENMODE
 70
     1
  9
$FILLMODE
 70
     1
  9
$QTEXTMODE
 70
     0
  9
$MIRRTEXT
 70
     1
  9
$DRAGMODE
 70
     2
  9
$LTSCALE
 40
3.0
  9
$OSMODE
 70
    37
  9
$ATTMODE
 70
     1
  9
$TEXTSIZE
 40
0.2
  9
$TRACEWID
 40
0.05
  9
$TEXTSTYLE
  7
STANDARD
  9
$CLAYER
  8
0
  9
$CELTYPE
  6
BYLAYER
  9
$CECOLOR
 62
   256
  9
$CELTSCALE
 40
1.0
  9
$DELOBJ
 70
     1
  9
$DISPSILH
 70
     0
  9
$DIMSCALE
 40
1.0
  9
$DIMASZ
 40
1.0
  9
$DIMEXO
 40
0.5
  9
$DIMDLI
 40
1.0
  9
$DIMRND
 40
0.0
  9
$DIMDLE
 40
0.0
  9
$DIMEXE
 40
0.5
  9
$DIMTP
 40
0.0
  9
$DIMTM
 40
0.0
  9
$DIMTXT
 40
1.125
  9
$DIMCEN
 40
0.0625
  9
$DIMTSZ
 40
0.0
  9
$DIMTOL
 70
     0
  9
$DIMLIM
 70
     0
  9
$DIMTIH
 70
     1
  9
$DIMTOH
 70
     1
  9
$DIMSE1
 70
     0
  9
$DIMSE2
 70
     0
  9
$DIMTAD
 70
     0
  9
$DIMZIN
 70
     0
  9
$DIMBLK
  1

  9
$DIMASO
 70
     1
  9
$DIMSHO
 70
     1
  9
$DIMPOST
  1

  9
$DIMAPOST
  1

  9
$DIMALT
 70
     0
  9
$DIMALTD
 70
     2
  9
$DIMALTF
 40
25.4
  9
$DIMLFAC
 40
1.0
  9
$DIMTOFL
 70
     0
  9
$DIMTVP
 40
0.0
  9
$DIMTIX
 70
     0
  9
$DIMSOXD
 70
     0
  9
$DIMSAH
 70
     0
  9
$DIMBLK1
  1

  9
$DIMBLK2
  1

  9
$DIMSTYLE
  2
STANDARD
  9
$DIMCLRD
 70
     0
  9
$DIMCLRE
 70
     0
  9
$DIMCLRT
 70
     0
  9
$DIMTFAC
 40
0.666667
  9
$DIMGAP
 40
0.5
  9
$DIMJUST
 70
     0
  9
$DIMSD1
 70
     0
  9
$DIMSD2
 70
     0
  9
$DIMTOLJ
 70
     1
  9
$DIMTZIN
 70
     0
  9
$DIMALTZ
 70
     0
  9
$DIMALTTZ
 70
     0
  9
$DIMFIT
 70
     5
  9
$DIMUPT
 70
     0
  9
$DIMUNIT
 70
     4
  9
$DIMDEC
 70
     4
  9
$DIMTDEC
 70
     4
  9
$DIMALTU
 70
     4
  9
$DIMALTTD
 70
     2
  9
$DIMTXSTY
  7
STANDARD
  9
$DIMAUNIT
 70
     2
  9
$LUNITS
 70
     4
  9
$LUPREC
 70
     4
  9
$SKETCHINC
 40
0.1
  9
$FILLETRAD
 40
0.0
  9
$AUNITS
 70
     2
  9
$AUPREC
 70
     0
  9
$MENU
  1
acad
  9
$ELEVATION
 40
0.0
  9
$PELEVATION
 40
0.0
  9
$THICKNESS
 40
0.0
  9
$LIMCHECK
 70
     0
  9
$BLIPMODE
 70
     1
  9
$CHAMFERA
 40
0.0
  9
$CHAMFERB
 40
0.0
  9
$CHAMFERC
 40
0.0
  9
$CHAMFERD
 40
0.0
  9
$SKPOLY
 70
     0
  9
$TDCREATE
 40
2451171.799950926
  9
$TDUPDATE
 40
2452250.527131481
  9
$TDINDWG
 40
0.0028370370
  9
$TDUSRTIMER
 40
0.0028370370
  9
$USRTIMER
 70
     1
  9
$ANGBASE
 50
0.0
  9
$ANGDIR
 70
     0
  9
$PDMODE
 70
     0
  9
$PDSIZE
 40
0.0
  9
$PLINEWID
 40
0.0
  9
$COORDS
 70
     1
  9
$SPLFRAME
 70
     0
  9
$SPLINETYPE
 70
     6
  9
$SPLINESEGS
 70
     8
  9
$ATTDIA
 70
     0
  9
$ATTREQ
 70
     1
  9
$HANDLING
 70
     1
  9
$HANDSEED
  5
350
  9
$SURFTAB1
 70
     6
  9
$SURFTAB2
 70
     6
  9
$SURFTYPE
 70
     6
  9
$SURFU
 70
     6
  9
$SURFV
 70
     6
  9
$UCSNAME
  2

  9
$UCSORG
 10
0.0
 20
0.0
 30
0.0
  9
$UCSXDIR
 10
1.0
 20
0.0
 30
0.0
  9
$UCSYDIR
 10
0.0
 20
1.0
 30
0.0
  9
$PUCSNAME
  2

  9
$PUCSORG
 10
0.0
 20
0.0
 30
0.0
  9
$PUCSXDIR
 10
1.0
 20
0.0
 30
0.0
  9
$PUCSYDIR
 10
0.0
 20
1.0
 30
0.0
  9
$USERI1
 70
     0
  9
$USERI2
 70
     0
  9
$USERI3
 70
     0
  9
$USERI4
 70
     0
  9
$USERI5
 70
     0
  9
$USERR1
 40
0.0
  9
$USERR2
 40
0.0
  9
$USERR3
 40
0.0
  9
$USERR4
 40
0.0
  9
$USERR5
 40
0.0
  9
$WORLDVIEW
 70
     1
  9
$SHADEDGE
 70
     3
  9
$SHADEDIF
 70
    70
  9
$TILEMODE
 70
     1
  9
$MAXACTVP
 70
    16
  9
$PINSBASE
 10
0.0
 20
0.0
 30
0.0
  9
$PLIMCHECK
 70
     0
  9
$PEXTMIN
 10
1.000000E+20
 20
1.000000E+20
 30
1.000000E+20
  9
$PEXTMAX
 10
-1.000000E+20
 20
-1.000000E+20
 30
-1.000000E+20
  9
$PLIMMIN
 10
0.0
 20
0.0
  9
$PLIMMAX
 10
12.0
 20
9.0
  9
$UNITMODE
 70
     0
  9
$VISRETAIN
 70
     0
  9
$PLINEGEN
 70
     0
  9
$PSLTSCALE
 70
     1
  9
$TREEDEPTH
 70
  3020
  9
$PICKSTYLE
 70
     1
  9
$CMLSTYLE
  2
STANDARD
  9
$CMLJUST
 70
     0
  9
$CMLSCALE
 40
1.0
  9
$PROXYGRAPHICS
 70
     1
  9
$MEASUREMENT
 70
     0
  0
ENDSEC
  0
SECTION
  2
CLASSES
  0
CLASS
  1
DICTIONARYVAR
  2
AcDbDictionaryVar
  3
"AutoCAD"
 90
        0
280
     0
281
     0
  0
CLASS
  1
LWPOLYLINE
  2
AcDbPolyline
  3
"AutoCAD"
 90
        0
280
     0
281
     1
  0
ENDSEC
  0
SECTION
  2
TABLES
  0
TABLE
  2
VPORT
  5
8
100
AcDbSymbolTable
 70
     1
  0
VPORT
  5
34A
100
AcDbSymbolTableRecord
100
AcDbViewportTableRecord
  2
*ACTIVE
 70
     0
 10
0.0
 20
0.0
 11
1.0
 21
1.0
 12
39.661422
 22
40.269657
 13
0.0
 23
0.0
 14
1.0
 24
1.0
 15
1.0
 25
1.0
 16
0.0
 26
0.0
 36
1.0
 17
0.0
 27
0.0
 37
0.0
 40
73.057673
 41
1.474388
 42
50.0
 43
0.0
 44
0.0
 50
0.0
 51
0.0
 71
     0
 72
   100
 73
     1
 74
     1
 75
     0
 76
     0
 77
     0
 78
     0
  0
ENDTAB
  0
TABLE
  2
LTYPE
  5
5
100
AcDbSymbolTable
 70
     1
  0
LTYPE
  5
11
100
AcDbSymbolTableRecord
100
AcDbLinetypeTableRecord
  2
BYBLOCK
 70
     0
  3

 72
    65
 73
     0
 40
0.0
  0
LTYPE
  5
12
100
AcDbSymbolTableRecord
100
AcDbLinetypeTableRecord
  2
BYLAYER
 70
     0
  3

 72
    65
 73
     0
 40
0.0
  0
LTYPE
  5
13
100
AcDbSymbolTableRecord
100
AcDbLinetypeTableRecord
  2
CONTINUOUS
 70
     0
  3
Solid line
 72
    65
 73
     0
 40
0.0
  0
ENDTAB
  0
TABLE
  2
LAYER
  5
2
100
AcDbSymbolTable
 70
     5
  0
LAYER
  5
E
100
AcDbSymbolTableRecord
100
AcDbLayerTableRecord
  2
0
 70
     0
 62
     7
  6
CONTINUOUS
  0
LAYER
  5
24
100
AcDbSymbolTableRecord
100
AcDbLayerTableRecord
  2
DRAWING
 70
     0
 62
     7
  6
CONTINUOUS
  0
LAYER
  5
25
100
AcDbSymbolTableRecord
100
AcDbLayerTableRecord
  2
HATCH
 70
     0
 62
     3
  6
CONTINUOUS
  0
LAYER
  5
26
100
AcDbSymbolTableRecord
100
AcDbLayerTableRecord
  2
DIM_TEXT
 70
     0
 62
     6
  6
CONTINUOUS
  0
LAYER
  5
27
100
AcDbSymbolTableRecord
100
AcDbLayerTableRecord
  2
DEFPOINTS
 70
     0
 62
     7
  6
CONTINUOUS
  0
ENDTAB
  0
TABLE
  2
STYLE
  5
3
100
AcDbSymbolTable
 70
     3
  0
STYLE
  5
F
100
AcDbSymbolTableRecord
100
AcDbTextStyleTableRecord
  2
STANDARD
 70
     0
 40
0.0
 41
1.0
 50
0.0
 71
     0
 42
0.2
  3
txt
  4

  0
STYLE
  5
1E
100
AcDbSymbolTableRecord
100
AcDbTextStyleTableRecord
  2
INFO
 70
     0
 40
0.0
 41
1.0
 50
15.0
 71
     0
 42
1.08
  3
C:\ACADWIN\FONTS\ROMANS.SHX
  4

  0
STYLE
  5
1F
100
AcDbSymbolTableRecord
100
AcDbTextStyleTableRecord
  2
TITLE
 70
     0
 40
0.0
 41
1.0
 50
0.0
 71
     0
 42
2.8
  3
C:\ACADWIN\FONTS\ROMANC.SHX
  4

  0
ENDTAB
  0
TABLE
  2
VIEW
  5
6
100
AcDbSymbolTable
 70
     0
  0
ENDTAB
  0
TABLE
  2
UCS
  5
7
100
AcDbSymbolTable
 70
     0
  0
ENDTAB
  0
TABLE
  2
APPID
  5
9
100
AcDbSymbolTable
 70
     2
  0
APPID
  5
10
100
AcDbSymbolTableRecord
100
AcDbRegAppTableRecord
  2
ACAD
 70
     0
  0
APPID
  5
23
100
AcDbSymbolTableRecord
100
AcDbRegAppTableRecord
  2
ZIMM
 70
     0
  0
ENDTAB
  0
TABLE
  2
DIMSTYLE
  5
A
100
AcDbSymbolTable
 70
     1
  0
DIMSTYLE
105
338
100
AcDbSymbolTableRecord
100
AcDbDimStyleTableRecord
  2
STANDARD
 70
     0
  3

  4

  5

  6

  7

 40
1.0
 41
0.18
 42
0.0625
 43
0.38
 44
0.18
 45
0.0
 46
0.0
 47
0.0
 48
0.0
140
0.18
141
0.09
142
0.0
143
25.4
144
1.0
145
0.0
146
1.0
147
0.09
 71
     0
 72
     0
 73
     1
 74
     1
 75
     0
 76
     0
 77
     0
 78
     0
170
     0
171
     2
172
     0
173
     0
174
     0
175
     0
176
     0
177
     0
178
     0
270
     2
271
     4
272
     4
273
     2
274
     2
340
F
275
     0
280
     0
281
     0
282
     0
283
     1
284
     0
285
     0
286
     0
287
     3
288
     0
  0
ENDTAB
  0
TABLE
  2
BLOCK_RECORD
  5
1
100
AcDbSymbolTable
 70
     3
  0
BLOCK_RECORD
  5
17
100
AcDbSymbolTableRecord
100
AcDbBlockTableRecord
  2
*MODEL_SPACE
  0
BLOCK_RECORD
  5
14
100
AcDbSymbolTableRecord
100
AcDbBlockTableRecord
  2
*PAPER_SPACE
  0
BLOCK_RECORD
  5
1C
100
AcDbSymbolTableRecord
100
AcDbBlockTableRecord
  2
*X0
  0
BLOCK_RECORD
  5
1D
100
AcDbSymbolTableRecord
100
AcDbBlockTableRecord
  2
*X1
  0
BLOCK_RECORD
  5
33A
100
AcDbSymbolTableRecord
100
AcDbBlockTableRecord
  2
A$C1B9C0168
  0
ENDTAB
  0
ENDSEC
  0
SECTION
  2
BLOCKS
  0
BLOCK
  5
2A
100
AcDbEntity
  8
0
100
AcDbBlockBegin
  2
*MODEL_SPACE
 70
     0
 10
0.0
 20
0.0
 30
0.0
  3
*MODEL_SPACE
  1

  0
ENDBLK
  5
2B
100
AcDbEntity
  8
0
100
AcDbBlockEnd
  0
BLOCK
  5
28
100
AcDbEntity
 67
     1
  8
0
100
AcDbBlockBegin
  2
*PAPER_SPACE
 70
     0
 10
0.0
 20
0.0
 30
0.0
  3
*PAPER_SPACE
  1

  0
ENDBLK
  5
29
100
AcDbEntity
 67
     1
  8
0
100
AcDbBlockEnd
  0
BLOCK
  5
2E
100
AcDbEntity
  8
0
100
AcDbBlockBegin
  2
*X0
 70
     1
 10
0.0
 20
0.0
 30
0.0
  3
*X0
  1

  0
LINE
  5
2F
100
AcDbEntity
  8
0
 62
     0
100
AcDbLine
 10
35.201148
 20
45.80775
 30
0.0
 11
38.201148
 21
48.80775
 31
0.0
  0
LINE
  5
30
100
AcDbEntity
  8
0
 62
     0
100
AcDbLine
 10
46.205898
 20
56.8125
 30
0.0
 11
47.201148
 21
57.80775
 31
0.0
  0
LINE
  5
31
100
AcDbEntity
  8
0
 62
     0
100
AcDbLine
 10
35.201148
 20
47.575517
 30
0.0
 11
38.201148
 21
50.575517
 31
0.0
  0
LINE
  5
32
100
AcDbEntity
  8
0
 62
     0
100
AcDbLine
 10
44.438131
 20
56.8125
 30
0.0
 11
47.201148
 21
59.575517
 31
0.0
  0
LINE
  5
33
100
AcDbEntity
  8
0
 62
     0
100
AcDbLine
 10
35.201148
 20
49.343284
 30
0.0
 11
38.201148
 21
52.343284
 31
0.0
  0
LINE
  5
34
100
AcDbEntity
  8
0
 62
     0
100
AcDbLine
 10
44.201148
 20
58.343284
 30
0.0
 11
47.201148
 21
61.343284
 31
0.0
  0
LINE
  5
35
100
AcDbEntity
  8
0
 62
     0
100
AcDbLine
 10
35.201148
 20
51.111051
 30
0.0
 11
38.201148
 21
54.111051
 31
0.0
  0
LINE
  5
36
100
AcDbEntity
  8
0
 62
     0
100
AcDbLine
 10
44.201148
 20
60.111051
 30
0.0
 11
47.201148
 21
63.111051
 31
0.0
  0
LINE
  5
37
100
AcDbEntity
  8
0
 62
     0
100
AcDbLine
 10
35.201148
 20
52.878818
 30
0.0
 11
38.201148
 21
55.878818
 31
0.0
  0
LINE
  5
38
100
AcDbEntity
  8
0
 62
     0
100
AcDbLine
 10
44.201148
 20
61.878818
 30
0.0
 11
47.201148
 21
64.878818
 31
0.0
  0
LINE
  5
39
100
AcDbEntity
  8
0
 62
     0
100
AcDbLine
 10
35.201148
 20
54.646584
 30
0.0
 11
38.201148
 21
57.646584
 31
0.0
  0
LINE
  5
3A
100
AcDbEntity
  8
0
 62
     0
100
AcDbLine
 10
44.201148
 20
63.646584
 30
0.0
 11
47.201148
 21
66.646584
 31
0.0
  0
LINE
  5
3B
100
AcDbEntity
  8
0
 62
     0
100
AcDbLine
 10
35.201148
 20
56.414351
 30
0.0
 11
38.201148
 21
59.414351
 31
0.0
  0
LINE
  5
3C
100
AcDbEntity
  8
0
 62
     0
100
AcDbLine
 10
44.201148
 20
65.414351
 30
0.0
 11
47.201148
 21
68.414351
 31
0.0
  0
LINE
  5
3D
100
AcDbEntity
  8
0
 62
     0
100
AcDbLine
 10
35.201148
 20
58.182118
 30
0.0
 11
38.201148
 21
61.182118
 31
0.0
  0
LINE
  5
3E
100
AcDbEntity
  8
0
 62
     0
100
AcDbLine
 10
44.201148
 20
67.182118
 30
0.0
 11
47.201148
 21
70.182118
 31
0.0
  0
LINE
  5
3F
100
AcDbEntity
  8
0
 62
     0
100
AcDbLine
 10
35.201148
 20
59.949885
 30
0.0
 11
38.201148
 21
62.949885
 31
0.0
  0
LINE
  5
40
100
AcDbEntity
  8
0
 62
     0
100
AcDbLine
 10
44.201148
 20
68.949885
 30
0.0
 11
47.201148
 21
71.949885
 31
0.0
  0
LINE
  5
41
100
AcDbEntity
  8
0
 62
     0
100
AcDbLine
 10
35.201148
 20
61.717652
 30
0.0
 11
38.201148
 21
64.717652
 31
0.0
  0
LINE
  5
42
100
AcDbEntity
  8
0
 62
     0
100
AcDbLine
 10
44.201148
 20
70.717652
 30
0.0
 11
47.201148
 21
73.717652
 31
0.0
  0
LINE
  5
43
100
AcDbEntity
  8
0
 62
     0
100
AcDbLine
 10
35.201148
 20
63.485419
 30
0.0
 11
38.201148
 21
66.485419
 31
0.0
  0
LINE
  5
44
100
AcDbEntity
  8
0
 62
     0
100
AcDbLine
 10
44.201148
 20
72.485419
 30
0.0
 11
47.201148
 21
75.485419
 31
0.0
  0
LINE
  5
45
100
AcDbEntity
  8
0
 62
     0
100
AcDbLine
 10
35.201148
 20
65.253186
 30
0.0
 11
38.201148
 21
68.253186
 31
0.0
  0
LINE
  5
46
100
AcDbEntity
  8
0
 62
     0
100
AcDbLine
 10
44.201148
 20
74.253186
 30
0.0
 11
45.760462
 21
75.8125
 31
0.0
  0
LINE
  5
47
100
AcDbEntity
  8
0
 62
     0
100
AcDbLine
 10
35.201148
 20
67.020953
 30
0.0
 11
38.201148
 21
70.020953
 31
0.0
  0
LINE
  5
48
100
AcDbEntity
  8
0
 62
     0
100
AcDbLine
 10
35.201148
 20
68.78872
 30
0.0
 11
38.201148
 21
71.78872
 31
0.0
  0
LINE
  5
49
100
AcDbEntity
  8
0
 62
     0
100
AcDbLine
 10
35.201148
 20
70.556487
 30
0.0
 11
38.201148
 21
73.556487
 31
0.0
  0
LINE
  5
4A
100
AcDbEntity
  8
0
 62
     0
100
AcDbLine
 10
35.201148
 20
72.324254
 30
0.0
 11
38.201148
 21
75.324254
 31
0.0
  0
LINE
  5
4B
100
AcDbEntity
  8
0
 62
     0
100
AcDbLine
 10
35.201148
 20
74.092021
 30
0.0
 11
36.921627
 21
75.8125
 31
0.0
  0
LINE
  5
4C
100
AcDbEntity
  8
0
 62
     0
100
AcDbLine
 10
35.201148
 20
44.039983
 30
0.0
 11
38.201148
 21
47.039983
 31
0.0
  0
LINE
  5
4D
100
AcDbEntity
  8
0
 62
     0
100
AcDbLine
 10
35.201148
 20
42.272216
 30
0.0
 11
38.201148
 21
45.272216
 31
0.0
  0
LINE
  5
4E
100
AcDbEntity
  8
0
 62
     0
100
AcDbLine
 10
35.201148
 20
40.504449
 30
0.0
 11
38.201148
 21
43.504449
 31
0.0
  0
LINE
  5
4F
100
AcDbEntity
  8
0
 62
     0
100
AcDbLine
 10
35.201148
 20
38.736682
 30
0.0
 11
38.201148
 21
41.736682
 31
0.0
  0
LINE
  5
50
100
AcDbEntity
  8
0
 62
     0
100
AcDbLine
 10
35.201148
 20
36.968915
 30
0.0
 11
38.201148
 21
39.968915
 31
0.0
  0
LINE
  5
51
100
AcDbEntity
  8
0
 62
     0
100
AcDbLine
 10
35.201148
 20
35.201148
 30
0.0
 11
38.201148
 21
38.201148
 31
0.0
  0
LINE
  5
52
100
AcDbEntity
  8
0
 62
     0
100
AcDbLine
 10
35.201148
 20
33.433381
 30
0.0
 11
38.201148
 21
36.433381
 31
0.0
  0
LINE
  5
53
100
AcDbEntity
  8
0
 62
     0
100
AcDbLine
 10
44.201148
 20
42.433381
 30
0.0
 11
44.580267
 21
42.8125
 31
0.0
  0
LINE
  5
54
100
AcDbEntity
  8
0
 62
     0
100
AcDbLine
 10
35.201148
 20
31.665614
 30
0.0
 11
38.201148
 21
34.665614
 31
0.0
  0
LINE
  5
55
100
AcDbEntity
  8
0
 62
     0
100
AcDbLine
 10
44.201148
 20
40.665614
 30
0.0
 11
46.348034
 21
42.8125
 31
0.0
  0
LINE
  5
56
100
AcDbEntity
  8
0
 62
     0
100
AcDbLine
 10
36.115801
 20
30.8125
 30
0.0
 11
38.201148
 21
32.897847
 31
0.0
  0
LINE
  5
57
100
AcDbEntity
  8
0
 62
     0
100
AcDbLine
 10
44.201148
 20
38.897847
 30
0.0
 11
47.201148
 21
41.897847
 31
0.0
  0
LINE
  5
58
100
AcDbEntity
  8
0
 62
     0
100
AcDbLine
 10
37.883568
 20
30.8125
 30
0.0
 11
38.201148
 21
31.13008
 31
0.0
  0
LINE
  5
59
100
AcDbEntity
  8
0
 62
     0
100
AcDbLine
 10
44.201148
 20
37.13008
 30
0.0
 11
47.201148
 21
40.13008
 31
0.0
  0
LINE
  5
5A
100
AcDbEntity
  8
0
 62
     0
100
AcDbLine
 10
44.201148
 20
35.362313
 30
0.0
 11
47.201148
 21
38.362313
 31
0.0
  0
LINE
  5
5B
100
AcDbEntity
  8
0
 62
     0
100
AcDbLine
 10
44.201148
 20
33.594546
 30
0.0
 11
47.201148
 21
36.594546
 31
0.0
  0
LINE
  5
5C
100
AcDbEntity
  8
0
 62
     0
100
AcDbLine
 10
44.201148
 20
31.826779
 30
0.0
 11
47.201148
 21
34.826779
 31
0.0
  0
LINE
  5
5D
100
AcDbEntity
  8
0
 62
     0
100
AcDbLine
 10
44.954636
 20
30.8125
 30
0.0
 11
47.201148
 21
33.059012
 31
0.0
  0
LINE
  5
5E
100
AcDbEntity
  8
0
 62
     0
100
AcDbLine
 10
46.722403
 20
30.8125
 30
0.0
 11
47.201148
 21
31.291245
 31
0.0
  0
LINE
  5
5F
100
AcDbEntity
  8
0
 62
     0
100
AcDbLine
 10
35.201148
 20
46.691633
 30
0.0
 11
35.57631
 21
47.066795
 31
0.0
  0
LINE
  5
60
100
AcDbEntity
  8
0
 62
     0
100
AcDbLine
 10
35.797281
 20
47.287766
 30
0.0
 11
36.239223
 21
47.729708
 31
0.0
  0
LINE
  5
61
100
AcDbEntity
  8
0
 62
     0
100
AcDbLine
 10
36.460193
 20
47.950679
 30
0.0
 11
36.902135
 21
48.39262
 31
0.0
  0
LINE
  5
62
100
AcDbEntity
  8
0
 62
     0
100
AcDbLine
 10
37.123106
 20
48.613591
 30
0.0
 11
37.565048
 21
49.055533
 31
0.0
  0
LINE
  5
63
100
AcDbEntity
  8
0
 62
     0
100
AcDbLine
 10
37.786019
 20
49.276504
 30
0.0
 11
38.201148
 21
49.691633
 31
0.0
  0
LINE
  5
64
100
AcDbEntity
  8
0
 62
     0
100
AcDbLine
 10
45.322015
 20
56.8125
 30
0.0
 11
45.519999
 21
57.010484
 31
0.0
  0
LINE
  5
65
100
AcDbEntity
  8
0
 62
     0
100
AcDbLine
 10
45.74097
 20
57.231455
 30
0.0
 11
46.182912
 21
57.673397
 31
0.0
  0
LINE
  5
66
100
AcDbEntity
  8
0
 62
     0
100
AcDbLine
 10
46.403883
 20
57.894368
 30
0.0
 11
46.845824
 21
58.336309
 31
0.0
  0
LINE
  5
67
100
AcDbEntity
  8
0
 62
     0
100
AcDbLine
 10
47.066795
 20
58.55728
 30
0.0
 11
47.201148
 21
58.691633
 31
0.0
  0
LINE
  5
68
100
AcDbEntity
  8
0
 62
     0
100
AcDbLine
 10
35.201148
 20
48.4594
 30
0.0
 11
35.355339
 21
48.613591
 31
0.0
  0
LINE
  5
69
100
AcDbEntity
  8
0
 62
     0
100
AcDbLine
 10
35.57631
 20
48.834562
 30
0.0
 11
36.018252
 21
49.276504
 31
0.0
  0
LINE
  5
6A
100
AcDbEntity
  8
0
 62
     0
100
AcDbLine
 10
36.239223
 20
49.497475
 30
0.0
 11
36.681164
 21
49.939416
 31
0.0
  0
LINE
  5
6B
100
AcDbEntity
  8
0
 62
     0
100
AcDbLine
 10
36.902135
 20
50.160387
 30
0.0
 11
37.344077
 21
50.602329
 31
0.0
  0
LINE
  5
6C
100
AcDbEntity
  8
0
 62
     0
100
AcDbLine
 10
37.565048
 20
50.8233
 30
0.0
 11
38.006989
 21
51.265242
 31
0.0
  0
LINE
  5
6D
100
AcDbEntity
  8
0
 62
     0
100
AcDbLine
 10
44.201148
 20
57.4594
 30
0.0
 11
44.636116
 21
57.894368
 31
0.0
  0
LINE
  5
6E
100
AcDbEntity
  8
0
 62
     0
100
AcDbLine
 10
44.857086
 20
58.115339
 30
0.0
 11
45.299028
 21
58.55728
 31
0.0
  0
LINE
  5
6F
100
AcDbEntity
  8
0
 62
     0
100
AcDbLine
 10
45.519999
 20
58.778251
 30
0.0
 11
45.961941
 21
59.220193
 31
0.0
  0
LINE
  5
70
100
AcDbEntity
  8
0
 62
     0
100
AcDbLine
 10
46.182912
 20
59.441164
 30
0.0
 11
46.624853
 21
59.883106
 31
0.0
  0
LINE
  5
71
100
AcDbEntity
  8
0
 62
     0
100
AcDbLine
 10
46.845824
 20
60.104076
 30
0.0
 11
47.201148
 21
60.4594
 31
0.0
  0
LINE
  5
72
100
AcDbEntity
  8
0
 62
     0
100
AcDbLine
 10
35.355339
 20
50.381358
 30
0.0
 11
35.797281
 21
50.8233
 31
0.0
  0
LINE
  5
73
100
AcDbEntity
  8
0
 62
     0
100
AcDbLine
 10
36.018252
 20
51.044271
 30
0.0
 11
36.460193
 21
51.486213
 31
0.0
  0
LINE
  5
74
100
AcDbEntity
  8
0
 62
     0
100
AcDbLine
 10
36.681164
 20
51.707183
 30
0.0
 11
37.123106
 21
52.149125
 31
0.0
  0
LINE
  5
75
100
AcDbEntity
  8
0
 62
     0
100
AcDbLine
 10
37.344077
 20
52.370096
 30
0.0
 11
37.786019
 21
52.812038
 31
0.0
  0
LINE
  5
76
100
AcDbEntity
  8
0
 62
     0
100
AcDbLine
 10
38.006989
 20
53.033009
 30
0.0
 11
38.201148
 21
53.227167
 31
0.0
  0
LINE
  5
77
100
AcDbEntity
  8
0
 62
     0
100
AcDbLine
 10
44.201148
 20
59.227167
 30
0.0
 11
44.415145
 21
59.441164
 31
0.0
  0
LINE
  5
78
100
AcDbEntity
  8
0
 62
     0
100
AcDbLine
 10
44.636116
 20
59.662135
 30
0.0
 11
45.078057
 21
60.104076
 31
0.0
  0
LINE
  5
79
100
AcDbEntity
  8
0
 62
     0
100
AcDbLine
 10
45.299028
 20
60.325047
 30
0.0
 11
45.74097
 21
60.766989
 31
0.0
  0
LINE
  5
7A
100
AcDbEntity
  8
0
 62
     0
100
AcDbLine
 10
45.961941
 20
60.98796
 30
0.0
 11
46.403883
 21
61.429902
 31
0.0
  0
LINE
  5
7B
100
AcDbEntity
  8
0
 62
     0
100
AcDbLine
 10
46.624853
 20
61.650872
 30
0.0
 11
47.066795
 21
62.092814
 31
0.0
  0
LINE
  5
7C
100
AcDbEntity
  8
0
 62
     0
100
AcDbLine
 10
35.201148
 20
51.994934
 30
0.0
 11
35.57631
 21
52.370096
 31
0.0
  0
LINE
  5
7D
100
AcDbEntity
  8
0
 62
     0
100
AcDbLine
 10
35.797281
 20
52.591067
 30
0.0
 11
36.239223
 21
53.033009
 31
0.0
  0
LINE
  5
7E
100
AcDbEntity
  8
0
 62
     0
100
AcDbLine
 10
36.460193
 20
53.253979
 30
0.0
 11
36.902135
 21
53.695921
 31
0.0
  0
LINE
  5
7F
100
AcDbEntity
  8
0
 62
     0
100
AcDbLine
 10
37.123106
 20
53.916892
 30
0.0
 11
37.565048
 21
54.358834
 31
0.0
  0
LINE
  5
80
100
AcDbEntity
  8
0
 62
     0
100
AcDbLine
 10
37.786019
 20
54.579805
 30
0.0
 11
38.201148
 21
54.994934
 31
0.0
  0
LINE
  5
81
100
AcDbEntity
  8
0
 62
     0
100
AcDbLine
 10
44.415145
 20
61.208931
 30
0.0
 11
44.857086
 21
61.650872
 31
0.0
  0
LINE
  5
82
100
AcDbEntity
  8
0
 62
     0
100
AcDbLine
 10
45.078057
 20
61.871843
 30
0.0
 11
45.519999
 21
62.313785
 31
0.0
  0
LINE
  5
83
100
AcDbEntity
  8
0
 62
     0
100
AcDbLine
 10
45.74097
 20
62.534756
 30
0.0
 11
46.182912
 21
62.976698
 31
0.0
  0
LINE
  5
84
100
AcDbEntity
  8
0
 62
     0
100
AcDbLine
 10
46.403883
 20
63.197669
 30
0.0
 11
46.845824
 21
63.63961
 31
0.0
  0
LINE
  5
85
100
AcDbEntity
  8
0
 62
     0
100
AcDbLine
 10
47.066795
 20
63.860581
 30
0.0
 11
47.201148
 21
63.994934
 31
0.0
  0
LINE
  5
86
100
AcDbEntity
  8
0
 62
     0
100
AcDbLine
 10
35.201148
 20
53.762701
 30
0.0
 11
35.355339
 21
53.916892
 31
0.0
  0
LINE
  5
87
100
AcDbEntity
  8
0
 62
     0
100
AcDbLine
 10
35.57631
 20
54.137863
 30
0.0
 11
36.018252
 21
54.579805
 31
0.0
  0
LINE
  5
88
100
AcDbEntity
  8
0
 62
     0
100
AcDbLine
 10
36.239223
 20
54.800776
 30
0.0
 11
36.681164
 21
55.242717
 31
0.0
  0
LINE
  5
89
100
AcDbEntity
  8
0
 62
     0
100
AcDbLine
 10
36.902135
 20
55.463688
 30
0.0
 11
37.344077
 21
55.90563
 31
0.0
  0
LINE
  5
8A
100
AcDbEntity
  8
0
 62
     0
100
AcDbLine
 10
37.565048
 20
56.126601
 30
0.0
 11
38.006989
 21
56.568542
 31
0.0
  0
LINE
  5
8B
100
AcDbEntity
  8
0
 62
     0
100
AcDbLine
 10
44.201148
 20
62.762701
 30
0.0
 11
44.636116
 21
63.197669
 31
0.0
  0
LINE
  5
8C
100
AcDbEntity
  8
0
 62
     0
100
AcDbLine
 10
44.857086
 20
63.418639
 30
0.0
 11
45.299028
 21
63.860581
 31
0.0
  0
LINE
  5
8D
100
AcDbEntity
  8
0
 62
     0
100
AcDbLine
 10
45.519999
 20
64.081552
 30
0.0
 11
45.961941
 21
64.523494
 31
0.0
  0
LINE
  5
8E
100
AcDbEntity
  8
0
 62
     0
100
AcDbLine
 10
46.182912
 20
64.744465
 30
0.0
 11
46.624853
 21
65.186406
 31
0.0
  0
LINE
  5
8F
100
AcDbEntity
  8
0
 62
     0
100
AcDbLine
 10
46.845824
 20
65.407377
 30
0.0
 11
47.201148
 21
65.762701
 31
0.0
  0
LINE
  5
90
100
AcDbEntity
  8
0
 62
     0
100
AcDbLine
 10
35.355339
 20
55.684659
 30
0.0
 11
35.797281
 21
56.126601
 31
0.0
  0
LINE
  5
91
100
AcDbEntity
  8
0
 62
     0
100
AcDbLine
 10
36.018252
 20
56.347572
 30
0.0
 11
36.460193
 21
56.789513
 31
0.0
  0
LINE
  5
92
100
AcDbEntity
  8
0
 62
     0
100
AcDbLine
 10
36.681164
 20
57.010484
 30
0.0
 11
37.123106
 21
57.452426
 31
0.0
  0
LINE
  5
93
100
AcDbEntity
  8
0
 62
     0
100
AcDbLine
 10
37.344077
 20
57.673397
 30
0.0
 11
37.786019
 21
58.115339
 31
0.0
  0
LINE
  5
94
100
AcDbEntity
  8
0
 62
     0
100
AcDbLine
 10
38.006989
 20
58.336309
 30
0.0
 11
38.201148
 21
58.530468
 31
0.0
  0
LINE
  5
95
100
AcDbEntity
  8
0
 62
     0
100
AcDbLine
 10
44.201148
 20
64.530468
 30
0.0
 11
44.415145
 21
64.744465
 31
0.0
  0
LINE
  5
96
100
AcDbEntity
  8
0
 62
     0
100
AcDbLine
 10
44.636116
 20
64.965436
 30
0.0
 11
45.078057
 21
65.407377
 31
0.0
  0
LINE
  5
97
100
AcDbEntity
  8
0
 62
     0
100
AcDbLine
 10
45.299028
 20
65.628348
 30
0.0
 11
45.74097
 21
66.07029
 31
0.0
  0
LINE
  5
98
100
AcDbEntity
  8
0
 62
     0
100
AcDbLine
 10
45.961941
 20
66.291261
 30
0.0
 11
46.403883
 21
66.733202
 31
0.0
  0
LINE
  5
99
100
AcDbEntity
  8
0
 62
     0
100
AcDbLine
 10
46.624853
 20
66.954173
 30
0.0
 11
47.066795
 21
67.396115
 31
0.0
  0
LINE
  5
9A
100
AcDbEntity
  8
0
 62
     0
100
AcDbLine
 10
35.201148
 20
57.298235
 30
0.0
 11
35.57631
 21
57.673397
 31
0.0
  0
LINE
  5
9B
100
AcDbEntity
  8
0
 62
     0
100
AcDbLine
 10
35.797281
 20
57.894368
 30
0.0
 11
36.239223
 21
58.336309
 31
0.0
  0
LINE
  5
9C
100
AcDbEntity
  8
0
 62
     0
100
AcDbLine
 10
36.460193
 20
58.55728
 30
0.0
 11
36.902135
 21
58.999222
 31
0.0
  0
LINE
  5
9D
100
AcDbEntity
  8
0
 62
     0
100
AcDbLine
 10
37.123106
 20
59.220193
 30
0.0
 11
37.565048
 21
59.662135
 31
0.0
  0
LINE
  5
9E
100
AcDbEntity
  8
0
 62
     0
100
AcDbLine
 10
37.786019
 20
59.883106
 30
0.0
 11
38.201148
 21
60.298235
 31
0.0
  0
LINE
  5
9F
100
AcDbEntity
  8
0
 62
     0
100
AcDbLine
 10
44.415145
 20
66.512232
 30
0.0
 11
44.857086
 21
66.954173
 31
0.0
  0
LINE
  5
A0
100
AcDbEntity
  8
0
 62
     0
100
AcDbLine
 10
45.078057
 20
67.175144
 30
0.0
 11
45.519999
 21
67.617086
 31
0.0
  0
LINE
  5
A1
100
AcDbEntity
  8
0
 62
     0
100
AcDbLine
 10
45.74097
 20
67.838057
 30
0.0
 11
46.182912
 21
68.279999
 31
0.0
  0
LINE
  5
A2
100
AcDbEntity
  8
0
 62
     0
100
AcDbLine
 10
46.403883
 20
68.500969
 30
0.0
 11
46.845824
 21
68.942911
 31
0.0
  0
LINE
  5
A3
100
AcDbEntity
  8
0
 62
     0
100
AcDbLine
 10
47.066795
 20
69.163882
 30
0.0
 11
47.201148
 21
69.298235
 31
0.0
  0
LINE
  5
A4
100
AcDbEntity
  8
0
 62
     0
100
AcDbLine
 10
35.201148
 20
59.066002
 30
0.0
 11
35.355339
 21
59.220193
 31
0.0
  0
LINE
  5
A5
100
AcDbEntity
  8
0
 62
     0
100
AcDbLine
 10
35.57631
 20
59.441164
 30
0.0
 11
36.018252
 21
59.883106
 31
0.0
  0
LINE
  5
A6
100
AcDbEntity
  8
0
 62
     0
100
AcDbLine
 10
36.239223
 20
60.104076
 30
0.0
 11
36.681164
 21
60.546018
 31
0.0
  0
LINE
  5
A7
100
AcDbEntity
  8
0
 62
     0
100
AcDbLine
 10
36.902135
 20
60.766989
 30
0.0
 11
37.344077
 21
61.208931
 31
0.0
  0
LINE
  5
A8
100
AcDbEntity
  8
0
 62
     0
100
AcDbLine
 10
37.565048
 20
61.429902
 30
0.0
 11
38.006989
 21
61.871843
 31
0.0
  0
LINE
  5
A9
100
AcDbEntity
  8
0
 62
     0
100
AcDbLine
 10
44.201148
 20
68.066002
 30
0.0
 11
44.636116
 21
68.500969
 31
0.0
  0
LINE
  5
AA
100
AcDbEntity
  8
0
 62
     0
100
AcDbLine
 10
44.857086
 20
68.72194
 30
0.0
 11
45.299028
 21
69.163882
 31
0.0
  0
LINE
  5
AB
100
AcDbEntity
  8
0
 62
     0
100
AcDbLine
 10
45.519999
 20
69.384853
 30
0.0
 11
45.961941
 21
69.826795
 31
0.0
  0
LINE
  5
AC
100
AcDbEntity
  8
0
 62
     0
100
AcDbLine
 10
46.182912
 20
70.047766
 30
0.0
 11
46.624853
 21
70.489707
 31
0.0
  0
LINE
  5
AD
100
AcDbEntity
  8
0
 62
     0
100
AcDbLine
 10
46.845824
 20
70.710678
 30
0.0
 11
47.201148
 21
71.066002
 31
0.0
  0
LINE
  5
AE
100
AcDbEntity
  8
0
 62
     0
100
AcDbLine
 10
35.355339
 20
60.98796
 30
0.0
 11
35.797281
 21
61.429902
 31
0.0
  0
LINE
  5
AF
100
AcDbEntity
  8
0
 62
     0
100
AcDbLine
 10
36.018252
 20
61.650872
 30
0.0
 11
36.460193
 21
62.092814
 31
0.0
  0
LINE
  5
B0
100
AcDbEntity
  8
0
 62
     0
100
AcDbLine
 10
36.681164
 20
62.313785
 30
0.0
 11
37.123106
 21
62.755727
 31
0.0
  0
LINE
  5
B1
100
AcDbEntity
  8
0
 62
     0
100
AcDbLine
 10
37.344077
 20
62.976698
 30
0.0
 11
37.786019
 21
63.418639
 31
0.0
  0
LINE
  5
B2
100
AcDbEntity
  8
0
 62
     0
100
AcDbLine
 10
38.006989
 20
63.63961
 30
0.0
 11
38.201148
 21
63.833769
 31
0.0
  0
LINE
  5
B3
100
AcDbEntity
  8
0
 62
     0
100
AcDbLine
 10
44.201148
 20
69.833769
 30
0.0
 11
44.415145
 21
70.047766
 31
0.0
  0
LINE
  5
B4
100
AcDbEntity
  8
0
 62
     0
100
AcDbLine
 10
44.636116
 20
70.268736
 30
0.0
 11
45.078057
 21
70.710678
 31
0.0
  0
LINE
  5
B5
100
AcDbEntity
  8
0
 62
     0
100
AcDbLine
 10
45.299028
 20
70.931649
 30
0.0
 11
45.74097
 21
71.373591
 31
0.0
  0
LINE
  5
B6
100
AcDbEntity
  8
0
 62
     0
100
AcDbLine
 10
45.961941
 20
71.594562
 30
0.0
 11
46.403883
 21
72.036503
 31
0.0
  0
LINE
  5
B7
100
AcDbEntity
  8
0
 62
     0
100
AcDbLine
 10
46.624853
 20
72.257474
 30
0.0
 11
47.066795
 21
72.699416
 31
0.0
  0
LINE
  5
B8
100
AcDbEntity
  8
0
 62
     0
100
AcDbLine
 10
35.201148
 20
62.601536
 30
0.0
 11
35.57631
 21
62.976698
 31
0.0
  0
LINE
  5
B9
100
AcDbEntity
  8
0
 62
     0
100
AcDbLine
 10
35.797281
 20
63.197669
 30
0.0
 11
36.239223
 21
63.63961
 31
0.0
  0
LINE
  5
BA
100
AcDbEntity
  8
0
 62
     0
100
AcDbLine
 10
36.460193
 20
63.860581
 30
0.0
 11
36.902135
 21
64.302523
 31
0.0
  0
LINE
  5
BB
100
AcDbEntity
  8
0
 62
     0
100
AcDbLine
 10
37.123106
 20
64.523494
 30
0.0
 11
37.565048
 21
64.965436
 31
0.0
  0
LINE
  5
BC
100
AcDbEntity
  8
0
 62
     0
100
AcDbLine
 10
37.786019
 20
65.186406
 30
0.0
 11
38.201148
 21
65.601536
 31
0.0
  0
LINE
  5
BD
100
AcDbEntity
  8
0
 62
     0
100
AcDbLine
 10
44.415145
 20
71.815532
 30
0.0
 11
44.857086
 21
72.257474
 31
0.0
  0
LINE
  5
BE
100
AcDbEntity
  8
0
 62
     0
100
AcDbLine
 10
45.078057
 20
72.478445
 30
0.0
 11
45.519999
 21
72.920387
 31
0.0
  0
LINE
  5
BF
100
AcDbEntity
  8
0
 62
     0
100
AcDbLine
 10
45.74097
 20
73.141358
 30
0.0
 11
46.182912
 21
73.583299
 31
0.0
  0
LINE
  5
C0
100
AcDbEntity
  8
0
 62
     0
100
AcDbLine
 10
46.403883
 20
73.80427
 30
0.0
 11
46.845824
 21
74.246212
 31
0.0
  0
LINE
  5
C1
100
AcDbEntity
  8
0
 62
     0
100
AcDbLine
 10
47.066795
 20
74.467183
 30
0.0
 11
47.201148
 21
74.601536
 31
0.0
  0
LINE
  5
C2
100
AcDbEntity
  8
0
 62
     0
100
AcDbLine
 10
35.201148
 20
64.369303
 30
0.0
 11
35.355339
 21
64.523494
 31
0.0
  0
LINE
  5
C3
100
AcDbEntity
  8
0
 62
     0
100
AcDbLine
 10
35.57631
 20
64.744465
 30
0.0
 11
36.018252
 21
65.186406
 31
0.0
  0
LINE
  5
C4
100
AcDbEntity
  8
0
 62
     0
100
AcDbLine
 10
36.239223
 20
65.407377
 30
0.0
 11
36.681164
 21
65.849319
 31
0.0
  0
LINE
  5
C5
100
AcDbEntity
  8
0
 62
     0
100
AcDbLine
 10
36.902135
 20
66.07029
 30
0.0
 11
37.344077
 21
66.512232
 31
0.0
  0
LINE
  5
C6
100
AcDbEntity
  8
0
 62
     0
100
AcDbLine
 10
37.565048
 20
66.733202
 30
0.0
 11
38.006989
 21
67.175144
 31
0.0
  0
LINE
  5
C7
100
AcDbEntity
  8
0
 62
     0
100
AcDbLine
 10
44.201148
 20
73.369303
 30
0.0
 11
44.636116
 21
73.80427
 31
0.0
  0
LINE
  5
C8
100
AcDbEntity
  8
0
 62
     0
100
AcDbLine
 10
44.857086
 20
74.025241
 30
0.0
 11
45.299028
 21
74.467183
 31
0.0
  0
LINE
  5
C9
100
AcDbEntity
  8
0
 62
     0
100
AcDbLine
 10
45.519999
 20
74.688154
 30
0.0
 11
45.961941
 21
75.130096
 31
0.0
  0
LINE
  5
CA
100
AcDbEntity
  8
0
 62
     0
100
AcDbLine
 10
46.182912
 20
75.351066
 30
0.0
 11
46.624853
 21
75.793008
 31
0.0
  0
LINE
  5
CB
100
AcDbEntity
  8
0
 62
     0
100
AcDbLine
 10
35.355339
 20
66.291261
 30
0.0
 11
35.797281
 21
66.733202
 31
0.0
  0
LINE
  5
CC
100
AcDbEntity
  8
0
 62
     0
100
AcDbLine
 10
36.018252
 20
66.954173
 30
0.0
 11
36.460193
 21
67.396115
 31
0.0
  0
LINE
  5
CD
100
AcDbEntity
  8
0
 62
     0
100
AcDbLine
 10
36.681164
 20
67.617086
 30
0.0
 11
37.123106
 21
68.059028
 31
0.0
  0
LINE
  5
CE
100
AcDbEntity
  8
0
 62
     0
100
AcDbLine
 10
37.344077
 20
68.279999
 30
0.0
 11
37.786019
 21
68.72194
 31
0.0
  0
LINE
  5
CF
100
AcDbEntity
  8
0
 62
     0
100
AcDbLine
 10
38.006989
 20
68.942911
 30
0.0
 11
38.201148
 21
69.13707
 31
0.0
  0
LINE
  5
D0
100
AcDbEntity
  8
0
 62
     0
100
AcDbLine
 10
44.201148
 20
75.13707
 30
0.0
 11
44.415145
 21
75.351066
 31
0.0
  0
LINE
  5
D1
100
AcDbEntity
  8
0
 62
     0
100
AcDbLine
 10
44.636116
 20
75.572037
 30
0.0
 11
44.876578
 21
75.8125
 31
0.0
  0
LINE
  5
D2
100
AcDbEntity
  8
0
 62
     0
100
AcDbLine
 10
35.201148
 20
67.904837
 30
0.0
 11
35.57631
 21
68.279999
 31
0.0
  0
LINE
  5
D3
100
AcDbEntity
  8
0
 62
     0
100
AcDbLine
 10
35.797281
 20
68.500969
 30
0.0
 11
36.239223
 21
68.942911
 31
0.0
  0
LINE
  5
D4
100
AcDbEntity
  8
0
 62
     0
100
AcDbLine
 10
36.460193
 20
69.163882
 30
0.0
 11
36.902135
 21
69.605824
 31
0.0
  0
LINE
  5
D5
100
AcDbEntity
  8
0
 62
     0
100
AcDbLine
 10
37.123106
 20
69.826795
 30
0.0
 11
37.565048
 21
70.268736
 31
0.0
  0
LINE
  5
D6
100
AcDbEntity
  8
0
 62
     0
100
AcDbLine
 10
37.786019
 20
70.489707
 30
0.0
 11
38.201148
 21
70.904837
 31
0.0
  0
LINE
  5
D7
100
AcDbEntity
  8
0
 62
     0
100
AcDbLine
 10
35.201148
 20
69.672604
 30
0.0
 11
35.355339
 21
69.826795
 31
0.0
  0
LINE
  5
D8
100
AcDbEntity
  8
0
 62
     0
100
AcDbLine
 10
35.57631
 20
70.047766
 30
0.0
 11
36.018252
 21
70.489707
 31
0.0
  0
LINE
  5
D9
100
AcDbEntity
  8
0
 62
     0
100
AcDbLine
 10
36.239223
 20
70.710678
 30
0.0
 11
36.681164
 21
71.15262
 31
0.0
  0
LINE
  5
DA
100
AcDbEntity
  8
0
 62
     0
100
AcDbLine
 10
36.902135
 20
71.373591
 30
0.0
 11
37.344077
 21
71.815532
 31
0.0
  0
LINE
  5
DB
100
AcDbEntity
  8
0
 62
     0
100
AcDbLine
 10
37.565048
 20
72.036503
 30
0.0
 11
38.006989
 21
72.478445
 31
0.0
  0
LINE
  5
DC
100
AcDbEntity
  8
0
 62
     0
100
AcDbLine
 10
35.355339
 20
71.594562
 30
0.0
 11
35.797281
 21
72.036503
 31
0.0
  0
LINE
  5
DD
100
AcDbEntity
  8
0
 62
     0
100
AcDbLine
 10
36.018252
 20
72.257474
 30
0.0
 11
36.460193
 21
72.699416
 31
0.0
  0
LINE
  5
DE
100
AcDbEntity
  8
0
 62
     0
100
AcDbLine
 10
36.681164
 20
72.920387
 30
0.0
 11
37.123106
 21
73.362329
 31
0.0
  0
LINE
  5
DF
100
AcDbEntity
  8
0
 62
     0
100
AcDbLine
 10
37.344077
 20
73.583299
 30
0.0
 11
37.786019
 21
74.025241
 31
0.0
  0
LINE
  5
E0
100
AcDbEntity
  8
0
 62
     0
100
AcDbLine
 10
38.006989
 20
74.246212
 30
0.0
 11
38.201148
 21
74.440371
 31
0.0
  0
LINE
  5
E1
100
AcDbEntity
  8
0
 62
     0
100
AcDbLine
 10
35.201148
 20
73.208138
 30
0.0
 11
35.57631
 21
73.583299
 31
0.0
  0
LINE
  5
E2
100
AcDbEntity
  8
0
 62
     0
100
AcDbLine
 10
35.797281
 20
73.80427
 30
0.0
 11
36.239223
 21
74.246212
 31
0.0
  0
LINE
  5
E3
100
AcDbEntity
  8
0
 62
     0
100
AcDbLine
 10
36.460193
 20
74.467183
 30
0.0
 11
36.902135
 21
74.909125
 31
0.0
  0
LINE
  5
E4
100
AcDbEntity
  8
0
 62
     0
100
AcDbLine
 10
37.123106
 20
75.130096
 30
0.0
 11
37.565048
 21
75.572037
 31
0.0
  0
LINE
  5
E5
100
AcDbEntity
  8
0
 62
     0
100
AcDbLine
 10
37.786019
 20
75.793008
 30
0.0
 11
37.805511
 21
75.8125
 31
0.0
  0
LINE
  5
E6
100
AcDbEntity
  8
0
 62
     0
100
AcDbLine
 10
35.201148
 20
74.975904
 30
0.0
 11
35.355339
 21
75.130096
 31
0.0
  0
LINE
  5
E7
100
AcDbEntity
  8
0
 62
     0
100
AcDbLine
 10
35.57631
 20
75.351066
 30
0.0
 11
36.018252
 21
75.793008
 31
0.0
  0
LINE
  5
E8
100
AcDbEntity
  8
0
 62
     0
100
AcDbLine
 10
35.355339
 20
45.078057
 30
0.0
 11
35.797281
 21
45.519999
 31
0.0
  0
LINE
  5
E9
100
AcDbEntity
  8
0
 62
     0
100
AcDbLine
 10
36.018252
 20
45.74097
 30
0.0
 11
36.460193
 21
46.182912
 31
0.0
  0
LINE
  5
EA
100
AcDbEntity
  8
0
 62
     0
100
AcDbLine
 10
36.681164
 20
46.403883
 30
0.0
 11
37.123106
 21
46.845824
 31
0.0
  0
LINE
  5
EB
100
AcDbEntity
  8
0
 62
     0
100
AcDbLine
 10
37.344077
 20
47.066795
 30
0.0
 11
37.786019
 21
47.508737
 31
0.0
  0
LINE
  5
EC
100
AcDbEntity
  8
0
 62
     0
100
AcDbLine
 10
38.006989
 20
47.729708
 30
0.0
 11
38.201148
 21
47.923866
 31
0.0
  0
LINE
  5
ED
100
AcDbEntity
  8
0
 62
     0
100
AcDbLine
 10
35.201148
 20
43.156099
 30
0.0
 11
35.355339
 21
43.31029
 31
0.0
  0
LINE
  5
EE
100
AcDbEntity
  8
0
 62
     0
100
AcDbLine
 10
35.57631
 20
43.531261
 30
0.0
 11
36.018252
 21
43.973203
 31
0.0
  0
LINE
  5
EF
100
AcDbEntity
  8
0
 62
     0
100
AcDbLine
 10
36.239223
 20
44.194174
 30
0.0
 11
36.681164
 21
44.636116
 31
0.0
  0
LINE
  5
F0
100
AcDbEntity
  8
0
 62
     0
100
AcDbLine
 10
36.902135
 20
44.857086
 30
0.0
 11
37.344077
 21
45.299028
 31
0.0
  0
LINE
  5
F1
100
AcDbEntity
  8
0
 62
     0
100
AcDbLine
 10
37.565048
 20
45.519999
 30
0.0
 11
38.006989
 21
45.961941
 31
0.0
  0
LINE
  5
F2
100
AcDbEntity
  8
0
 62
     0
100
AcDbLine
 10
35.201148
 20
41.388332
 30
0.0
 11
35.57631
 21
41.763494
 31
0.0
  0
LINE
  5
F3
100
AcDbEntity
  8
0
 62
     0
100
AcDbLine
 10
35.797281
 20
41.984465
 30
0.0
 11
36.239223
 21
42.426407
 31
0.0
  0
LINE
  5
F4
100
AcDbEntity
  8
0
 62
     0
100
AcDbLine
 10
36.460193
 20
42.647378
 30
0.0
 11
36.902135
 21
43.089319
 31
0.0
  0
LINE
  5
F5
100
AcDbEntity
  8
0
 62
     0
100
AcDbLine
 10
37.123106
 20
43.31029
 30
0.0
 11
37.565048
 21
43.752232
 31
0.0
  0
LINE
  5
F6
100
AcDbEntity
  8
0
 62
     0
100
AcDbLine
 10
37.786019
 20
43.973203
 30
0.0
 11
38.201148
 21
44.388332
 31
0.0
  0
LINE
  5
F7
100
AcDbEntity
  8
0
 62
     0
100
AcDbLine
 10
35.355339
 20
39.774756
 30
0.0
 11
35.797281
 21
40.216698
 31
0.0
  0
LINE
  5
F8
100
AcDbEntity
  8
0
 62
     0
100
AcDbLine
 10
36.018252
 20
40.437669
 30
0.0
 11
36.460193
 21
40.879611
 31
0.0
  0
LINE
  5
F9
100
AcDbEntity
  8
0
 62
     0
100
AcDbLine
 10
36.681164
 20
41.100582
 30
0.0
 11
37.123106
 21
41.542523
 31
0.0
  0
LINE
  5
FA
100
AcDbEntity
  8
0
 62
     0
100
AcDbLine
 10
37.344077
 20
41.763494
 30
0.0
 11
37.786019
 21
42.205436
 31
0.0
  0
LINE
  5
FB
100
AcDbEntity
  8
0
 62
     0
100
AcDbLine
 10
38.006989
 20
42.426407
 30
0.0
 11
38.201148
 21
42.620565
 31
0.0
  0
LINE
  5
FC
100
AcDbEntity
  8
0
 62
     0
100
AcDbLine
 10
35.201148
 20
37.852798
 30
0.0
 11
35.355339
 21
38.006989
 31
0.0
  0
LINE
  5
FD
100
AcDbEntity
  8
0
 62
     0
100
AcDbLine
 10
35.57631
 20
38.22796
 30
0.0
 11
36.018252
 21
38.669902
 31
0.0
  0
LINE
  5
FE
100
AcDbEntity
  8
0
 62
     0
100
AcDbLine
 10
36.239223
 20
38.890873
 30
0.0
 11
36.681164
 21
39.332815
 31
0.0
  0
LINE
  5
FF
100
AcDbEntity
  8
0
 62
     0
100
AcDbLine
 10
36.902135
 20
39.553786
 30
0.0
 11
37.344077
 21
39.995727
 31
0.0
  0
LINE
  5
100
100
AcDbEntity
  8
0
 62
     0
100
AcDbLine
 10
37.565048
 20
40.216698
 30
0.0
 11
38.006989
 21
40.65864
 31
0.0
  0
LINE
  5
101
100
AcDbEntity
  8
0
 62
     0
100
AcDbLine
 10
35.201148
 20
36.085031
 30
0.0
 11
35.57631
 21
36.460193
 31
0.0
  0
LINE
  5
102
100
AcDbEntity
  8
0
 62
     0
100
AcDbLine
 10
35.797281
 20
36.681164
 30
0.0
 11
36.239223
 21
37.123106
 31
0.0
  0
LINE
  5
103
100
AcDbEntity
  8
0
 62
     0
100
AcDbLine
 10
36.460193
 20
37.344077
 30
0.0
 11
36.902135
 21
37.786019
 31
0.0
  0
LINE
  5
104
100
AcDbEntity
  8
0
 62
     0
100
AcDbLine
 10
37.123106
 20
38.006989
 30
0.0
 11
37.565048
 21
38.448931
 31
0.0
  0
LINE
  5
105
100
AcDbEntity
  8
0
 62
     0
100
AcDbLine
 10
37.786019
 20
38.669902
 30
0.0
 11
38.201148
 21
39.085031
 31
0.0
  0
LINE
  5
106
100
AcDbEntity
  8
0
 62
     0
100
AcDbLine
 10
35.355339
 20
34.471456
 30
0.0
 11
35.797281
 21
34.913397
 31
0.0
  0
LINE
  5
107
100
AcDbEntity
  8
0
 62
     0
100
AcDbLine
 10
36.018252
 20
35.134368
 30
0.0
 11
36.460193
 21
35.57631
 31
0.0
  0
LINE
  5
108
100
AcDbEntity
  8
0
 62
     0
100
AcDbLine
 10
36.681164
 20
35.797281
 30
0.0
 11
37.123106
 21
36.239223
 31
0.0
  0
LINE
  5
109
100
AcDbEntity
  8
0
 62
     0
100
AcDbLine
 10
37.344077
 20
36.460193
 30
0.0
 11
37.786019
 21
36.902135
 31
0.0
  0
LINE
  5
10A
100
AcDbEntity
  8
0
 62
     0
100
AcDbLine
 10
38.006989
 20
37.123106
 30
0.0
 11
38.201148
 21
37.317265
 31
0.0
  0
LINE
  5
10B
100
AcDbEntity
  8
0
 62
     0
100
AcDbLine
 10
35.201148
 20
32.549498
 30
0.0
 11
35.355339
 21
32.703689
 31
0.0
  0
LINE
  5
10C
100
AcDbEntity
  8
0
 62
     0
100
AcDbLine
 10
35.57631
 20
32.924659
 30
0.0
 11
36.018252
 21
33.366601
 31
0.0
  0
LINE
  5
10D
100
AcDbEntity
  8
0
 62
     0
100
AcDbLine
 10
36.239223
 20
33.587572
 30
0.0
 11
36.681164
 21
34.029514
 31
0.0
  0
LINE
  5
10E
100
AcDbEntity
  8
0
 62
     0
100
AcDbLine
 10
36.902135
 20
34.250485
 30
0.0
 11
37.344077
 21
34.692426
 31
0.0
  0
LINE
  5
10F
100
AcDbEntity
  8
0
 62
     0
100
AcDbLine
 10
37.565048
 20
34.913397
 30
0.0
 11
38.006989
 21
35.355339
 31
0.0
  0
LINE
  5
110
100
AcDbEntity
  8
0
 62
     0
100
AcDbLine
 10
44.201148
 20
41.549498
 30
0.0
 11
44.636116
 21
41.984465
 31
0.0
  0
LINE
  5
111
100
AcDbEntity
  8
0
 62
     0
100
AcDbLine
 10
44.857086
 20
42.205436
 30
0.0
 11
45.299028
 21
42.647378
 31
0.0
  0
LINE
  5
112
100
AcDbEntity
  8
0
 62
     0
100
AcDbLine
 10
35.231917
 20
30.8125
 30
0.0
 11
35.57631
 21
31.156893
 31
0.0
  0
LINE
  5
113
100
AcDbEntity
  8
0
 62
     0
100
AcDbLine
 10
35.797281
 20
31.377863
 30
0.0
 11
36.239223
 21
31.819805
 31
0.0
  0
LINE
  5
114
100
AcDbEntity
  8
0
 62
     0
100
AcDbLine
 10
36.460193
 20
32.040776
 30
0.0
 11
36.902135
 21
32.482718
 31
0.0
  0
LINE
  5
115
100
AcDbEntity
  8
0
 62
     0
100
AcDbLine
 10
37.123106
 20
32.703689
 30
0.0
 11
37.565048
 21
33.14563
 31
0.0
  0
LINE
  5
116
100
AcDbEntity
  8
0
 62
     0
100
AcDbLine
 10
37.786019
 20
33.366601
 30
0.0
 11
38.201148
 21
33.781731
 31
0.0
  0
LINE
  5
117
100
AcDbEntity
  8
0
 62
     0
100
AcDbLine
 10
44.415145
 20
39.995727
 30
0.0
 11
44.857086
 21
40.437669
 31
0.0
  0
LINE
  5
118
100
AcDbEntity
  8
0
 62
     0
100
AcDbLine
 10
45.078057
 20
40.65864
 30
0.0
 11
45.519999
 21
41.100582
 31
0.0
  0
LINE
  5
119
100
AcDbEntity
  8
0
 62
     0
100
AcDbLine
 10
45.74097
 20
41.321553
 30
0.0
 11
46.182912
 21
41.763494
 31
0.0
  0
LINE
  5
11A
100
AcDbEntity
  8
0
 62
     0
100
AcDbLine
 10
46.403883
 20
41.984465
 30
0.0
 11
46.845824
 21
42.426407
 31
0.0
  0
LINE
  5
11B
100
AcDbEntity
  8
0
 62
     0
100
AcDbLine
 10
47.066795
 20
42.647378
 30
0.0
 11
47.201148
 21
42.781731
 31
0.0
  0
LINE
  5
11C
100
AcDbEntity
  8
0
 62
     0
100
AcDbLine
 10
36.999684
 20
30.8125
 30
0.0
 11
37.123106
 21
30.935922
 31
0.0
  0
LINE
  5
11D
100
AcDbEntity
  8
0
 62
     0
100
AcDbLine
 10
37.344077
 20
31.156893
 30
0.0
 11
37.786019
 21
31.598834
 31
0.0
  0
LINE
  5
11E
100
AcDbEntity
  8
0
 62
     0
100
AcDbLine
 10
38.006989
 20
31.819805
 30
0.0
 11
38.201148
 21
32.013964
 31
0.0
  0
LINE
  5
11F
100
AcDbEntity
  8
0
 62
     0
100
AcDbLine
 10
44.201148
 20
38.013964
 30
0.0
 11
44.415145
 21
38.22796
 31
0.0
  0
LINE
  5
120
100
AcDbEntity
  8
0
 62
     0
100
AcDbLine
 10
44.636116
 20
38.448931
 30
0.0
 11
45.078057
 21
38.890873
 31
0.0
  0
LINE
  5
121
100
AcDbEntity
  8
0
 62
     0
100
AcDbLine
 10
45.299028
 20
39.111844
 30
0.0
 11
45.74097
 21
39.553786
 31
0.0
  0
LINE
  5
122
100
AcDbEntity
  8
0
 62
     0
100
AcDbLine
 10
45.961941
 20
39.774756
 30
0.0
 11
46.403883
 21
40.216698
 31
0.0
  0
LINE
  5
123
100
AcDbEntity
  8
0
 62
     0
100
AcDbLine
 10
46.624853
 20
40.437669
 30
0.0
 11
47.066795
 21
40.879611
 31
0.0
  0
LINE
  5
124
100
AcDbEntity
  8
0
 62
     0
100
AcDbLine
 10
44.201148
 20
36.246197
 30
0.0
 11
44.636116
 21
36.681164
 31
0.0
  0
LINE
  5
125
100
AcDbEntity
  8
0
 62
     0
100
AcDbLine
 10
44.857086
 20
36.902135
 30
0.0
 11
45.299028
 21
37.344077
 31
0.0
  0
LINE
  5
126
100
AcDbEntity
  8
0
 62
     0
100
AcDbLine
 10
45.519999
 20
37.565048
 30
0.0
 11
45.961941
 21
38.006989
 31
0.0
  0
LINE
  5
127
100
AcDbEntity
  8
0
 62
     0
100
AcDbLine
 10
46.182912
 20
38.22796
 30
0.0
 11
46.624853
 21
38.669902
 31
0.0
  0
LINE
  5
128
100
AcDbEntity
  8
0
 62
     0
100
AcDbLine
 10
46.845824
 20
38.890873
 30
0.0
 11
47.201148
 21
39.246197
 31
0.0
  0
LINE
  5
129
100
AcDbEntity
  8
0
 62
     0
100
AcDbLine
 10
44.415145
 20
34.692426
 30
0.0
 11
44.857086
 21
35.134368
 31
0.0
  0
LINE
  5
12A
100
AcDbEntity
  8
0
 62
     0
100
AcDbLine
 10
45.078057
 20
35.355339
 30
0.0
 11
45.519999
 21
35.797281
 31
0.0
  0
LINE
  5
12B
100
AcDbEntity
  8
0
 62
     0
100
AcDbLine
 10
45.74097
 20
36.018252
 30
0.0
 11
46.182912
 21
36.460193
 31
0.0
  0
LINE
  5
12C
100
AcDbEntity
  8
0
 62
     0
100
AcDbLine
 10
46.403883
 20
36.681164
 30
0.0
 11
46.845824
 21
37.123106
 31
0.0
  0
LINE
  5
12D
100
AcDbEntity
  8
0
 62
     0
100
AcDbLine
 10
47.066795
 20
37.344077
 30
0.0
 11
47.201148
 21
37.47843
 31
0.0
  0
LINE
  5
12E
100
AcDbEntity
  8
0
 62
     0
100
AcDbLine
 10
44.201148
 20
32.710663
 30
0.0
 11
44.415145
 21
32.924659
 31
0.0
  0
LINE
  5
12F
100
AcDbEntity
  8
0
 62
     0
100
AcDbLine
 10
44.636116
 20
33.14563
 30
0.0
 11
45.078057
 21
33.587572
 31
0.0
  0
LINE
  5
130
100
AcDbEntity
  8
0
 62
     0
100
AcDbLine
 10
45.299028
 20
33.808543
 30
0.0
 11
45.74097
 21
34.250485
 31
0.0
  0
LINE
  5
131
100
AcDbEntity
  8
0
 62
     0
100
AcDbLine
 10
45.961941
 20
34.471456
 30
0.0
 11
46.403883
 21
34.913397
 31
0.0
  0
LINE
  5
132
100
AcDbEntity
  8
0
 62
     0
100
AcDbLine
 10
46.624853
 20
35.134368
 30
0.0
 11
47.066795
 21
35.57631
 31
0.0
  0
LINE
  5
133
100
AcDbEntity
  8
0
 62
     0
100
AcDbLine
 10
44.201148
 20
30.942896
 30
0.0
 11
44.636116
 21
31.377863
 31
0.0
  0
LINE
  5
134
100
AcDbEntity
  8
0
 62
     0
100
AcDbLine
 10
44.857086
 20
31.598834
 30
0.0
 11
45.299028
 21
32.040776
 31
0.0
  0
LINE
  5
135
100
AcDbEntity
  8
0
 62
     0
100
AcDbLine
 10
45.519999
 20
32.261747
 30
0.0
 11
45.961941
 21
32.703689
 31
0.0
  0
LINE
  5
136
100
AcDbEntity
  8
0
 62
     0
100
AcDbLine
 10
46.182912
 20
32.924659
 30
0.0
 11
46.624853
 21
33.366601
 31
0.0
  0
LINE
  5
137
100
AcDbEntity
  8
0
 62
     0
100
AcDbLine
 10
46.845824
 20
33.587572
 30
0.0
 11
47.201148
 21
33.942896
 31
0.0
  0
LINE
  5
138
100
AcDbEntity
  8
0
 62
     0
100
AcDbLine
 10
45.838519
 20
30.8125
 30
0.0
 11
46.182912
 21
31.156893
 31
0.0
  0
LINE
  5
139
100
AcDbEntity
  8
0
 62
     0
100
AcDbLine
 10
46.403883
 20
31.377863
 30
0.0
 11
46.845824
 21
31.819805
 31
0.0
  0
LINE
  5
13A
100
AcDbEntity
  8
0
 62
     0
100
AcDbLine
 10
47.066795
 20
32.040776
 30
0.0
 11
47.201148
 21
32.175129
 31
0.0
  0
ENDBLK
  5
13B
100
AcDbEntity
  8
0
100
AcDbBlockEnd
  0
BLOCK
  5
13C
100
AcDbEntity
  8
0
100
AcDbBlockBegin
  2
*X1
 70
     1
 10
0.0
 20
0.0
 30
0.0
  3
*X1
  1

  0
LINE
  5
13D
100
AcDbEntity
  8
0
 62
     0
100
AcDbLine
 10
82.837474
 20
48.256632
 30
0.0
 11
83.078519
 21
48.543899
 31
0.0
  0
LINE
  5
13E
100
AcDbEntity
  8
0
 62
     0
100
AcDbLine
 10
85.730018
 20
51.703832
 30
0.0
 11
85.971063
 21
51.991099
 31
0.0
  0
LINE
  5
13F
100
AcDbEntity
  8
0
 62
     0
100
AcDbLine
 10
88.622562
 20
55.151032
 30
0.0
 11
88.863608
 21
55.438299
 31
0.0
  0
LINE
  5
140
100
AcDbEntity
  8
0
 62
     0
100
AcDbLine
 10
83.53123
 20
44.495672
 30
0.0
 11
83.772276
 21
44.782938
 31
0.0
  0
LINE
  5
141
100
AcDbEntity
  8
0
 62
     0
100
AcDbLine
 10
86.423775
 20
47.942872
 30
0.0
 11
86.66482
 21
48.230138
 31
0.0
  0
LINE
  5
142
100
AcDbEntity
  8
0
 62
     0
100
AcDbLine
 10
84.224987
 20
40.734711
 30
0.0
 11
84.466032
 21
41.021978
 31
0.0
  0
LINE
  5
143
100
AcDbEntity
  8
0
 62
     0
100
AcDbLine
 10
84.918744
 20
36.97375
 30
0.0
 11
85.159789
 21
37.261017
 31
0.0
  0
LINE
  5
144
100
AcDbEntity
  8
0
 62
     0
100
AcDbLine
 10
87.811288
 20
40.42095
 30
0.0
 11
88.052333
 21
40.708217
 31
0.0
  0
LINE
  5
145
100
AcDbEntity
  8
0
 62
     0
100
AcDbLine
 10
85.6125
 20
33.21279
 30
0.0
 11
85.853546
 21
33.500056
 31
0.0
  0
LINE
  5
146
100
AcDbEntity
  8
0
 62
     0
100
AcDbLine
 10
88.505045
 20
36.65999
 30
0.0
 11
88.74609
 21
36.947256
 31
0.0
  0
LINE
  5
147
100
AcDbEntity
  8
0
 62
     0
100
AcDbLine
 10
85.036261
 20
55.464793
 30
0.0
 11
85.277307
 21
55.75206
 31
0.0
  0
LINE
  5
148
100
AcDbEntity
  8
0
 62
     0
100
AcDbLine
 10
87.928806
 20
58.911993
 30
0.0
 11
88.169851
 21
59.19926
 31
0.0
  0
LINE
  5
149
100
AcDbEntity
  8
0
 62
     0
100
AcDbLine
 10
84.342505
 20
59.225754
 30
0.0
 11
84.58355
 21
59.51302
 31
0.0
  0
LINE
  5
14A
100
AcDbEntity
  8
0
 62
     0
100
AcDbLine
 10
87.235049
 20
62.672954
 30
0.0
 11
87.476094
 21
62.96022
 31
0.0
  0
LINE
  5
14B
100
AcDbEntity
  8
0
 62
     0
100
AcDbLine
 10
83.648748
 20
62.986714
 30
0.0
 11
83.889793
 21
63.273981
 31
0.0
  0
LINE
  5
14C
100
AcDbEntity
  8
0
 62
     0
100
AcDbLine
 10
86.541292
 20
66.433914
 30
0.0
 11
86.782338
 21
66.721181
 31
0.0
  0
LINE
  5
14D
100
AcDbEntity
  8
0
 62
     0
100
AcDbLine
 10
82.954991
 20
66.747675
 30
0.0
 11
83.196037
 21
67.034942
 31
0.0
  0
LINE
  5
14E
100
AcDbEntity
  8
0
 62
     0
100
AcDbLine
 10
85.847536
 20
70.194875
 30
0.0
 11
86.088581
 21
70.482142
 31
0.0
  0
LINE
  5
14F
100
AcDbEntity
  8
0
 62
     0
100
AcDbLine
 10
88.74008
 20
73.642075
 30
0.0
 11
88.829109
 21
73.748177
 31
0.0
  0
LINE
  5
150
100
AcDbEntity
  8
0
 62
     0
100
AcDbLine
 10
85.153779
 20
73.955836
 30
0.0
 11
85.394824
 21
74.243102
 31
0.0
  0
LINE
  5
151
100
AcDbEntity
  8
0
 62
     0
100
AcDbLine
 10
85.730018
 20
51.703833
 30
0.0
 11
86.028876
 21
51.677686
 31
0.0
  0
LINE
  5
152
100
AcDbEntity
  8
0
 62
     0
100
AcDbLine
 10
85.036261
 20
55.464793
 30
0.0
 11
85.33512
 21
55.438646
 31
0.0
  0
LINE
  5
153
100
AcDbEntity
  8
0
 62
     0
100
AcDbLine
 10
88.622562
 20
55.151032
 30
0.0
 11
88.921421
 21
55.124886
 31
0.0
  0
LINE
  5
154
100
AcDbEntity
  8
0
 62
     0
100
AcDbLine
 10
84.342505
 20
59.225754
 30
0.0
 11
84.641363
 21
59.199607
 31
0.0
  0
LINE
  5
155
100
AcDbEntity
  8
0
 62
     0
100
AcDbLine
 10
87.928806
 20
58.911993
 30
0.0
 11
88.227664
 21
58.885846
 31
0.0
  0
LINE
  5
156
100
AcDbEntity
  8
0
 62
     0
100
AcDbLine
 10
83.648748
 20
62.986715
 30
0.0
 11
83.947606
 21
62.960568
 31
0.0
  0
LINE
  5
157
100
AcDbEntity
  8
0
 62
     0
100
AcDbLine
 10
87.235049
 20
62.672954
 30
0.0
 11
87.533907
 21
62.646807
 31
0.0
  0
LINE
  5
158
100
AcDbEntity
  8
0
 62
     0
100
AcDbLine
 10
82.954991
 20
66.747675
 30
0.0
 11
83.25385
 21
66.721528
 31
0.0
  0
LINE
  5
159
100
AcDbEntity
  8
0
 62
     0
100
AcDbLine
 10
86.541292
 20
66.433915
 30
0.0
 11
86.840151
 21
66.407768
 31
0.0
  0
LINE
  5
15A
100
AcDbEntity
  8
0
 62
     0
100
AcDbLine
 10
85.847536
 20
70.194875
 30
0.0
 11
86.146394
 21
70.168728
 31
0.0
  0
LINE
  5
15B
100
AcDbEntity
  8
0
 62
     0
100
AcDbLine
 10
85.153779
 20
73.955836
 30
0.0
 11
85.452637
 21
73.929689
 31
0.0
  0
LINE
  5
15C
100
AcDbEntity
  8
0
 62
     0
100
AcDbLine
 10
88.74008
 20
73.642075
 30
0.0
 11
88.829109
 21
73.634286
 31
0.0
  0
LINE
  5
15D
100
AcDbEntity
  8
0
 62
     0
100
AcDbLine
 10
82.837474
 20
48.256633
 30
0.0
 11
83.136332
 21
48.230486
 31
0.0
  0
LINE
  5
15E
100
AcDbEntity
  8
0
 62
     0
100
AcDbLine
 10
86.423775
 20
47.942872
 30
0.0
 11
86.722633
 21
47.916725
 31
0.0
  0
LINE
  5
15F
100
AcDbEntity
  8
0
 62
     0
100
AcDbLine
 10
83.53123
 20
44.495672
 30
0.0
 11
83.830089
 21
44.469525
 31
0.0
  0
LINE
  5
160
100
AcDbEntity
  8
0
 62
     0
100
AcDbLine
 10
84.224987
 20
40.734711
 30
0.0
 11
84.523845
 21
40.708564
 31
0.0
  0
LINE
  5
161
100
AcDbEntity
  8
0
 62
     0
100
AcDbLine
 10
87.811288
 20
40.42095
 30
0.0
 11
88.110146
 21
40.394804
 31
0.0
  0
LINE
  5
162
100
AcDbEntity
  8
0
 62
     0
100
AcDbLine
 10
84.918744
 20
36.973751
 30
0.0
 11
85.217602
 21
36.947604
 31
0.0
  0
LINE
  5
163
100
AcDbEntity
  8
0
 62
     0
100
AcDbLine
 10
88.505045
 20
36.65999
 30
0.0
 11
88.803903
 21
36.633843
 31
0.0
  0
LINE
  5
164
100
AcDbEntity
  8
0
 62
     0
100
AcDbLine
 10
85.6125
 20
33.21279
 30
0.0
 11
85.911359
 21
33.186643
 31
0.0
  0
LINE
  5
165
100
AcDbEntity
  8
0
 62
     0
100
AcDbLine
 10
88.803931
 20
36.633773
 30
0.0
 11
88.746118
 21
36.947187
 31
0.0
  0
LINE
  5
166
100
AcDbEntity
  8
0
 62
     0
100
AcDbLine
 10
88.110177
 20
40.394735
 30
0.0
 11
88.052364
 21
40.708148
 31
0.0
  0
LINE
  5
167
100
AcDbEntity
  8
0
 62
     0
100
AcDbLine
 10
86.72267
 20
47.916657
 30
0.0
 11
86.664857
 21
48.23007
 31
0.0
  0
LINE
  5
168
100
AcDbEntity
  8
0
 62
     0
100
AcDbLine
 10
86.028916
 20
51.677618
 30
0.0
 11
85.971103
 21
51.991032
 31
0.0
  0
LINE
  5
169
100
AcDbEntity
  8
0
 62
     0
100
AcDbLine
 10
85.335162
 20
55.438579
 30
0.0
 11
85.277349
 21
55.751993
 31
0.0
  0
LINE
  5
16A
100
AcDbEntity
  8
0
 62
     0
100
AcDbLine
 10
84.641409
 20
59.199541
 30
0.0
 11
84.583596
 21
59.512954
 31
0.0
  0
LINE
  5
16B
100
AcDbEntity
  8
0
 62
     0
100
AcDbLine
 10
83.947655
 20
62.960502
 30
0.0
 11
83.889842
 21
63.273915
 31
0.0
  0
LINE
  5
16C
100
AcDbEntity
  8
0
 62
     0
100
AcDbLine
 10
83.253901
 20
66.721463
 30
0.0
 11
83.196088
 21
67.034876
 31
0.0
  0
LINE
  5
16D
100
AcDbEntity
  8
0
 62
     0
100
AcDbLine
 10
88.921463
 20
55.124816
 30
0.0
 11
88.86365
 21
55.438229
 31
0.0
  0
LINE
  5
16E
100
AcDbEntity
  8
0
 62
     0
100
AcDbLine
 10
88.227709
 20
58.885777
 30
0.0
 11
88.169896
 21
59.199191
 31
0.0
  0
LINE
  5
16F
100
AcDbEntity
  8
0
 62
     0
100
AcDbLine
 10
87.533955
 20
62.646738
 30
0.0
 11
87.476143
 21
62.960152
 31
0.0
  0
LINE
  5
170
100
AcDbEntity
  8
0
 62
     0
100
AcDbLine
 10
86.840202
 20
66.4077
 30
0.0
 11
86.782389
 21
66.721113
 31
0.0
  0
LINE
  5
171
100
AcDbEntity
  8
0
 62
     0
100
AcDbLine
 10
86.146448
 20
70.168661
 30
0.0
 11
86.088635
 21
70.482074
 31
0.0
  0
LINE
  5
172
100
AcDbEntity
  8
0
 62
     0
100
AcDbLine
 10
85.452694
 20
73.929622
 30
0.0
 11
85.394881
 21
74.243035
 31
0.0
  0
LINE
  5
173
100
AcDbEntity
  8
0
 62
     0
100
AcDbLine
 10
85.911384
 20
33.186576
 30
0.0
 11
85.853571
 21
33.499989
 31
0.0
  0
LINE
  5
174
100
AcDbEntity
  8
0
 62
     0
100
AcDbLine
 10
85.21763
 20
36.947537
 30
0.0
 11
85.159817
 21
37.26095
 31
0.0
  0
LINE
  5
175
100
AcDbEntity
  8
0
 62
     0
100
AcDbLine
 10
84.523877
 20
40.708498
 30
0.0
 11
84.466064
 21
41.021912
 31
0.0
  0
LINE
  5
176
100
AcDbEntity
  8
0
 62
     0
100
AcDbLine
 10
83.830123
 20
44.469459
 30
0.0
 11
83.77231
 21
44.782873
 31
0.0
  0
LINE
  5
177
100
AcDbEntity
  8
0
 62
     0
100
AcDbLine
 10
83.136369
 20
48.230421
 30
0.0
 11
83.078556
 21
48.543834
 31
0.0
  0
LINE
  5
178
100
AcDbEntity
  8
0
 62
     0
100
AcDbLine
 10
83.423638
 20
49.610953
 30
0.0
 11
83.813081
 21
50.016835
 31
0.0
  0
LINE
  5
179
100
AcDbEntity
  8
0
 62
     0
100
AcDbLine
 10
88.096948
 20
54.481546
 30
0.0
 11
88.486391
 21
54.887428
 31
0.0
  0
LINE
  5
17A
100
AcDbEntity
  8
0
 62
     0
100
AcDbLine
 10
84.086534
 20
43.912765
 30
0.0
 11
84.475976
 21
44.318647
 31
0.0
  0
LINE
  5
17B
100
AcDbEntity
  8
0
 62
     0
100
AcDbLine
 10
84.749429
 20
38.214576
 30
0.0
 11
85.138872
 21
38.620459
 31
0.0
  0
LINE
  5
17C
100
AcDbEntity
  8
0
 62
     0
100
AcDbLine
 10
85.412325
 20
32.516388
 30
0.0
 11
85.801767
 21
32.922271
 31
0.0
  0
LINE
  5
17D
100
AcDbEntity
  8
0
 62
     0
100
AcDbLine
 10
82.829109
 20
55.380393
 30
0.0
 11
83.150185
 21
55.715023
 31
0.0
  0
LINE
  5
17E
100
AcDbEntity
  8
0
 62
     0
100
AcDbLine
 10
87.434053
 20
60.179734
 30
0.0
 11
87.823495
 21
60.585616
 31
0.0
  0
LINE
  5
17F
100
AcDbEntity
  8
0
 62
     0
100
AcDbLine
 10
86.771157
 20
65.877922
 30
0.0
 11
87.1606
 21
66.283805
 31
0.0
  0
LINE
  5
180
100
AcDbEntity
  8
0
 62
     0
100
AcDbLine
 10
86.108262
 20
71.57611
 30
0.0
 11
86.497704
 21
71.981993
 31
0.0
  0
LINE
  5
181
100
AcDbEntity
  8
0
 62
     0
100
AcDbLine
 10
85.857032
 20
32.447363
 30
0.0
 11
85.801792
 21
32.922212
 31
0.0
  0
LINE
  5
182
100
AcDbEntity
  8
0
 62
     0
100
AcDbLine
 10
85.194141
 20
38.14555
 30
0.0
 11
85.138901
 21
38.620399
 31
0.0
  0
LINE
  5
183
100
AcDbEntity
  8
0
 62
     0
100
AcDbLine
 10
84.53125
 20
43.843738
 30
0.0
 11
84.47601
 21
44.318587
 31
0.0
  0
LINE
  5
184
100
AcDbEntity
  8
0
 62
     0
100
AcDbLine
 10
83.86836
 20
49.541926
 30
0.0
 11
83.813119
 21
50.016775
 31
0.0
  0
LINE
  5
185
100
AcDbEntity
  8
0
 62
     0
100
AcDbLine
 10
83.205469
 20
55.240114
 30
0.0
 11
83.150228
 21
55.714963
 31
0.0
  0
LINE
  5
186
100
AcDbEntity
  8
0
 62
     0
100
AcDbLine
 10
88.541673
 20
54.412515
 30
0.0
 11
88.486432
 21
54.887364
 31
0.0
  0
LINE
  5
187
100
AcDbEntity
  8
0
 62
     0
100
AcDbLine
 10
87.878782
 20
60.110703
 30
0.0
 11
87.823541
 21
60.585552
 31
0.0
  0
LINE
  5
188
100
AcDbEntity
  8
0
 62
     0
100
AcDbLine
 10
87.215891
 20
65.808891
 30
0.0
 11
87.16065
 21
66.28374
 31
0.0
  0
LINE
  5
189
100
AcDbEntity
  8
0
 62
     0
100
AcDbLine
 10
86.553
 20
71.507079
 30
0.0
 11
86.497759
 21
71.981928
 31
0.0
  0
LINE
  5
18A
100
AcDbEntity
  8
0
 62
     0
100
AcDbLine
 10
83.423638
 20
49.610953
 30
0.0
 11
83.868322
 21
49.541986
 31
0.0
  0
LINE
  5
18B
100
AcDbEntity
  8
0
 62
     0
100
AcDbLine
 10
82.829109
 20
55.298538
 30
0.0
 11
83.205427
 21
55.240174
 31
0.0
  0
LINE
  5
18C
100
AcDbEntity
  8
0
 62
     0
100
AcDbLine
 10
88.096948
 20
54.481546
 30
0.0
 11
88.541632
 21
54.412579
 31
0.0
  0
LINE
  5
18D
100
AcDbEntity
  8
0
 62
     0
100
AcDbLine
 10
87.434053
 20
60.179734
 30
0.0
 11
87.878736
 21
60.110767
 31
0.0
  0
LINE
  5
18E
100
AcDbEntity
  8
0
 62
     0
100
AcDbLine
 10
86.771157
 20
65.877922
 30
0.0
 11
87.215841
 21
65.808956
 31
0.0
  0
LINE
  5
18F
100
AcDbEntity
  8
0
 62
     0
100
AcDbLine
 10
86.108262
 20
71.57611
 30
0.0
 11
86.552945
 21
71.507144
 31
0.0
  0
LINE
  5
190
100
AcDbEntity
  8
0
 62
     0
100
AcDbLine
 10
84.086534
 20
43.912765
 30
0.0
 11
84.531218
 21
43.843798
 31
0.0
  0
LINE
  5
191
100
AcDbEntity
  8
0
 62
     0
100
AcDbLine
 10
84.749429
 20
38.214576
 30
0.0
 11
85.194113
 21
38.14561
 31
0.0
  0
LINE
  5
192
100
AcDbEntity
  8
0
 62
     0
100
AcDbLine
 10
85.412325
 20
32.516388
 30
0.0
 11
85.857009
 21
32.447422
 31
0.0
  0
LINE
  5
193
100
AcDbEntity
  8
0
 62
     0
100
AcDbLine
 10
83.419474
 20
51.532305
 30
0.0
 11
83.769567
 21
51.666693
 31
0.0
  0
LINE
  5
194
100
AcDbEntity
  8
0
 62
     0
100
AcDbLine
 10
87.620586
 20
53.144961
 30
0.0
 11
87.970679
 21
53.279349
 31
0.0
  0
LINE
  5
195
100
AcDbEntity
  8
0
 62
     0
100
AcDbLine
 10
86.40401
 20
49.519211
 30
0.0
 11
86.754102
 21
49.653599
 31
0.0
  0
LINE
  5
196
100
AcDbEntity
  8
0
 62
     0
100
AcDbLine
 10
85.187433
 20
45.893461
 30
0.0
 11
85.537526
 21
46.027849
 31
0.0
  0
LINE
  5
197
100
AcDbEntity
  8
0
 62
     0
100
AcDbLine
 10
83.970856
 20
42.26771
 30
0.0
 11
84.320949
 21
42.402098
 31
0.0
  0
LINE
  5
198
100
AcDbEntity
  8
0
 62
     0
100
AcDbLine
 10
82.829109
 20
38.670685
 30
0.0
 11
83.104372
 21
38.776348
 31
0.0
  0
LINE
  5
199
100
AcDbEntity
  8
0
 62
     0
100
AcDbLine
 10
86.955392
 20
40.254616
 30
0.0
 11
87.305484
 21
40.389004
 31
0.0
  0
LINE
  5
19A
100
AcDbEntity
  8
0
 62
     0
100
AcDbLine
 10
85.738815
 20
36.628866
 30
0.0
 11
86.088908
 21
36.763254
 31
0.0
  0
LINE
  5
19B
100
AcDbEntity
  8
0
 62
     0
100
AcDbLine
 10
84.522238
 20
33.003115
 30
0.0
 11
84.872331
 21
33.137503
 31
0.0
  0
LINE
  5
19C
100
AcDbEntity
  8
0
 62
     0
100
AcDbLine
 10
88.72335
 20
34.615771
 30
0.0
 11
88.829109
 21
34.656368
 31
0.0
  0
LINE
  5
19D
100
AcDbEntity
  8
0
 62
     0
100
AcDbLine
 10
87.506774
 20
30.990021
 30
0.0
 11
87.856866
 21
31.124409
 31
0.0
  0
LINE
  5
19E
100
AcDbEntity
  8
0
 62
     0
100
AcDbLine
 10
84.636051
 20
55.158055
 30
0.0
 11
84.986144
 21
55.292443
 31
0.0
  0
LINE
  5
19F
100
AcDbEntity
  8
0
 62
     0
100
AcDbLine
 10
88.837163
 20
56.770711
 30
0.0
 11
88.946026
 21
56.8125
 31
0.0
  0
LINE
  5
1A0
100
AcDbEntity
  8
0
 62
     0
100
AcDbLine
 10
85.852628
 20
58.783806
 30
0.0
 11
86.20272
 21
58.918194
 31
0.0
  0
LINE
  5
1A1
100
AcDbEntity
  8
0
 62
     0
100
AcDbLine
 10
82.868093
 20
60.7969
 30
0.0
 11
83.218185
 21
60.931288
 31
0.0
  0
LINE
  5
1A2
100
AcDbEntity
  8
0
 62
     0
100
AcDbLine
 10
87.069204
 20
62.409556
 30
0.0
 11
87.419297
 21
62.543944
 31
0.0
  0
LINE
  5
1A3
100
AcDbEntity
  8
0
 62
     0
100
AcDbLine
 10
84.084669
 20
64.42265
 30
0.0
 11
84.434762
 21
64.557038
 31
0.0
  0
LINE
  5
1A4
100
AcDbEntity
  8
0
 62
     0
100
AcDbLine
 10
88.285781
 20
66.035306
 30
0.0
 11
88.635874
 21
66.169694
 31
0.0
  0
LINE
  5
1A5
100
AcDbEntity
  8
0
 62
     0
100
AcDbLine
 10
85.301246
 20
68.048401
 30
0.0
 11
85.651339
 21
68.182789
 31
0.0
  0
LINE
  5
1A6
100
AcDbEntity
  8
0
 62
     0
100
AcDbLine
 10
86.517823
 20
71.674151
 30
0.0
 11
86.867915
 21
71.808539
 31
0.0
  0
LINE
  5
1A7
100
AcDbEntity
  8
0
 62
     0
100
AcDbLine
 10
83.533287
 20
73.687245
 30
0.0
 11
83.88338
 21
73.821633
 31
0.0
  0
LINE
  5
1A8
100
AcDbEntity
  8
0
 62
     0
100
AcDbLine
 10
87.734399
 20
75.299901
 30
0.0
 11
88.084492
 21
75.434289
 31
0.0
  0
LINE
  5
1A9
100
AcDbEntity
  8
0
 62
     0
100
AcDbLine
 10
83.419475
 20
51.532305
 30
0.0
 11
83.668186
 21
51.364547
 31
0.0
  0
LINE
  5
1AA
100
AcDbEntity
  8
0
 62
     0
100
AcDbLine
 10
86.40401
 20
49.519211
 30
0.0
 11
86.652721
 21
49.351453
 31
0.0
  0
LINE
  5
1AB
100
AcDbEntity
  8
0
 62
     0
100
AcDbLine
 10
84.636051
 20
55.158055
 30
0.0
 11
84.884762
 21
54.990298
 31
0.0
  0
LINE
  5
1AC
100
AcDbEntity
  8
0
 62
     0
100
AcDbLine
 10
87.620586
 20
53.144961
 30
0.0
 11
87.869298
 21
52.977203
 31
0.0
  0
LINE
  5
1AD
100
AcDbEntity
  8
0
 62
     0
100
AcDbLine
 10
82.868093
 20
60.7969
 30
0.0
 11
83.116804
 21
60.629142
 31
0.0
  0
LINE
  5
1AE
100
AcDbEntity
  8
0
 62
     0
100
AcDbLine
 10
85.852628
 20
58.783806
 30
0.0
 11
86.101339
 21
58.616048
 31
0.0
  0
LINE
  5
1AF
100
AcDbEntity
  8
0
 62
     0
100
AcDbLine
 10
88.837163
 20
56.770711
 30
0.0
 11
89.085874
 21
56.602953
 31
0.0
  0
LINE
  5
1B0
100
AcDbEntity
  8
0
 62
     0
100
AcDbLine
 10
84.084669
 20
64.42265
 30
0.0
 11
84.333381
 21
64.254893
 31
0.0
  0
LINE
  5
1B1
100
AcDbEntity
  8
0
 62
     0
100
AcDbLine
 10
87.069205
 20
62.409556
 30
0.0
 11
87.317916
 21
62.241798
 31
0.0
  0
LINE
  5
1B2
100
AcDbEntity
  8
0
 62
     0
100
AcDbLine
 10
85.301246
 20
68.048401
 30
0.0
 11
85.549957
 21
67.880643
 31
0.0
  0
LINE
  5
1B3
100
AcDbEntity
  8
0
 62
     0
100
AcDbLine
 10
88.285781
 20
66.035306
 30
0.0
 11
88.534492
 21
65.867548
 31
0.0
  0
LINE
  5
1B4
100
AcDbEntity
  8
0
 62
     0
100
AcDbLine
 10
83.533287
 20
73.687245
 30
0.0
 11
83.781999
 21
73.519487
 31
0.0
  0
LINE
  5
1B5
100
AcDbEntity
  8
0
 62
     0
100
AcDbLine
 10
86.517823
 20
71.674151
 30
0.0
 11
86.766534
 21
71.506393
 31
0.0
  0
LINE
  5
1B6
100
AcDbEntity
  8
0
 62
     0
100
AcDbLine
 10
87.734399
 20
75.299901
 30
0.0
 11
87.983111
 21
75.132143
 31
0.0
  0
LINE
  5
1B7
100
AcDbEntity
  8
0
 62
     0
100
AcDbLine
 10
85.187433
 20
45.893461
 30
0.0
 11
85.436144
 21
45.725703
 31
0.0
  0
LINE
  5
1B8
100
AcDbEntity
  8
0
 62
     0
100
AcDbLine
 10
83.970856
 20
42.26771
 30
0.0
 11
84.219568
 21
42.099952
 31
0.0
  0
LINE
  5
1B9
100
AcDbEntity
  8
0
 62
     0
100
AcDbLine
 10
86.955392
 20
40.254616
 30
0.0
 11
87.204103
 21
40.086858
 31
0.0
  0
LINE
  5
1BA
100
AcDbEntity
  8
0
 62
     0
100
AcDbLine
 10
82.829109
 20
38.591487
 30
0.0
 11
83.002991
 21
38.474202
 31
0.0
  0
LINE
  5
1BB
100
AcDbEntity
  8
0
 62
     0
100
AcDbLine
 10
85.738815
 20
36.628866
 30
0.0
 11
85.987526
 21
36.461108
 31
0.0
  0
LINE
  5
1BC
100
AcDbEntity
  8
0
 62
     0
100
AcDbLine
 10
88.72335
 20
34.615771
 30
0.0
 11
88.829109
 21
34.544436
 31
0.0
  0
LINE
  5
1BD
100
AcDbEntity
  8
0
 62
     0
100
AcDbLine
 10
84.522238
 20
33.003115
 30
0.0
 11
84.77095
 21
32.835358
 31
0.0
  0
LINE
  5
1BE
100
AcDbEntity
  8
0
 62
     0
100
AcDbLine
 10
87.506774
 20
30.990021
 30
0.0
 11
87.755485
 21
30.822263
 31
0.0
  0
LINE
  5
1BF
100
AcDbEntity
  8
0
 62
     0
100
AcDbLine
 10
83.668225
 20
51.364482
 30
0.0
 11
83.769606
 21
51.666628
 31
0.0
  0
LINE
  5
1C0
100
AcDbEntity
  8
0
 62
     0
100
AcDbLine
 10
84.884804
 20
54.990232
 30
0.0
 11
84.986186
 21
55.292377
 31
0.0
  0
LINE
  5
1C1
100
AcDbEntity
  8
0
 62
     0
100
AcDbLine
 10
86.101384
 20
58.615981
 30
0.0
 11
86.202765
 21
58.918127
 31
0.0
  0
LINE
  5
1C2
100
AcDbEntity
  8
0
 62
     0
100
AcDbLine
 10
87.317963
 20
62.24173
 30
0.0
 11
87.419345
 21
62.543876
 31
0.0
  0
LINE
  5
1C3
100
AcDbEntity
  8
0
 62
     0
100
AcDbLine
 10
88.534543
 20
65.867479
 30
0.0
 11
88.635924
 21
66.169625
 31
0.0
  0
LINE
  5
1C4
100
AcDbEntity
  8
0
 62
     0
100
AcDbLine
 10
83.00302
 20
38.474138
 30
0.0
 11
83.104401
 21
38.776283
 31
0.0
  0
LINE
  5
1C5
100
AcDbEntity
  8
0
 62
     0
100
AcDbLine
 10
84.219599
 20
42.099887
 30
0.0
 11
84.320981
 21
42.402033
 31
0.0
  0
LINE
  5
1C6
100
AcDbEntity
  8
0
 62
     0
100
AcDbLine
 10
85.436179
 20
45.725636
 30
0.0
 11
85.53756
 21
46.027782
 31
0.0
  0
LINE
  5
1C7
100
AcDbEntity
  8
0
 62
     0
100
AcDbLine
 10
86.652758
 20
49.351385
 30
0.0
 11
86.75414
 21
49.653531
 31
0.0
  0
LINE
  5
1C8
100
AcDbEntity
  8
0
 62
     0
100
AcDbLine
 10
87.869338
 20
52.977135
 30
0.0
 11
87.970719
 21
53.279281
 31
0.0
  0
LINE
  5
1C9
100
AcDbEntity
  8
0
 62
     0
100
AcDbLine
 10
89.085917
 20
56.602884
 30
0.0
 11
89.156252
 21
56.8125
 31
0.0
  0
LINE
  5
1CA
100
AcDbEntity
  8
0
 62
     0
100
AcDbLine
 10
84.770974
 20
32.835292
 30
0.0
 11
84.872356
 21
33.137437
 31
0.0
  0
LINE
  5
1CB
100
AcDbEntity
  8
0
 62
     0
100
AcDbLine
 10
85.987554
 20
36.461041
 30
0.0
 11
86.088935
 21
36.763187
 31
0.0
  0
LINE
  5
1CC
100
AcDbEntity
  8
0
 62
     0
100
AcDbLine
 10
87.204133
 20
40.08679
 30
0.0
 11
87.305515
 21
40.388936
 31
0.0
  0
LINE
  5
1CD
100
AcDbEntity
  8
0
 62
     0
100
AcDbLine
 10
87.755508
 20
30.822195
 30
0.0
 11
87.856889
 21
31.124341
 31
0.0
  0
LINE
  5
1CE
100
AcDbEntity
  8
0
 62
     0
100
AcDbLine
 10
83.11685
 20
60.629078
 30
0.0
 11
83.218232
 21
60.931223
 31
0.0
  0
LINE
  5
1CF
100
AcDbEntity
  8
0
 62
     0
100
AcDbLine
 10
84.333429
 20
64.254827
 30
0.0
 11
84.434811
 21
64.556973
 31
0.0
  0
LINE
  5
1D0
100
AcDbEntity
  8
0
 62
     0
100
AcDbLine
 10
85.550009
 20
67.880576
 30
0.0
 11
85.651391
 21
68.182722
 31
0.0
  0
LINE
  5
1D1
100
AcDbEntity
  8
0
 62
     0
100
AcDbLine
 10
86.766588
 20
71.506325
 30
0.0
 11
86.86797
 21
71.808471
 31
0.0
  0
LINE
  5
1D2
100
AcDbEntity
  8
0
 62
     0
100
AcDbLine
 10
87.983168
 20
75.132075
 30
0.0
 11
88.08455
 21
75.43422
 31
0.0
  0
LINE
  5
1D3
100
AcDbEntity
  8
0
 62
     0
100
AcDbLine
 10
83.782055
 20
73.519422
 30
0.0
 11
83.883436
 21
73.821568
 31
0.0
  0
LINE
  5
1D4
100
AcDbEntity
  8
0
 62
     0
100
AcDbLine
 10
83.478157
 20
51.112512
 30
0.0
 11
83.478157
 21
51.112512
 31
0.0
  0
LINE
  5
1D5
100
AcDbEntity
  8
0
 62
     0
100
AcDbLine
 10
86.106139
 20
53.129034
 30
0.0
 11
86.106139
 21
53.129034
 31
0.0
  0
LINE
  5
1D6
100
AcDbEntity
  8
0
 62
     0
100
AcDbLine
 10
88.692471
 20
55.113596
 30
0.0
 11
88.692471
 21
55.113596
 31
0.0
  0
LINE
  5
1D7
100
AcDbEntity
  8
0
 62
     0
100
AcDbLine
 10
83.538956
 20
52.776981
 30
0.0
 11
83.538956
 21
52.776981
 31
0.0
  0
LINE
  5
1D8
100
AcDbEntity
  8
0
 62
     0
100
AcDbLine
 10
86.166939
 20
54.793503
 30
0.0
 11
86.166939
 21
54.793503
 31
0.0
  0
LINE
  5
1D9
100
AcDbEntity
  8
0
 62
     0
100
AcDbLine
 10
88.753271
 20
56.778065
 30
0.0
 11
88.753271
 21
56.778065
 31
0.0
  0
LINE
  5
1DA
100
AcDbEntity
  8
0
 62
     0
100
AcDbLine
 10
83.599755
 20
54.44145
 30
0.0
 11
83.599755
 21
54.44145
 31
0.0
  0
LINE
  5
1DB
100
AcDbEntity
  8
0
 62
     0
100
AcDbLine
 10
86.227738
 20
56.457972
 30
0.0
 11
86.227738
 21
56.457972
 31
0.0
  0
LINE
  5
1DC
100
AcDbEntity
  8
0
 62
     0
100
AcDbLine
 10
88.81407
 20
58.442535
 30
0.0
 11
88.81407
 21
58.442535
 31
0.0
  0
LINE
  5
1DD
100
AcDbEntity
  8
0
 62
     0
100
AcDbLine
 10
83.660554
 20
56.105919
 30
0.0
 11
83.660554
 21
56.105919
 31
0.0
  0
LINE
  5
1DE
100
AcDbEntity
  8
0
 62
     0
100
AcDbLine
 10
86.288537
 20
58.122442
 30
0.0
 11
86.288537
 21
58.122442
 31
0.0
  0
LINE
  5
1DF
100
AcDbEntity
  8
0
 62
     0
100
AcDbLine
 10
83.721354
 20
57.770389
 30
0.0
 11
83.721354
 21
57.770389
 31
0.0
  0
LINE
  5
1E0
100
AcDbEntity
  8
0
 62
     0
100
AcDbLine
 10
86.349337
 20
59.786911
 30
0.0
 11
86.349337
 21
59.786911
 31
0.0
  0
LINE
  5
1E1
100
AcDbEntity
  8
0
 62
     0
100
AcDbLine
 10
83.782153
 20
59.434858
 30
0.0
 11
83.782153
 21
59.434858
 31
0.0
  0
LINE
  5
1E2
100
AcDbEntity
  8
0
 62
     0
100
AcDbLine
 10
86.410136
 20
61.45138
 30
0.0
 11
86.410136
 21
61.45138
 31
0.0
  0
LINE
  5
1E3
100
AcDbEntity
  8
0
 62
     0
100
AcDbLine
 10
83.842952
 20
61.099327
 30
0.0
 11
83.842952
 21
61.099327
 31
0.0
  0
LINE
  5
1E4
100
AcDbEntity
  8
0
 62
     0
100
AcDbLine
 10
86.470935
 20
63.11585
 30
0.0
 11
86.470935
 21
63.11585
 31
0.0
  0
LINE
  5
1E5
100
AcDbEntity
  8
0
 62
     0
100
AcDbLine
 10
83.903751
 20
62.763797
 30
0.0
 11
83.903751
 21
62.763797
 31
0.0
  0
LINE
  5
1E6
100
AcDbEntity
  8
0
 62
     0
100
AcDbLine
 10
86.531734
 20
64.780319
 30
0.0
 11
86.531734
 21
64.780319
 31
0.0
  0
LINE
  5
1E7
100
AcDbEntity
  8
0
 62
     0
100
AcDbLine
 10
83.964551
 20
64.428266
 30
0.0
 11
83.964551
 21
64.428266
 31
0.0
  0
LINE
  5
1E8
100
AcDbEntity
  8
0
 62
     0
100
AcDbLine
 10
86.592534
 20
66.444788
 30
0.0
 11
86.592534
 21
66.444788
 31
0.0
  0
LINE
  5
1E9
100
AcDbEntity
  8
0
 62
     0
100
AcDbLine
 10
84.02535
 20
66.092735
 30
0.0
 11
84.02535
 21
66.092735
 31
0.0
  0
LINE
  5
1EA
100
AcDbEntity
  8
0
 62
     0
100
AcDbLine
 10
86.653333
 20
68.109257
 30
0.0
 11
86.653333
 21
68.109257
 31
0.0
  0
LINE
  5
1EB
100
AcDbEntity
  8
0
 62
     0
100
AcDbLine
 10
84.086149
 20
67.757204
 30
0.0
 11
84.086149
 21
67.757204
 31
0.0
  0
LINE
  5
1EC
100
AcDbEntity
  8
0
 62
     0
100
AcDbLine
 10
86.714132
 20
69.773727
 30
0.0
 11
86.714132
 21
69.773727
 31
0.0
  0
LINE
  5
1ED
100
AcDbEntity
  8
0
 62
     0
100
AcDbLine
 10
84.146949
 20
69.421674
 30
0.0
 11
84.146949
 21
69.421674
 31
0.0
  0
LINE
  5
1EE
100
AcDbEntity
  8
0
 62
     0
100
AcDbLine
 10
86.774932
 20
71.438196
 30
0.0
 11
86.774932
 21
71.438196
 31
0.0
  0
LINE
  5
1EF
100
AcDbEntity
  8
0
 62
     0
100
AcDbLine
 10
84.207748
 20
71.086143
 30
0.0
 11
84.207748
 21
71.086143
 31
0.0
  0
LINE
  5
1F0
100
AcDbEntity
  8
0
 62
     0
100
AcDbLine
 10
86.835731
 20
73.102665
 30
0.0
 11
86.835731
 21
73.102665
 31
0.0
  0
LINE
  5
1F1
100
AcDbEntity
  8
0
 62
     0
100
AcDbLine
 10
84.268547
 20
72.750612
 30
0.0
 11
84.268547
 21
72.750612
 31
0.0
  0
LINE
  5
1F2
100
AcDbEntity
  8
0
 62
     0
100
AcDbLine
 10
84.329346
 20
74.415081
 30
0.0
 11
84.329346
 21
74.415081
 31
0.0
  0
LINE
  5
1F3
100
AcDbEntity
  8
0
 62
     0
100
AcDbLine
 10
84.390146
 20
76.079551
 30
0.0
 11
84.390146
 21
76.079551
 31
0.0
  0
LINE
  5
1F4
100
AcDbEntity
  8
0
 62
     0
100
AcDbLine
 10
83.417357
 20
49.448042
 30
0.0
 11
83.417357
 21
49.448042
 31
0.0
  0
LINE
  5
1F5
100
AcDbEntity
  8
0
 62
     0
100
AcDbLine
 10
86.04534
 20
51.464565
 30
0.0
 11
86.04534
 21
51.464565
 31
0.0
  0
LINE
  5
1F6
100
AcDbEntity
  8
0
 62
     0
100
AcDbLine
 10
88.631672
 20
53.449127
 30
0.0
 11
88.631672
 21
53.449127
 31
0.0
  0
LINE
  5
1F7
100
AcDbEntity
  8
0
 62
     0
100
AcDbLine
 10
83.356558
 20
47.783573
 30
0.0
 11
83.356558
 21
47.783573
 31
0.0
  0
LINE
  5
1F8
100
AcDbEntity
  8
0
 62
     0
100
AcDbLine
 10
85.984541
 20
49.800095
 30
0.0
 11
85.984541
 21
49.800095
 31
0.0
  0
LINE
  5
1F9
100
AcDbEntity
  8
0
 62
     0
100
AcDbLine
 10
88.570873
 20
51.784658
 30
0.0
 11
88.570873
 21
51.784658
 31
0.0
  0
LINE
  5
1FA
100
AcDbEntity
  8
0
 62
     0
100
AcDbLine
 10
83.295759
 20
46.119104
 30
0.0
 11
83.295759
 21
46.119104
 31
0.0
  0
LINE
  5
1FB
100
AcDbEntity
  8
0
 62
     0
100
AcDbLine
 10
85.923742
 20
48.135626
 30
0.0
 11
85.923742
 21
48.135626
 31
0.0
  0
LINE
  5
1FC
100
AcDbEntity
  8
0
 62
     0
100
AcDbLine
 10
83.234959
 20
44.454635
 30
0.0
 11
83.234959
 21
44.454635
 31
0.0
  0
LINE
  5
1FD
100
AcDbEntity
  8
0
 62
     0
100
AcDbLine
 10
85.862942
 20
46.471157
 30
0.0
 11
85.862942
 21
46.471157
 31
0.0
  0
LINE
  5
1FE
100
AcDbEntity
  8
0
 62
     0
100
AcDbLine
 10
83.17416
 20
42.790165
 30
0.0
 11
83.17416
 21
42.790165
 31
0.0
  0
LINE
  5
1FF
100
AcDbEntity
  8
0
 62
     0
100
AcDbLine
 10
85.802143
 20
44.806688
 30
0.0
 11
85.802143
 21
44.806688
 31
0.0
  0
LINE
  5
200
100
AcDbEntity
  8
0
 62
     0
100
AcDbLine
 10
83.113361
 20
41.125696
 30
0.0
 11
83.113361
 21
41.125696
 31
0.0
  0
LINE
  5
201
100
AcDbEntity
  8
0
 62
     0
100
AcDbLine
 10
83.052562
 20
39.461227
 30
0.0
 11
83.052562
 21
39.461227
 31
0.0
  0
LINE
  5
202
100
AcDbEntity
  8
0
 62
     0
100
AcDbLine
 10
85.680545
 20
41.477749
 30
0.0
 11
85.680545
 21
41.477749
 31
0.0
  0
LINE
  5
203
100
AcDbEntity
  8
0
 62
     0
100
AcDbLine
 10
82.991762
 20
37.796758
 30
0.0
 11
82.991762
 21
37.796758
 31
0.0
  0
LINE
  5
204
100
AcDbEntity
  8
0
 62
     0
100
AcDbLine
 10
85.619745
 20
39.81328
 30
0.0
 11
85.619745
 21
39.81328
 31
0.0
  0
LINE
  5
205
100
AcDbEntity
  8
0
 62
     0
100
AcDbLine
 10
88.206077
 20
41.797842
 30
0.0
 11
88.206077
 21
41.797842
 31
0.0
  0
LINE
  5
206
100
AcDbEntity
  8
0
 62
     0
100
AcDbLine
 10
82.930963
 20
36.132288
 30
0.0
 11
82.930963
 21
36.132288
 31
0.0
  0
LINE
  5
207
100
AcDbEntity
  8
0
 62
     0
100
AcDbLine
 10
85.558946
 20
38.14881
 30
0.0
 11
85.558946
 21
38.14881
 31
0.0
  0
LINE
  5
208
100
AcDbEntity
  8
0
 62
     0
100
AcDbLine
 10
88.145278
 20
40.133373
 30
0.0
 11
88.145278
 21
40.133373
 31
0.0
  0
LINE
  5
209
100
AcDbEntity
  8
0
 62
     0
100
AcDbLine
 10
82.870164
 20
34.467819
 30
0.0
 11
82.870164
 21
34.467819
 31
0.0
  0
LINE
  5
20A
100
AcDbEntity
  8
0
 62
     0
100
AcDbLine
 10
85.498147
 20
36.484341
 30
0.0
 11
85.498147
 21
36.484341
 31
0.0
  0
LINE
  5
20B
100
AcDbEntity
  8
0
 62
     0
100
AcDbLine
 10
88.084479
 20
38.468903
 30
0.0
 11
88.084479
 21
38.468903
 31
0.0
  0
LINE
  5
20C
100
AcDbEntity
  8
0
 62
     0
100
AcDbLine
 10
85.437347
 20
34.819872
 30
0.0
 11
85.437347
 21
34.819872
 31
0.0
  0
LINE
  5
20D
100
AcDbEntity
  8
0
 62
     0
100
AcDbLine
 10
88.023679
 20
36.804434
 30
0.0
 11
88.023679
 21
36.804434
 31
0.0
  0
LINE
  5
20E
100
AcDbEntity
  8
0
 62
     0
100
AcDbLine
 10
85.376548
 20
33.155403
 30
0.0
 11
85.376548
 21
33.155403
 31
0.0
  0
LINE
  5
20F
100
AcDbEntity
  8
0
 62
     0
100
AcDbLine
 10
87.96288
 20
35.139965
 30
0.0
 11
87.96288
 21
35.139965
 31
0.0
  0
LINE
  5
210
100
AcDbEntity
  8
0
 62
     0
100
AcDbLine
 10
85.315749
 20
31.490933
 30
0.0
 11
85.315749
 21
31.490933
 31
0.0
  0
LINE
  5
211
100
AcDbEntity
  8
0
 62
     0
100
AcDbLine
 10
87.902081
 20
33.475496
 30
0.0
 11
87.902081
 21
33.475496
 31
0.0
  0
LINE
  5
212
100
AcDbEntity
  8
0
 62
     0
100
AcDbLine
 10
87.841282
 20
31.811026
 30
0.0
 11
87.841282
 21
31.811026
 31
0.0
  0
LINE
  5
213
100
AcDbEntity
  8
0
 62
     0
100
AcDbLine
 10
85.729294
 20
52.66094
 30
0.0
 11
85.729294
 21
52.66094
 31
0.0
  0
LINE
  5
214
100
AcDbEntity
  8
0
 62
     0
100
AcDbLine
 10
86.980993
 20
52.825729
 30
0.0
 11
86.980993
 21
52.825729
 31
0.0
  0
LINE
  5
215
100
AcDbEntity
  8
0
 62
     0
100
AcDbLine
 10
88.874653
 20
53.075034
 30
0.0
 11
88.874653
 21
53.075034
 31
0.0
  0
LINE
  5
216
100
AcDbEntity
  8
0
 62
     0
100
AcDbLine
 10
83.88689
 20
54.217273
 30
0.0
 11
83.88689
 21
54.217273
 31
0.0
  0
LINE
  5
217
100
AcDbEntity
  8
0
 62
     0
100
AcDbLine
 10
87.044642
 20
54.632999
 30
0.0
 11
87.044642
 21
54.632999
 31
0.0
  0
LINE
  5
218
100
AcDbEntity
  8
0
 62
     0
100
AcDbLine
 10
88.296341
 20
54.797788
 30
0.0
 11
88.296341
 21
54.797788
 31
0.0
  0
LINE
  5
219
100
AcDbEntity
  8
0
 62
     0
100
AcDbLine
 10
90.190001
 20
55.047093
 30
0.0
 11
90.190001
 21
55.047093
 31
0.0
  0
LINE
  5
21A
100
AcDbEntity
  8
0
 62
     0
100
AcDbLine
 10
83.308578
 20
55.940026
 30
0.0
 11
83.308578
 21
55.940026
 31
0.0
  0
LINE
  5
21B
100
AcDbEntity
  8
0
 62
     0
100
AcDbLine
 10
85.202238
 20
56.189331
 30
0.0
 11
85.202238
 21
56.189331
 31
0.0
  0
LINE
  5
21C
100
AcDbEntity
  8
0
 62
     0
100
AcDbLine
 10
88.359989
 20
56.605057
 30
0.0
 11
88.359989
 21
56.605057
 31
0.0
  0
LINE
  5
21D
100
AcDbEntity
  8
0
 62
     0
100
AcDbLine
 10
89.611689
 20
56.769846
 30
0.0
 11
89.611689
 21
56.769846
 31
0.0
  0
LINE
  5
21E
100
AcDbEntity
  8
0
 62
     0
100
AcDbLine
 10
83.372226
 20
57.747295
 30
0.0
 11
83.372226
 21
57.747295
 31
0.0
  0
LINE
  5
21F
100
AcDbEntity
  8
0
 62
     0
100
AcDbLine
 10
84.623926
 20
57.912085
 30
0.0
 11
84.623926
 21
57.912085
 31
0.0
  0
LINE
  5
220
100
AcDbEntity
  8
0
 62
     0
100
AcDbLine
 10
86.517585
 20
58.16139
 30
0.0
 11
86.517585
 21
58.16139
 31
0.0
  0
LINE
  5
221
100
AcDbEntity
  8
0
 62
     0
100
AcDbLine
 10
84.687574
 20
59.719354
 30
0.0
 11
84.687574
 21
59.719354
 31
0.0
  0
LINE
  5
222
100
AcDbEntity
  8
0
 62
     0
100
AcDbLine
 10
85.939273
 20
59.884143
 30
0.0
 11
85.939273
 21
59.884143
 31
0.0
  0
LINE
  5
223
100
AcDbEntity
  8
0
 62
     0
100
AcDbLine
 10
87.832933
 20
60.133448
 30
0.0
 11
87.832933
 21
60.133448
 31
0.0
  0
LINE
  5
224
100
AcDbEntity
  8
0
 62
     0
100
AcDbLine
 10
82.84517
 20
61.275687
 30
0.0
 11
82.84517
 21
61.275687
 31
0.0
  0
LINE
  5
225
100
AcDbEntity
  8
0
 62
     0
100
AcDbLine
 10
86.002922
 20
61.691412
 30
0.0
 11
86.002922
 21
61.691412
 31
0.0
  0
LINE
  5
226
100
AcDbEntity
  8
0
 62
     0
100
AcDbLine
 10
87.254621
 20
61.856202
 30
0.0
 11
87.254621
 21
61.856202
 31
0.0
  0
LINE
  5
227
100
AcDbEntity
  8
0
 62
     0
100
AcDbLine
 10
84.160518
 20
63.247745
 30
0.0
 11
84.160518
 21
63.247745
 31
0.0
  0
LINE
  5
228
100
AcDbEntity
  8
0
 62
     0
100
AcDbLine
 10
87.318269
 20
63.663471
 30
0.0
 11
87.318269
 21
63.663471
 31
0.0
  0
LINE
  5
229
100
AcDbEntity
  8
0
 62
     0
100
AcDbLine
 10
88.569969
 20
63.82826
 30
0.0
 11
88.569969
 21
63.82826
 31
0.0
  0
LINE
  5
22A
100
AcDbEntity
  8
0
 62
     0
100
AcDbLine
 10
83.582206
 20
64.970499
 30
0.0
 11
83.582206
 21
64.970499
 31
0.0
  0
LINE
  5
22B
100
AcDbEntity
  8
0
 62
     0
100
AcDbLine
 10
85.475865
 20
65.219804
 30
0.0
 11
85.475865
 21
65.219804
 31
0.0
  0
LINE
  5
22C
100
AcDbEntity
  8
0
 62
     0
100
AcDbLine
 10
88.633617
 20
65.63553
 30
0.0
 11
88.633617
 21
65.63553
 31
0.0
  0
LINE
  5
22D
100
AcDbEntity
  8
0
 62
     0
100
AcDbLine
 10
83.645854
 20
66.777768
 30
0.0
 11
83.645854
 21
66.777768
 31
0.0
  0
LINE
  5
22E
100
AcDbEntity
  8
0
 62
     0
100
AcDbLine
 10
84.897553
 20
66.942557
 30
0.0
 11
84.897553
 21
66.942557
 31
0.0
  0
LINE
  5
22F
100
AcDbEntity
  8
0
 62
     0
100
AcDbLine
 10
86.791213
 20
67.191862
 30
0.0
 11
86.791213
 21
67.191862
 31
0.0
  0
LINE
  5
230
100
AcDbEntity
  8
0
 62
     0
100
AcDbLine
 10
84.961202
 20
68.749826
 30
0.0
 11
84.961202
 21
68.749826
 31
0.0
  0
LINE
  5
231
100
AcDbEntity
  8
0
 62
     0
100
AcDbLine
 10
86.212901
 20
68.914616
 30
0.0
 11
86.212901
 21
68.914616
 31
0.0
  0
LINE
  5
232
100
AcDbEntity
  8
0
 62
     0
100
AcDbLine
 10
88.106561
 20
69.163921
 30
0.0
 11
88.106561
 21
69.163921
 31
0.0
  0
LINE
  5
233
100
AcDbEntity
  8
0
 62
     0
100
AcDbLine
 10
83.118798
 20
70.306159
 30
0.0
 11
83.118798
 21
70.306159
 31
0.0
  0
LINE
  5
234
100
AcDbEntity
  8
0
 62
     0
100
AcDbLine
 10
86.276549
 20
70.721885
 30
0.0
 11
86.276549
 21
70.721885
 31
0.0
  0
LINE
  5
235
100
AcDbEntity
  8
0
 62
     0
100
AcDbLine
 10
87.528249
 20
70.886674
 30
0.0
 11
87.528249
 21
70.886674
 31
0.0
  0
LINE
  5
236
100
AcDbEntity
  8
0
 62
     0
100
AcDbLine
 10
84.434145
 20
72.278218
 30
0.0
 11
84.434145
 21
72.278218
 31
0.0
  0
LINE
  5
237
100
AcDbEntity
  8
0
 62
     0
100
AcDbLine
 10
87.591897
 20
72.693944
 30
0.0
 11
87.591897
 21
72.693944
 31
0.0
  0
LINE
  5
238
100
AcDbEntity
  8
0
 62
     0
100
AcDbLine
 10
83.855833
 20
74.000971
 30
0.0
 11
83.855833
 21
74.000971
 31
0.0
  0
LINE
  5
239
100
AcDbEntity
  8
0
 62
     0
100
AcDbLine
 10
85.749493
 20
74.250276
 30
0.0
 11
85.749493
 21
74.250276
 31
0.0
  0
LINE
  5
23A
100
AcDbEntity
  8
0
 62
     0
100
AcDbLine
 10
83.919482
 20
75.80824
 30
0.0
 11
83.919482
 21
75.80824
 31
0.0
  0
LINE
  5
23B
100
AcDbEntity
  8
0
 62
     0
100
AcDbLine
 10
85.171181
 20
75.97303
 30
0.0
 11
85.171181
 21
75.97303
 31
0.0
  0
LINE
  5
23C
100
AcDbEntity
  8
0
 62
     0
100
AcDbLine
 10
84.413946
 20
50.688881
 30
0.0
 11
84.413946
 21
50.688881
 31
0.0
  0
LINE
  5
23D
100
AcDbEntity
  8
0
 62
     0
100
AcDbLine
 10
85.665645
 20
50.853671
 30
0.0
 11
85.665645
 21
50.853671
 31
0.0
  0
LINE
  5
23E
100
AcDbEntity
  8
0
 62
     0
100
AcDbLine
 10
87.559305
 20
51.102976
 30
0.0
 11
87.559305
 21
51.102976
 31
0.0
  0
LINE
  5
23F
100
AcDbEntity
  8
0
 62
     0
100
AcDbLine
 10
83.098599
 20
48.716823
 30
0.0
 11
83.098599
 21
48.716823
 31
0.0
  0
LINE
  5
240
100
AcDbEntity
  8
0
 62
     0
100
AcDbLine
 10
84.350298
 20
48.881612
 30
0.0
 11
84.350298
 21
48.881612
 31
0.0
  0
LINE
  5
241
100
AcDbEntity
  8
0
 62
     0
100
AcDbLine
 10
86.243957
 20
49.130917
 30
0.0
 11
86.243957
 21
49.130917
 31
0.0
  0
LINE
  5
242
100
AcDbEntity
  8
0
 62
     0
100
AcDbLine
 10
83.03495
 20
46.909554
 30
0.0
 11
83.03495
 21
46.909554
 31
0.0
  0
LINE
  5
243
100
AcDbEntity
  8
0
 62
     0
100
AcDbLine
 10
84.92861
 20
47.158859
 30
0.0
 11
84.92861
 21
47.158859
 31
0.0
  0
LINE
  5
244
100
AcDbEntity
  8
0
 62
     0
100
AcDbLine
 10
83.613262
 20
45.1868
 30
0.0
 11
83.613262
 21
45.1868
 31
0.0
  0
LINE
  5
245
100
AcDbEntity
  8
0
 62
     0
100
AcDbLine
 10
84.140319
 20
41.658409
 30
0.0
 11
84.140319
 21
41.658409
 31
0.0
  0
LINE
  5
246
100
AcDbEntity
  8
0
 62
     0
100
AcDbLine
 10
85.392018
 20
41.823198
 30
0.0
 11
85.392018
 21
41.823198
 31
0.0
  0
LINE
  5
247
100
AcDbEntity
  8
0
 62
     0
100
AcDbLine
 10
87.285677
 20
42.072503
 30
0.0
 11
87.285677
 21
42.072503
 31
0.0
  0
LINE
  5
248
100
AcDbEntity
  8
0
 62
     0
100
AcDbLine
 10
84.07667
 20
39.85114
 30
0.0
 11
84.07667
 21
39.85114
 31
0.0
  0
LINE
  5
249
100
AcDbEntity
  8
0
 62
     0
100
AcDbLine
 10
85.97033
 20
40.100445
 30
0.0
 11
85.97033
 21
40.100445
 31
0.0
  0
LINE
  5
24A
100
AcDbEntity
  8
0
 62
     0
100
AcDbLine
 10
84.654982
 20
38.128386
 30
0.0
 11
84.654982
 21
38.128386
 31
0.0
  0
LINE
  5
24B
100
AcDbEntity
  8
0
 62
     0
100
AcDbLine
 10
87.812734
 20
38.544112
 30
0.0
 11
87.812734
 21
38.544112
 31
0.0
  0
LINE
  5
24C
100
AcDbEntity
  8
0
 62
     0
100
AcDbLine
 10
83.339634
 20
36.156328
 30
0.0
 11
83.339634
 21
36.156328
 31
0.0
  0
LINE
  5
24D
100
AcDbEntity
  8
0
 62
     0
100
AcDbLine
 10
86.497386
 20
36.572053
 30
0.0
 11
86.497386
 21
36.572053
 31
0.0
  0
LINE
  5
24E
100
AcDbEntity
  8
0
 62
     0
100
AcDbLine
 10
87.749085
 20
36.736843
 30
0.0
 11
87.749085
 21
36.736843
 31
0.0
  0
LINE
  5
24F
100
AcDbEntity
  8
0
 62
     0
100
AcDbLine
 10
85.182039
 20
34.599995
 30
0.0
 11
85.182039
 21
34.599995
 31
0.0
  0
LINE
  5
250
100
AcDbEntity
  8
0
 62
     0
100
AcDbLine
 10
86.433738
 20
34.764784
 30
0.0
 11
86.433738
 21
34.764784
 31
0.0
  0
LINE
  5
251
100
AcDbEntity
  8
0
 62
     0
100
AcDbLine
 10
88.327397
 20
35.014089
 30
0.0
 11
88.327397
 21
35.014089
 31
0.0
  0
LINE
  5
252
100
AcDbEntity
  8
0
 62
     0
100
AcDbLine
 10
85.11839
 20
32.792726
 30
0.0
 11
85.11839
 21
32.792726
 31
0.0
  0
LINE
  5
253
100
AcDbEntity
  8
0
 62
     0
100
AcDbLine
 10
87.01205
 20
33.042031
 30
0.0
 11
87.01205
 21
33.042031
 31
0.0
  0
LINE
  5
254
100
AcDbEntity
  8
0
 62
     0
100
AcDbLine
 10
83.803042
 20
30.820667
 30
0.0
 11
83.803042
 21
30.820667
 31
0.0
  0
LINE
  5
255
100
AcDbEntity
  8
0
 62
     0
100
AcDbLine
 10
85.696702
 20
31.069972
 30
0.0
 11
85.696702
 21
31.069972
 31
0.0
  0
LINE
  5
256
100
AcDbEntity
  8
0
 62
     0
100
AcDbLine
 10
82.901006
 20
56.022898
 30
0.0
 11
82.901006
 21
56.022898
 31
0.0
  0
LINE
  5
257
100
AcDbEntity
  8
0
 62
     0
100
AcDbLine
 10
87.265557
 20
53.242372
 30
0.0
 11
87.265557
 21
53.242372
 31
0.0
  0
LINE
  5
258
100
AcDbEntity
  8
0
 62
     0
100
AcDbLine
 10
88.319796
 20
52.570748
 30
0.0
 11
88.319796
 21
52.570748
 31
0.0
  0
LINE
  5
259
100
AcDbEntity
  8
0
 62
     0
100
AcDbLine
 10
85.570118
 20
55.910123
 30
0.0
 11
85.570118
 21
55.910123
 31
0.0
  0
LINE
  5
25A
100
AcDbEntity
  8
0
 62
     0
100
AcDbLine
 10
89.934669
 20
53.129598
 30
0.0
 11
89.934669
 21
53.129598
 31
0.0
  0
LINE
  5
25B
100
AcDbEntity
  8
0
 62
     0
100
AcDbLine
 10
83.895765
 20
58.564442
 30
0.0
 11
83.895765
 21
58.564442
 31
0.0
  0
LINE
  5
25C
100
AcDbEntity
  8
0
 62
     0
100
AcDbLine
 10
84.950004
 20
57.892817
 30
0.0
 11
84.950004
 21
57.892817
 31
0.0
  0
LINE
  5
25D
100
AcDbEntity
  8
0
 62
     0
100
AcDbLine
 10
88.239231
 20
55.797349
 30
0.0
 11
88.239231
 21
55.797349
 31
0.0
  0
LINE
  5
25E
100
AcDbEntity
  8
0
 62
     0
100
AcDbLine
 10
86.564877
 20
58.451668
 30
0.0
 11
86.564877
 21
58.451668
 31
0.0
  0
LINE
  5
25F
100
AcDbEntity
  8
0
 62
     0
100
AcDbLine
 10
87.619116
 20
57.780043
 30
0.0
 11
87.619116
 21
57.780043
 31
0.0
  0
LINE
  5
260
100
AcDbEntity
  8
0
 62
     0
100
AcDbLine
 10
90.908343
 20
55.684575
 30
0.0
 11
90.908343
 21
55.684575
 31
0.0
  0
LINE
  5
261
100
AcDbEntity
  8
0
 62
     0
100
AcDbLine
 10
84.869438
 20
61.119419
 30
0.0
 11
84.869438
 21
61.119419
 31
0.0
  0
LINE
  5
262
100
AcDbEntity
  8
0
 62
     0
100
AcDbLine
 10
83.195085
 20
63.773737
 30
0.0
 11
83.195085
 21
63.773737
 31
0.0
  0
LINE
  5
263
100
AcDbEntity
  8
0
 62
     0
100
AcDbLine
 10
84.249324
 20
63.102113
 30
0.0
 11
84.249324
 21
63.102113
 31
0.0
  0
LINE
  5
264
100
AcDbEntity
  8
0
 62
     0
100
AcDbLine
 10
87.538551
 20
61.006644
 30
0.0
 11
87.538551
 21
61.006644
 31
0.0
  0
LINE
  5
265
100
AcDbEntity
  8
0
 62
     0
100
AcDbLine
 10
85.864197
 20
63.660963
 30
0.0
 11
85.864197
 21
63.660963
 31
0.0
  0
LINE
  5
266
100
AcDbEntity
  8
0
 62
     0
100
AcDbLine
 10
86.918436
 20
62.989339
 30
0.0
 11
86.918436
 21
62.989339
 31
0.0
  0
LINE
  5
267
100
AcDbEntity
  8
0
 62
     0
100
AcDbLine
 10
84.168758
 20
66.328714
 30
0.0
 11
84.168758
 21
66.328714
 31
0.0
  0
LINE
  5
268
100
AcDbEntity
  8
0
 62
     0
100
AcDbLine
 10
88.533309
 20
63.548189
 30
0.0
 11
88.533309
 21
63.548189
 31
0.0
  0
LINE
  5
269
100
AcDbEntity
  8
0
 62
     0
100
AcDbLine
 10
83.548644
 20
68.311408
 30
0.0
 11
83.548644
 21
68.311408
 31
0.0
  0
LINE
  5
26A
100
AcDbEntity
  8
0
 62
     0
100
AcDbLine
 10
86.83787
 20
66.21594
 30
0.0
 11
86.83787
 21
66.21594
 31
0.0
  0
LINE
  5
26B
100
AcDbEntity
  8
0
 62
     0
100
AcDbLine
 10
85.163517
 20
68.870258
 30
0.0
 11
85.163517
 21
68.870258
 31
0.0
  0
LINE
  5
26C
100
AcDbEntity
  8
0
 62
     0
100
AcDbLine
 10
86.217756
 20
68.198634
 30
0.0
 11
86.217756
 21
68.198634
 31
0.0
  0
LINE
  5
26D
100
AcDbEntity
  8
0
 62
     0
100
AcDbLine
 10
83.468078
 20
71.53801
 30
0.0
 11
83.468078
 21
71.53801
 31
0.0
  0
LINE
  5
26E
100
AcDbEntity
  8
0
 62
     0
100
AcDbLine
 10
87.832629
 20
68.757484
 30
0.0
 11
87.832629
 21
68.757484
 31
0.0
  0
LINE
  5
26F
100
AcDbEntity
  8
0
 62
     0
100
AcDbLine
 10
82.847964
 20
73.520704
 30
0.0
 11
82.847964
 21
73.520704
 31
0.0
  0
LINE
  5
270
100
AcDbEntity
  8
0
 62
     0
100
AcDbLine
 10
86.13719
 20
71.425235
 30
0.0
 11
86.13719
 21
71.425235
 31
0.0
  0
LINE
  5
271
100
AcDbEntity
  8
0
 62
     0
100
AcDbLine
 10
84.462836
 20
74.079554
 30
0.0
 11
84.462836
 21
74.079554
 31
0.0
  0
LINE
  5
272
100
AcDbEntity
  8
0
 62
     0
100
AcDbLine
 10
85.517076
 20
73.407929
 30
0.0
 11
85.517076
 21
73.407929
 31
0.0
  0
LINE
  5
273
100
AcDbEntity
  8
0
 62
     0
100
AcDbLine
 10
88.806302
 20
71.312461
 30
0.0
 11
88.806302
 21
71.312461
 31
0.0
  0
LINE
  5
274
100
AcDbEntity
  8
0
 62
     0
100
AcDbLine
 10
87.131949
 20
73.966779
 30
0.0
 11
87.131949
 21
73.966779
 31
0.0
  0
LINE
  5
275
100
AcDbEntity
  8
0
 62
     0
100
AcDbLine
 10
88.186188
 20
73.295155
 30
0.0
 11
88.186188
 21
73.295155
 31
0.0
  0
LINE
  5
276
100
AcDbEntity
  8
0
 62
     0
100
AcDbLine
 10
84.596445
 20
53.355147
 30
0.0
 11
84.596445
 21
53.355147
 31
0.0
  0
LINE
  5
277
100
AcDbEntity
  8
0
 62
     0
100
AcDbLine
 10
85.650684
 20
52.683522
 30
0.0
 11
85.650684
 21
52.683522
 31
0.0
  0
LINE
  5
278
100
AcDbEntity
  8
0
 62
     0
100
AcDbLine
 10
82.981572
 20
52.796296
 30
0.0
 11
82.981572
 21
52.796296
 31
0.0
  0
LINE
  5
279
100
AcDbEntity
  8
0
 62
     0
100
AcDbLine
 10
86.270799
 20
50.700828
 30
0.0
 11
86.270799
 21
50.700828
 31
0.0
  0
LINE
  5
27A
100
AcDbEntity
  8
0
 62
     0
100
AcDbLine
 10
83.601686
 20
50.813602
 30
0.0
 11
83.601686
 21
50.813602
 31
0.0
  0
LINE
  5
27B
100
AcDbEntity
  8
0
 62
     0
100
AcDbLine
 10
85.297125
 20
48.145851
 30
0.0
 11
85.297125
 21
48.145851
 31
0.0
  0
LINE
  5
27C
100
AcDbEntity
  8
0
 62
     0
100
AcDbLine
 10
86.351364
 20
47.474227
 30
0.0
 11
86.351364
 21
47.474227
 31
0.0
  0
LINE
  5
27D
100
AcDbEntity
  8
0
 62
     0
100
AcDbLine
 10
83.682252
 20
47.587001
 30
0.0
 11
83.682252
 21
47.587001
 31
0.0
  0
LINE
  5
27E
100
AcDbEntity
  8
0
 62
     0
100
AcDbLine
 10
84.302367
 20
45.604307
 30
0.0
 11
84.302367
 21
45.604307
 31
0.0
  0
LINE
  5
27F
100
AcDbEntity
  8
0
 62
     0
100
AcDbLine
 10
87.052044
 20
42.264931
 30
0.0
 11
87.052044
 21
42.264931
 31
0.0
  0
LINE
  5
280
100
AcDbEntity
  8
0
 62
     0
100
AcDbLine
 10
83.328693
 20
43.04933
 30
0.0
 11
83.328693
 21
43.04933
 31
0.0
  0
LINE
  5
281
100
AcDbEntity
  8
0
 62
     0
100
AcDbLine
 10
84.382932
 20
42.377706
 30
0.0
 11
84.382932
 21
42.377706
 31
0.0
  0
LINE
  5
282
100
AcDbEntity
  8
0
 62
     0
100
AcDbLine
 10
87.672159
 20
40.282237
 30
0.0
 11
87.672159
 21
40.282237
 31
0.0
  0
LINE
  5
283
100
AcDbEntity
  8
0
 62
     0
100
AcDbLine
 10
85.003047
 20
40.395012
 30
0.0
 11
85.003047
 21
40.395012
 31
0.0
  0
LINE
  5
284
100
AcDbEntity
  8
0
 62
     0
100
AcDbLine
 10
86.698485
 20
37.72726
 30
0.0
 11
86.698485
 21
37.72726
 31
0.0
  0
LINE
  5
285
100
AcDbEntity
  8
0
 62
     0
100
AcDbLine
 10
87.752725
 20
37.055636
 30
0.0
 11
87.752725
 21
37.055636
 31
0.0
  0
LINE
  5
286
100
AcDbEntity
  8
0
 62
     0
100
AcDbLine
 10
84.029373
 20
37.840035
 30
0.0
 11
84.029373
 21
37.840035
 31
0.0
  0
LINE
  5
287
100
AcDbEntity
  8
0
 62
     0
100
AcDbLine
 10
85.083612
 20
37.16841
 30
0.0
 11
85.083612
 21
37.16841
 31
0.0
  0
LINE
  5
288
100
AcDbEntity
  8
0
 62
     0
100
AcDbLine
 10
88.372839
 20
35.072942
 30
0.0
 11
88.372839
 21
35.072942
 31
0.0
  0
LINE
  5
289
100
AcDbEntity
  8
0
 62
     0
100
AcDbLine
 10
85.703727
 20
35.185716
 30
0.0
 11
85.703727
 21
35.185716
 31
0.0
  0
LINE
  5
28A
100
AcDbEntity
  8
0
 62
     0
100
AcDbLine
 10
83.034615
 20
35.298491
 30
0.0
 11
83.034615
 21
35.298491
 31
0.0
  0
LINE
  5
28B
100
AcDbEntity
  8
0
 62
     0
100
AcDbLine
 10
87.399165
 20
32.517965
 30
0.0
 11
87.399165
 21
32.517965
 31
0.0
  0
LINE
  5
28C
100
AcDbEntity
  8
0
 62
     0
100
AcDbLine
 10
88.453405
 20
31.846341
 30
0.0
 11
88.453405
 21
31.846341
 31
0.0
  0
LINE
  5
28D
100
AcDbEntity
  8
0
 62
     0
100
AcDbLine
 10
84.730053
 20
32.630739
 30
0.0
 11
84.730053
 21
32.630739
 31
0.0
  0
LINE
  5
28E
100
AcDbEntity
  8
0
 62
     0
100
AcDbLine
 10
85.784293
 20
31.959115
 30
0.0
 11
85.784293
 21
31.959115
 31
0.0
  0
LINE
  5
28F
100
AcDbEntity
  8
0
 62
     0
100
AcDbLine
 10
83.11518
 20
32.071889
 30
0.0
 11
83.11518
 21
32.071889
 31
0.0
  0
LINE
  5
290
100
AcDbEntity
  8
0
 62
     0
100
AcDbLine
 10
83.241892
 20
55.487281
 30
0.0
 11
83.241892
 21
55.487281
 31
0.0
  0
LINE
  5
291
100
AcDbEntity
  8
0
 62
     0
100
AcDbLine
 10
85.951386
 20
53.004487
 30
0.0
 11
85.951386
 21
53.004487
 31
0.0
  0
LINE
  5
292
100
AcDbEntity
  8
0
 62
     0
100
AcDbLine
 10
87.149462
 20
51.906653
 30
0.0
 11
87.149462
 21
51.906653
 31
0.0
  0
LINE
  5
293
100
AcDbEntity
  8
0
 62
     0
100
AcDbLine
 10
83.050199
 20
58.835418
 30
0.0
 11
83.050199
 21
58.835418
 31
0.0
  0
LINE
  5
294
100
AcDbEntity
  8
0
 62
     0
100
AcDbLine
 10
84.248275
 20
57.737584
 30
0.0
 11
84.248275
 21
57.737584
 31
0.0
  0
LINE
  5
295
100
AcDbEntity
  8
0
 62
     0
100
AcDbLine
 10
86.157823
 20
55.987806
 30
0.0
 11
86.157823
 21
55.987806
 31
0.0
  0
LINE
  5
296
100
AcDbEntity
  8
0
 62
     0
100
AcDbLine
 10
88.867317
 20
53.505012
 30
0.0
 11
88.867317
 21
53.505012
 31
0.0
  0
LINE
  5
297
100
AcDbEntity
  8
0
 62
     0
100
AcDbLine
 10
83.256636
 20
61.818737
 30
0.0
 11
83.256636
 21
61.818737
 31
0.0
  0
LINE
  5
298
100
AcDbEntity
  8
0
 62
     0
100
AcDbLine
 10
85.96613
 20
59.335943
 30
0.0
 11
85.96613
 21
59.335943
 31
0.0
  0
LINE
  5
299
100
AcDbEntity
  8
0
 62
     0
100
AcDbLine
 10
87.164206
 20
58.238109
 30
0.0
 11
87.164206
 21
58.238109
 31
0.0
  0
LINE
  5
29A
100
AcDbEntity
  8
0
 62
     0
100
AcDbLine
 10
89.073754
 20
56.488331
 30
0.0
 11
89.073754
 21
56.488331
 31
0.0
  0
LINE
  5
29B
100
AcDbEntity
  8
0
 62
     0
100
AcDbLine
 10
83.064943
 20
65.166875
 30
0.0
 11
83.064943
 21
65.166875
 31
0.0
  0
LINE
  5
29C
100
AcDbEntity
  8
0
 62
     0
100
AcDbLine
 10
84.263018
 20
64.069041
 30
0.0
 11
84.263018
 21
64.069041
 31
0.0
  0
LINE
  5
29D
100
AcDbEntity
  8
0
 62
     0
100
AcDbLine
 10
86.172567
 20
62.319262
 30
0.0
 11
86.172567
 21
62.319262
 31
0.0
  0
LINE
  5
29E
100
AcDbEntity
  8
0
 62
     0
100
AcDbLine
 10
83.271379
 20
68.150194
 30
0.0
 11
83.271379
 21
68.150194
 31
0.0
  0
LINE
  5
29F
100
AcDbEntity
  8
0
 62
     0
100
AcDbLine
 10
85.980873
 20
65.6674
 30
0.0
 11
85.980873
 21
65.6674
 31
0.0
  0
LINE
  5
2A0
100
AcDbEntity
  8
0
 62
     0
100
AcDbLine
 10
87.178949
 20
64.569566
 30
0.0
 11
87.178949
 21
64.569566
 31
0.0
  0
LINE
  5
2A1
100
AcDbEntity
  8
0
 62
     0
100
AcDbLine
 10
83.079686
 20
71.498331
 30
0.0
 11
83.079686
 21
71.498331
 31
0.0
  0
LINE
  5
2A2
100
AcDbEntity
  8
0
 62
     0
100
AcDbLine
 10
84.277762
 20
70.400497
 30
0.0
 11
84.277762
 21
70.400497
 31
0.0
  0
LINE
  5
2A3
100
AcDbEntity
  8
0
 62
     0
100
AcDbLine
 10
86.18731
 20
68.650719
 30
0.0
 11
86.18731
 21
68.650719
 31
0.0
  0
LINE
  5
2A4
100
AcDbEntity
  8
0
 62
     0
100
AcDbLine
 10
83.286123
 20
74.48165
 30
0.0
 11
83.286123
 21
74.48165
 31
0.0
  0
LINE
  5
2A5
100
AcDbEntity
  8
0
 62
     0
100
AcDbLine
 10
85.995617
 20
71.998856
 30
0.0
 11
85.995617
 21
71.998856
 31
0.0
  0
LINE
  5
2A6
100
AcDbEntity
  8
0
 62
     0
100
AcDbLine
 10
87.193693
 20
70.901022
 30
0.0
 11
87.193693
 21
70.901022
 31
0.0
  0
LINE
  5
2A7
100
AcDbEntity
  8
0
 62
     0
100
AcDbLine
 10
84.292505
 20
76.731954
 30
0.0
 11
84.292505
 21
76.731954
 31
0.0
  0
LINE
  5
2A8
100
AcDbEntity
  8
0
 62
     0
100
AcDbLine
 10
86.202054
 20
74.982175
 30
0.0
 11
86.202054
 21
74.982175
 31
0.0
  0
LINE
  5
2A9
100
AcDbEntity
  8
0
 62
     0
100
AcDbLine
 10
83.035456
 20
52.503962
 30
0.0
 11
83.035456
 21
52.503962
 31
0.0
  0
LINE
  5
2AA
100
AcDbEntity
  8
0
 62
     0
100
AcDbLine
 10
84.233531
 20
51.406128
 30
0.0
 11
84.233531
 21
51.406128
 31
0.0
  0
LINE
  5
2AB
100
AcDbEntity
  8
0
 62
     0
100
AcDbLine
 10
86.14308
 20
49.656349
 30
0.0
 11
86.14308
 21
49.656349
 31
0.0
  0
LINE
  5
2AC
100
AcDbEntity
  8
0
 62
     0
100
AcDbLine
 10
83.227149
 20
49.155824
 30
0.0
 11
83.227149
 21
49.155824
 31
0.0
  0
LINE
  5
2AD
100
AcDbEntity
  8
0
 62
     0
100
AcDbLine
 10
85.936643
 20
46.67303
 30
0.0
 11
85.936643
 21
46.67303
 31
0.0
  0
LINE
  5
2AE
100
AcDbEntity
  8
0
 62
     0
100
AcDbLine
 10
83.020712
 20
46.172505
 30
0.0
 11
83.020712
 21
46.172505
 31
0.0
  0
LINE
  5
2AF
100
AcDbEntity
  8
0
 62
     0
100
AcDbLine
 10
84.218788
 20
45.074671
 30
0.0
 11
84.218788
 21
45.074671
 31
0.0
  0
LINE
  5
2B0
100
AcDbEntity
  8
0
 62
     0
100
AcDbLine
 10
83.212405
 20
42.824368
 30
0.0
 11
83.212405
 21
42.824368
 31
0.0
  0
LINE
  5
2B1
100
AcDbEntity
  8
0
 62
     0
100
AcDbLine
 10
85.921899
 20
40.341574
 30
0.0
 11
85.921899
 21
40.341574
 31
0.0
  0
LINE
  5
2B2
100
AcDbEntity
  8
0
 62
     0
100
AcDbLine
 10
87.119975
 20
39.24374
 30
0.0
 11
87.119975
 21
39.24374
 31
0.0
  0
LINE
  5
2B3
100
AcDbEntity
  8
0
 62
     0
100
AcDbLine
 10
83.005969
 20
39.841049
 30
0.0
 11
83.005969
 21
39.841049
 31
0.0
  0
LINE
  5
2B4
100
AcDbEntity
  8
0
 62
     0
100
AcDbLine
 10
84.204044
 20
38.743215
 30
0.0
 11
84.204044
 21
38.743215
 31
0.0
  0
LINE
  5
2B5
100
AcDbEntity
  8
0
 62
     0
100
AcDbLine
 10
86.113593
 20
36.993436
 30
0.0
 11
86.113593
 21
36.993436
 31
0.0
  0
LINE
  5
2B6
100
AcDbEntity
  8
0
 62
     0
100
AcDbLine
 10
88.823087
 20
34.510642
 30
0.0
 11
88.823087
 21
34.510642
 31
0.0
  0
LINE
  5
2B7
100
AcDbEntity
  8
0
 62
     0
100
AcDbLine
 10
83.197662
 20
36.492911
 30
0.0
 11
83.197662
 21
36.492911
 31
0.0
  0
LINE
  5
2B8
100
AcDbEntity
  8
0
 62
     0
100
AcDbLine
 10
85.907156
 20
34.010117
 30
0.0
 11
85.907156
 21
34.010117
 31
0.0
  0
LINE
  5
2B9
100
AcDbEntity
  8
0
 62
     0
100
AcDbLine
 10
87.105232
 20
32.912283
 30
0.0
 11
87.105232
 21
32.912283
 31
0.0
  0
LINE
  5
2BA
100
AcDbEntity
  8
0
 62
     0
100
AcDbLine
 10
82.991225
 20
33.509592
 30
0.0
 11
82.991225
 21
33.509592
 31
0.0
  0
LINE
  5
2BB
100
AcDbEntity
  8
0
 62
     0
100
AcDbLine
 10
86.098849
 20
30.661979
 30
0.0
 11
86.098849
 21
30.661979
 31
0.0
  0
ENDBLK
  5
2BC
100
AcDbEntity
  8
0
100
AcDbBlockEnd
  0
BLOCK
  5
341
100
AcDbEntity
  8
0
100
AcDbBlockBegin
  2
A$C1B9C0168
 70
     0
 10
0.0
 20
0.0
 30
0.0
  3
A$C1B9C0168
  1

  0
TEXT
  5
33B
100
AcDbEntity
  8
DIM_TEXT
100
AcDbText
 10
9.213024
 20
17.701965
 30
0.0
 40
1.125
  1
VERT. REINF.
 51
15.0
  7
INFO
100
AcDbText
  0
TEXT
  5
33C
100
AcDbEntity
  8
DIM_TEXT
100
AcDbText
 10
2.408255
 20
15.382704
 30
0.0
 40
1.125
  1
(MIN. #4 @ 30" O.C.
 51
15.0
  7
INFO
100
AcDbText
  0
TEXT
  5
33D
100
AcDbEntity
  8
DIM_TEXT
100
AcDbText
 10
-0.214286
 20
12.641868
 30
0.0
 40
1.125
  1
REQUIRED, PER DESIGN)
 51
15.0
  7
INFO
100
AcDbText
  0
TEXT
  5
33E
100
AcDbEntity
  8
DIM_TEXT
100
AcDbText
 10
8.497009
 20
5.470264
 30
0.0
 40
1.125
  1
HORIZ. REINF.
 51
15.0
  7
INFO
100
AcDbText
  0
TEXT
  5
33F
100
AcDbEntity
  8
DIM_TEXT
100
AcDbText
 10
2.400487
 20
2.985113
 30
0.0
 40
1.125
  1
(MIN. #4 @ 30" O.C.
 51
15.0
  7
INFO
100
AcDbText
  0
TEXT
  5
340
100
AcDbEntity
  8
DIM_TEXT
100
AcDbText
 10
-0.127324
 20
0.375
 30
0.0
 40
1.125
  1
REQUIRED, PER DESIGN)
 51
15.0
  7
INFO
100
AcDbText
  0
ENDBLK
  5
342
100
AcDbEntity
  8
0
100
AcDbBlockEnd
  0
ENDSEC
  0
SECTION
  2
ENTITIES
  0
TEXT
  5
2BD
100
AcDbEntity
  8
DIM_TEXT
100
AcDbText
 10
59.805864
 20
56.012121
 30
0.0
 40
1.125
  1
FIRE CUT END
 51
15.0
  7
INFO
 11
59.805864
 21
56.574621
 31
0.0
100
AcDbText
 73
     2
  0
TEXT
  5
2BF
100
AcDbEntity
  8
DRAWING
100
AcDbText
 10
16.932794
 20
5.461431
 30
0.0
 40
2.5
  1
BEAM BEARING DETAIL
  7
TITLE
 72
     1
 11
39.789937
 21
5.461431
 31
0.0
100
AcDbText
  0
LINE
  5
2C1
100
AcDbEntity
  8
DRAWING
100
AcDbLine
 10
46.650819
 20
66.8125
 30
0.0
 11
46.650819
 21
46.8125
 31
0.0
  0
LINE
  5
2C2
100
AcDbEntity
  8
DRAWING
100
AcDbLine
 10
34.650819
 20
66.8125
 30
0.0
 11
34.650819
 21
21.8125
 31
0.0
  0
LINE
  5
2C3
100
AcDbEntity
  8
DRAWING
100
AcDbLine
 10
43.650819
 20
66.8125
 30
0.0
 11
43.650819
 21
47.8125
 31
0.0
  0
LINE
  5
2C4
100
AcDbEntity
  8
DRAWING
100
AcDbLine
 10
37.650819
 20
66.8125
 30
0.0
 11
37.650819
 21
21.8125
 31
0.0
  0
ARC
  5
2C5
100
AcDbEntity
  8
DRAWING
100
AcDbCircle
 10
40.650819
 20
36.8125
 30
0.0
 40
3.0
100
AcDbArc
 50
54.861844
 51
221.810315
  0
CIRCLE
  5
2C6
100
AcDbEntity
  8
DRAWING
100
AcDbCircle
 10
40.650819
 20
51.8125
 30
0.0
 40
3.0
  0
ARC
  5
2C7
100
AcDbEntity
  8
DRAWING
100
AcDbCircle
 10
40.650819
 20
66.8125
 30
0.0
 40
3.0
100
AcDbArc
 50
180.0
 51
0.0
  0
ARC
  5
2C8
100
AcDbEntity
  8
DRAWING
100
AcDbCircle
 10
40.650819
 20
21.8125
 30
0.0
 40
3.0
100
AcDbArc
 50
0.0
 51
180.0
  0
LWPOLYLINE
  5
2C9
100
AcDbEntity
  8
HATCH
100
AcDbPolyline
 90
        6
 70
     0
 43
0.0
 10
32.376954
 20
21.8125
 10
39.082127
 20
21.8125
 10
38.644805
 20
23.8125
 10
42.469307
 20
19.8125
 10
42.088243
 20
21.8125
 10
49.200866
 20
21.8125
  0
LWPOLYLINE
  5
2D1
100
AcDbEntity
  8
HATCH
100
AcDbPolyline
 90
        6
 70
     0
 43
0.0
 10
32.376954
 20
66.8125
 10
39.082127
 20
66.8125
 10
38.644805
 20
68.8125
 10
42.469307
 20
64.8125
 10
42.088243
 20
66.8125
 10
49.200866
 20
66.8125
  0
LINE
  5
2D9
100
AcDbEntity
  8
DRAWING
100
AcDbLine
 10
37.650819
 20
33.8125
 30
0.0
 11
46.650819
 21
33.8125
 31
0.0
  0
LINE
  5
2DA
100
AcDbEntity
  8
DRAWING
100
AcDbLine
 10
37.650819
 20
25.8125
 30
0.0
 11
43.650819
 21
25.8125
 31
0.0
  0
LINE
  5
2DB
100
AcDbEntity
  8
DRAWING
100
AcDbLine
 10
38.150819
 20
34.8125
 30
0.0
 11
67.342405
 21
34.8125
 31
0.0
  0
LINE
  5
2DC
100
AcDbEntity
  8
DRAWING
100
AcDbLine
 10
43.650819
 20
33.8125
 30
0.0
 11
43.650819
 21
21.8125
 31
0.0
  0
LINE
  5
2DD
100
AcDbEntity
  8
DRAWING
100
AcDbLine
 10
46.150819
 20
46.8125
 30
0.0
 11
67.342405
 21
46.8125
 31
0.0
  0
LINE
  5
2DE
100
AcDbEntity
  8
DRAWING
100
AcDbLine
 10
40.150819
 20
34.8125
 30
0.0
 11
46.150819
 21
46.8125
 31
0.0
  0
LINE
  5
2DF
100
AcDbEntity
  8
DRAWING
100
AcDbLine
 10
43.650819
 20
47.8125
 30
0.0
 11
46.650819
 21
47.8125
 31
0.0
  0
LINE
  5
2E0
100
AcDbEntity
  8
DRAWING
100
AcDbLine
 10
46.650819
 20
34.8125
 30
0.0
 11
46.650819
 21
21.8125
 31
0.0
  0
LINE
  5
2E1
100
AcDbEntity
  8
DRAWING
100
AcDbLine
 10
46.150819
 20
34.8125
 30
0.0
 11
46.150819
 21
33.8125
 31
0.0
  0
LINE
  5
2E2
100
AcDbEntity
  8
DRAWING
100
AcDbLine
 10
38.150819
 20
34.8125
 30
0.0
 11
38.150819
 21
33.8125
 31
0.0
  0
LWPOLYLINE
  5
2E3
100
AcDbEntity
  8
HATCH
100
AcDbPolyline
 90
        6
 70
     0
 43
0.0
 10
67.342405
 20
49.086365
 10
67.342405
 20
42.381191
 10
69.342405
 20
42.818514
 10
65.342405
 20
38.994011
 10
67.342405
 20
39.375076
 10
67.342405
 20
32.262453
  0
LINE
  5
2EB
100
AcDbEntity
  8
DRAWING
100
AcDbLine
 10
39.650819
 20
67.760322
 30
0.0
 11
39.650819
 21
22.760322
 31
0.0
  0
LINE
  5
2EC
100
AcDbEntity
  8
DRAWING
100
AcDbLine
 10
40.650819
 20
33.046875
 30
0.0
 11
40.650819
 21
21.714434
 31
0.0
  0
CIRCLE
  5
2ED
100
AcDbEntity
  8
DRAWING
100
AcDbCircle
 10
40.650819
 20
49.654829
 30
0.0
 40
0.35
  0
CIRCLE
  5
2EE
100
AcDbEntity
  8
DRAWING
100
AcDbCircle
 10
40.650819
 20
64.654829
 30
0.0
 40
0.35
  0
CIRCLE
  5
2EF
100
AcDbEntity
  8
DRAWING
100
AcDbCircle
 10
40.302707
 20
36.430397
 30
0.0
 40
0.35
  0
LINE
  5
2F0
100
AcDbEntity
  8
DRAWING
100
AcDbLine
 10
42.150819
 20
33.8125
 30
0.0
 11
42.150819
 21
26.938068
 31
0.0
  0
LINE
  5
2F1
100
AcDbEntity
  8
DRAWING
100
AcDbLine
 10
42.150819
 20
26.938068
 30
0.0
 11
39.099345
 21
26.938068
 31
0.0
  0
CIRCLE
  5
2F2
100
AcDbEntity
  8
DRAWING
100
AcDbCircle
 10
41.388817
 20
27.549147
 30
0.0
 40
0.35
  0
CIRCLE
  5
2F3
100
AcDbEntity
  8
DRAWING
100
AcDbCircle
 10
39.188749
 20
27.549147
 30
0.0
 40
0.35
  0
INSERT
  5
2F4
100
AcDbEntity
  8
HATCH
100
AcDbBlockReference
  2
*X0
 10
-0.550329
 20
-9.0
 30
0.0
1001
ACAD
1000
HATCH
1002
{
1070
    16
1000
ANSI33
1040
5.0
1040
0.0
1002
}
  0
INSERT
  5
2F5
100
AcDbEntity
  8
HATCH
100
AcDbBlockReference
  2
*X1
 10
-45.17829
 20
-9.0
 30
0.0
1001
ACAD
1000
HATCH
1002
{
1070
    16
1000
AR-CONC
1040
0.5
1040
0.0
1002
}
  0
TEXT
  5
2F6
100
AcDbEntity
  8
DIM_TEXT
100
AcDbText
 10
59.805864
 20
54.012121
 30
0.0
 40
1.125
  1
OF BEAM
 51
15.0
  7
INFO
 11
59.805864
 21
54.574621
 31
0.0
100
AcDbText
 73
     2
  0
TEXT
  5
2F7
100
AcDbEntity
  8
DIM_TEXT
100
AcDbText
 10
58.965663
 20
30.085129
 30
0.0
 40
1.125
  1
SIMPSON BEAM
 51
15.0
  7
INFO
 11
58.965663
 21
30.647629
 31
0.0
100
AcDbText
 73
     2
  0
TEXT
  5
2F8
100
AcDbEntity
  8
DIM_TEXT
100
AcDbText
 10
58.965663
 20
28.085129
 30
0.0
 40
1.125
  1
SEAT SET INTO
 51
15.0
  7
INFO
 11
58.965663
 21
28.647629
 31
0.0
100
AcDbText
 73
     2
  0
TEXT
  5
2F9
100
AcDbEntity
  8
DIM_TEXT
100
AcDbText
 10
58.965663
 20
26.085129
 30
0.0
 40
1.125
  1
SOLID GROUT
 51
15.0
  7
INFO
 11
58.965663
 21
26.647629
 31
0.0
100
AcDbText
 73
     2
  0
TEXT
  5
2FA
100
AcDbEntity
  8
DIM_TEXT
100
AcDbText
 10
58.965663
 20
20.335129
 30
0.0
 40
1.125
  1
GROUTED CELLS W/
 51
15.0
  7
INFO
 11
58.965663
 21
20.897629
 31
0.0
100
AcDbText
 73
     2
  0
TEXT
  5
2FB
100
AcDbEntity
  8
DIM_TEXT
100
AcDbText
 10
58.965663
 20
22.335129
 30
0.0
 40
1.125
  1
PROVIDE (2) VERT.
 51
15.0
  7
INFO
 11
58.965663
 21
22.897629
 31
0.0
100
AcDbText
 73
     2
  0
TEXT
  5
2FC
100
AcDbEntity
  8
DIM_TEXT
100
AcDbText
 10
58.965663
 20
18.335129
 30
0.0
 40
1.125
  1
(1) ADDITIONAL #4
 51
15.0
  7
INFO
 11
58.965663
 21
18.897629
 31
0.0
100
AcDbText
 73
     2
  0
TEXT
  5
2FD
100
AcDbEntity
  8
DIM_TEXT
100
AcDbText
 10
58.965663
 20
16.335129
 30
0.0
 40
1.125
  1
BAR AT EACH CELL
 51
15.0
  7
INFO
 11
58.965663
 21
16.897629
 31
0.0
100
AcDbText
 73
     2
  0
TEXT
  5
2FE
100
AcDbEntity
  8
DIM_TEXT
100
AcDbText
 10
58.965663
 20
14.335129
 30
0.0
 40
1.125
  1
BELOW BEAM SEAT
 51
15.0
  7
INFO
 11
58.965663
 21
14.897629
 31
0.0
100
AcDbText
 73
     2
  0
TEXT
  5
303
100
AcDbEntity
  8
DIM_TEXT
100
AcDbText
 10
5.462226
 20
39.260765
 30
0.0
 40
1.125
  1
OF BEAM
 51
15.0
  7
INFO
 11
5.462226
 21
39.823265
 31
0.0
100
AcDbText
 73
     2
  0
TEXT
  5
304
100
AcDbEntity
  8
DIM_TEXT
100
AcDbText
 10
5.462226
 20
41.260765
 30
0.0
 40
1.125
  1
ARROUND END
 51
15.0
  7
INFO
 11
5.462226
 21
41.823265
 31
0.0
100
AcDbText
 73
     2
  0
TEXT
  5
305
100
AcDbEntity
  8
DIM_TEXT
100
AcDbText
 10
5.462226
 20
43.260765
 30
0.0
 40
1.125
  1
30 lb. FELT
 51
15.0
  7
INFO
 11
5.462226
 21
43.823265
 31
0.0
100
AcDbText
 73
     2
  0
TEXT
  5
306
100
AcDbEntity
  8
DIM_TEXT
100
AcDbText
 10
5.462226
 20
28.992587
 30
0.0
 40
1.125
  1
LONG BELOW BEAM
 51
15.0
  7
INFO
 11
5.462226
 21
29.555087
 31
0.0
100
AcDbText
 73
     2
  0
TEXT
  5
307
100
AcDbEntity
  8
DIM_TEXT
100
AcDbText
 10
5.462226
 20
26.992587
 30
0.0
 40
1.125
  1
SEAT (TYP.)
 51
15.0
  7
INFO
 11
5.462226
 21
27.555087
 31
0.0
100
AcDbText
 73
     2
  0
TEXT
  5
308
100
AcDbEntity
  8
DIM_TEXT
100
AcDbText
 10
5.462226
 20
30.992587
 30
0.0
 40
1.125
  1
W/ (2) #5's x 30"
 51
15.0
  7
INFO
 11
5.462226
 21
31.555087
 31
0.0
100
AcDbText
 73
     2
  0
TEXT
  5
309
100
AcDbEntity
  8
DIM_TEXT
100
AcDbText
 10
5.462226
 20
32.992587
 30
0.0
 40
1.125
  1
6" WIDE x 8" HIGH
 51
15.0
  7
INFO
 11
5.462226
 21
33.555087
 31
0.0
100
AcDbText
 73
     2
  0
TEXT
  5
30A
100
AcDbEntity
  8
DIM_TEXT
100
AcDbText
 10
5.462226
 20
34.992587
 30
0.0
 40
1.125
  1
CUT OUT RASTRA
 51
15.0
  7
INFO
 11
5.462226
 21
35.555087
 31
0.0
100
AcDbText
 73
     2
  0
LINE
  5
30F
100
AcDbEntity
  8
DIM_TEXT
100
AcDbLine
 10
40.650819
 20
65.154829
 30
0.0
 11
40.650819
 21
73.373184
 31
0.0
  0
LINE
  5
310
100
AcDbEntity
  8
DIM_TEXT
100
AcDbLine
 10
46.650819
 20
67.3125
 30
0.0
 11
46.650819
 21
73.373184
 31
0.0
  0
LINE
  5
311
100
AcDbEntity
  8
DIM_TEXT
100
AcDbLine
 10
40.650819
 20
72.873184
 30
0.0
 11
42.025819
 21
72.873184
 31
0.0
  0
LINE
  5
312
100
AcDbEntity
  8
DIM_TEXT
100
AcDbLine
 10
46.650819
 20
72.873184
 30
0.0
 11
45.275819
 21
72.873184
 31
0.0
  0
LINE
  5
313
100
AcDbEntity
  8
DIM_TEXT
100
AcDbLine
 10
40.150819
 20
72.373184
 30
0.0
 11
41.150819
 21
73.373184
 31
0.0
  0
LINE
  5
314
100
AcDbEntity
  8
DIM_TEXT
100
AcDbLine
 10
46.150819
 20
72.373184
 30
0.0
 11
47.150819
 21
73.373184
 31
0.0
  0
TEXT
  5
315
100
AcDbEntity
  8
DIM_TEXT
100
AcDbText
 10
42.525819
 20
72.310684
 30
0.0
 40
1.125
  1
EQ.
 72
     1
 11
43.650819
 21
72.873184
 31
0.0
100
AcDbText
 73
     2
  0
POINT
  5
317
100
AcDbEntity
  8
DEFPOINTS
  6
BYBLOCK
 62
     0
100
AcDbPoint
 10
40.650819
 20
64.654829
 30
0.0
  0
POINT
  5
318
100
AcDbEntity
  8
DEFPOINTS
  6
BYBLOCK
 62
     0
100
AcDbPoint
 10
46.650819
 20
66.8125
 30
0.0
  0
POINT
  5
319
100
AcDbEntity
  8
DIM_TEXT
100
AcDbPoint
 10
46.650819
 20
72.873184
 30
0.0
  0
LINE
  5
31A
100
AcDbEntity
  8
DIM_TEXT
100
AcDbLine
 10
34.650819
 20
67.3125
 30
0.0
 11
34.650819
 21
73.373184
 31
0.0
  0
LINE
  5
31B
100
AcDbEntity
  8
DIM_TEXT
100
AcDbLine
 10
40.650819
 20
65.154829
 30
0.0
 11
40.650819
 21
73.373184
 31
0.0
  0
LINE
  5
31C
100
AcDbEntity
  8
DIM_TEXT
100
AcDbLine
 10
34.650819
 20
72.873184
 30
0.0
 11
36.025819
 21
72.873184
 31
0.0
  0
LINE
  5
31D
100
AcDbEntity
  8
DIM_TEXT
100
AcDbLine
 10
40.650819
 20
72.873184
 30
0.0
 11
39.275819
 21
72.873184
 31
0.0
  0
LINE
  5
31E
100
AcDbEntity
  8
DIM_TEXT
100
AcDbLine
 10
34.150819
 20
72.373184
 30
0.0
 11
35.150819
 21
73.373184
 31
0.0
  0
LINE
  5
31F
100
AcDbEntity
  8
DIM_TEXT
100
AcDbLine
 10
40.150819
 20
72.373184
 30
0.0
 11
41.150819
 21
73.373184
 31
0.0
  0
TEXT
  5
320
100
AcDbEntity
  8
DIM_TEXT
100
AcDbText
 10
36.525819
 20
72.310684
 30
0.0
 40
1.125
  1
EQ.
 72
     1
 11
37.650819
 21
72.873184
 31
0.0
100
AcDbText
 73
     2
  0
POINT
  5
321
100
AcDbEntity
  8
DEFPOINTS
  6
BYBLOCK
 62
     0
100
AcDbPoint
 10
34.650819
 20
66.8125
 30
0.0
  0
POINT
  5
322
100
AcDbEntity
  8
DEFPOINTS
  6
BYBLOCK
 62
     0
100
AcDbPoint
 10
40.650819
 20
64.654829
 30
0.0
  0
POINT
  5
323
100
AcDbEntity
  8
DIM_TEXT
100
AcDbPoint
 10
40.650819
 20
72.873184
 30
0.0
  0
SOLID
  5
324
100
AcDbEntity
  8
DIM_TEXT
100
AcDbTrace
 10
47.028032
 20
33.804292
 30
0.0
 11
47.145439
 21
34.116264
 31
0.0
 12
46.150819
 22
34.3125
 32
0.0
 13
46.150819
 23
34.3125
 33
0.0
  0
LINE
  5
325
100
AcDbEntity
  8
DIM_TEXT
100
AcDbLine
 10
47.086736
 20
33.960278
 30
0.0
 11
56.007037
 21
30.603226
 31
0.0
  0
LINE
  5
326
100
AcDbEntity
  8
DIM_TEXT
100
AcDbLine
 10
56.007037
 20
30.603226
 30
0.0
 11
58.039635
 21
30.603226
 31
0.0
  0
SOLID
  5
327
100
AcDbEntity
  8
DIM_TEXT
100
AcDbTrace
 10
41.648175
 20
22.728936
 30
0.0
 11
41.648175
 21
23.062269
 31
0.0
 12
40.648175
 22
22.895603
 32
0.0
 13
40.648175
 23
22.895603
 33
0.0
  0
LINE
  5
328
100
AcDbEntity
  8
DIM_TEXT
100
AcDbLine
 10
41.648175
 20
22.895603
 30
0.0
 11
58.039635
 21
22.895603
 31
0.0
  0
SOLID
  5
329
100
AcDbEntity
  8
DIM_TEXT
100
AcDbTrace
 10
52.057877
 20
47.594361
 30
0.0
 11
51.769417
 21
47.761399
 31
0.0
 12
51.412532
 22
46.8125
 32
0.0
 13
51.412532
 23
46.8125
 33
0.0
  0
LINE
  5
32A
100
AcDbEntity
  8
DIM_TEXT
100
AcDbLine
 10
51.913647
 20
47.67788
 30
0.0
 11
57.06548
 21
56.574619
 31
0.0
  0
LINE
  5
32B
100
AcDbEntity
  8
DIM_TEXT
100
AcDbLine
 10
57.06548
 20
56.574619
 30
0.0
 11
59.014773
 21
56.574619
 31
0.0
  0
SOLID
  5
32C
100
AcDbEntity
  8
DIM_TEXT
100
AcDbTrace
 10
38.910393
 20
60.266052
 30
0.0
 11
38.790131
 21
59.955169
 31
0.0
 12
39.782911
 22
59.749826
 32
0.0
 13
39.782911
 23
59.749826
 33
0.0
  0
LINE
  5
32D
100
AcDbEntity
  8
DIM_TEXT
100
AcDbLine
 10
38.850262
 20
60.11061
 30
0.0
 11
27.99902
 21
64.308282
 31
0.0
  0
LINE
  5
32E
100
AcDbEntity
  8
DIM_TEXT
100
AcDbLine
 10
27.99902
 20
64.308282
 30
0.0
 11
26.40851
 21
64.308282
 31
0.0
  0
SOLID
  5
32F
100
AcDbEntity
  8
DIM_TEXT
100
AcDbTrace
 10
39.744502
 20
50.109106
 30
0.0
 11
39.646159
 21
49.790609
 31
0.0
 12
40.650819
 22
49.654829
 32
0.0
 13
40.650819
 23
49.654829
 33
0.0
  0
LINE
  5
330
100
AcDbEntity
  8
DIM_TEXT
100
AcDbLine
 10
39.69533
 20
49.949857
 30
0.0
 11
28.68616
 21
53.349183
 31
0.0
  0
LINE
  5
331
100
AcDbEntity
  8
DIM_TEXT
100
AcDbLine
 10
28.68616
 20
53.349183
 30
0.0
 11
27.090989
 21
53.349183
 31
0.0
  0
SOLID
  5
332
100
AcDbEntity
  8
DIM_TEXT
100
AcDbTrace
 10
42.180984
 20
41.107792
 30
0.0
 11
42.137637
 21
40.77729
 31
0.0
 12
43.150819
 22
40.8125
 32
0.0
 13
43.150819
 23
40.8125
 33
0.0
  0
LINE
  5
333
100
AcDbEntity
  8
DIM_TEXT
100
AcDbLine
 10
42.15931
 20
40.942541
 30
0.0
 11
20.083631
 21
43.837878
 31
0.0
  0
LINE
  5
334
100
AcDbEntity
  8
DIM_TEXT
100
AcDbLine
 10
20.083631
 20
43.837878
 30
0.0
 11
17.349052
 21
43.837878
 31
0.0
  0
SOLID
  5
335
100
AcDbEntity
  8
DIM_TEXT
100
AcDbTrace
 10
36.749485
 20
31.432999
 30
0.0
 11
36.647692
 21
31.115589
 31
0.0
 12
37.650819
 22
30.968915
 32
0.0
 13
37.650819
 23
30.968915
 33
0.0
  0
LINE
  5
336
100
AcDbEntity
  8
DIM_TEXT
100
AcDbLine
 10
36.698588
 20
31.274294
 30
0.0
 11
23.273973
 21
35.579559
 31
0.0
  0
LINE
  5
337
100
AcDbEntity
  8
DIM_TEXT
100
AcDbLine
 10
23.273973
 20
35.579559
 30
0.0
 11
21.166068
 21
35.579559
 31
0.0
  0
TEXT
  5
344
100
AcDbEntity
  8
DIM_TEXT
100
AcDbText
 10
5.767455
 20
65.30915
 30
0.0
 40
1.125
  1
VERT. REINF.
 51
15.0
  7
INFO
100
AcDbText
  0
TEXT
  5
345
100
AcDbEntity
  8
DIM_TEXT
100
AcDbText
 10
5.549168
 20
62.989889
 30
0.0
 40
1.125
  1
(MIN. #4 @ 30" O.C.
 51
15.0
  7
INFO
100
AcDbText
  0
TEXT
  5
346
100
AcDbEntity
  8
DIM_TEXT
100
AcDbText
 10
5.64355
 20
60.249053
 30
0.0
 40
1.125
  1
REQUIRED, PER DESIGN)
 51
15.0
  7
INFO
100
AcDbText
  0
TEXT
  5
347
100
AcDbEntity
  8
DIM_TEXT
100
AcDbText
 10
5.792419
 20
53.077449
 30
0.0
 40
1.125
  1
HORIZ. REINF.
 51
15.0
  7
INFO
100
AcDbText
  0
TEXT
  5
348
100
AcDbEntity
  8
DIM_TEXT
100
AcDbText
 10
5.541399
 20
50.592299
 30
0.0
 40
1.125
  1
(MIN. #4 @ 30" O.C.
 51
15.0
  7
INFO
100
AcDbText
  0
TEXT
  5
349
100
AcDbEntity
  8
DIM_TEXT
100
AcDbText
 10
5.56585
 20
47.982185
 30
0.0
 40
1.125
  1
REQUIRED, PER DESIGN)
 51
15.0
  7
INFO
100
AcDbText
  0
ENDSEC
  0
SECTION
  2
OBJECTS
  0
DICTIONARY
  5
C
100
AcDbDictionary
  3
ACAD_GROUP
350
D
  3
ACAD_MLINESTYLE
350
1A
  3
ACDBVARIABLEDICTIONARY
350
2C
  0
DICTIONARY
  5
D
102
{ACAD_REACTORS
330
C
102
}
100
AcDbDictionary
  0
DICTIONARY
  5
1A
102
{ACAD_REACTORS
330
C
102
}
100
AcDbDictionary
  3
STANDARD
350
1B
  0
DICTIONARY
  5
2C
102
{ACAD_REACTORS
330
C
102
}
100
AcDbDictionary
  3
DIMADEC
350
2D
  0
MLINESTYLE
  5
1B
102
{ACAD_REACTORS
330
1A
102
}
100
AcDbMlineStyle
  2
STANDARD
 70
     0
  3

 62
   256
 51
90.0
 52
90.0
 71
     2
 49
0.5
 62
   256
  6
BYLAYER
 49
-0.5
 62
   256
  6
BYLAYER
  0
DICTIONARYVAR
  5
2D
102
{ACAD_REACTORS
330
2C
102
}
100
DictionaryVariables
280
     0
  1
0
  0
ENDSEC
  0
EOF
