  0
SECTION
  2
HEADER
  9
$ACADVER
  1
AC1014
  9
$ACADMAINTVER
 70
     8
  9
$DWGCODEPAGE
  3
ANSI_1252
  9
$INSBASE
 10
0.0
 20
0.0
 30
0.0
  9
$EXTMIN
 10
13.150571
 20
5.21143
 30
0.0
  9
$EXTMAX
 10
69.464578
 20
72.537689
 30
0.0
  9
$LIMMIN
 10
0.0
 20
0.0
  9
$LIMMAX
 10
85.0
 20
110.0
  9
$ORTHOMODE
 70
     1
  9
$REGENMODE
 70
     1
  9
$FILLMODE
 70
     1
  9
$QTEXTMODE
 70
     0
  9
$MIRRTEXT
 70
     1
  9
$DRAGMODE
 70
     2
  9
$LTSCALE
 40
3.0
  9
$OSMODE
 70
    37
  9
$ATTMODE
 70
     1
  9
$TEXTSIZE
 40
0.2
  9
$TRACEWID
 40
0.05
  9
$TEXTSTYLE
  7
STANDARD
  9
$CLAYER
  8
0
  9
$CELTYPE
  6
BYLAYER
  9
$CECOLOR
 62
   256
  9
$CELTSCALE
 40
1.0
  9
$DELOBJ
 70
     1
  9
$DISPSILH
 70
     0
  9
$DIMSCALE
 40
1.0
  9
$DIMASZ
 40
1.0
  9
$DIMEXO
 40
0.5
  9
$DIMDLI
 40
1.0
  9
$DIMRND
 40
0.0
  9
$DIMDLE
 40
0.0
  9
$DIMEXE
 40
0.5
  9
$DIMTP
 40
0.0
  9
$DIMTM
 40
0.0
  9
$DIMTXT
 40
1.125
  9
$DIMCEN
 40
0.0625
  9
$DIMTSZ
 40
0.0
  9
$DIMTOL
 70
     0
  9
$DIMLIM
 70
     0
  9
$DIMTIH
 70
     1
  9
$DIMTOH
 70
     1
  9
$DIMSE1
 70
     0
  9
$DIMSE2
 70
     0
  9
$DIMTAD
 70
     0
  9
$DIMZIN
 70
     0
  9
$DIMBLK
  1

  9
$DIMASO
 70
     1
  9
$DIMSHO
 70
     1
  9
$DIMPOST
  1

  9
$DIMAPOST
  1

  9
$DIMALT
 70
     0
  9
$DIMALTD
 70
     2
  9
$DIMALTF
 40
25.4
  9
$DIMLFAC
 40
1.0
  9
$DIMTOFL
 70
     0
  9
$DIMTVP
 40
0.0
  9
$DIMTIX
 70
     0
  9
$DIMSOXD
 70
     0
  9
$DIMSAH
 70
     0
  9
$DIMBLK1
  1

  9
$DIMBLK2
  1

  9
$DIMSTYLE
  2
STANDARD
  9
$DIMCLRD
 70
     0
  9
$DIMCLRE
 70
     0
  9
$DIMCLRT
 70
     0
  9
$DIMTFAC
 40
0.666667
  9
$DIMGAP
 40
0.5
  9
$DIMJUST
 70
     0
  9
$DIMSD1
 70
     0
  9
$DIMSD2
 70
     0
  9
$DIMTOLJ
 70
     1
  9
$DIMTZIN
 70
     0
  9
$DIMALTZ
 70
     0
  9
$DIMALTTZ
 70
     0
  9
$DIMFIT
 70
     5
  9
$DIMUPT
 70
     0
  9
$DIMUNIT
 70
     4
  9
$DIMDEC
 70
     4
  9
$DIMTDEC
 70
     4
  9
$DIMALTU
 70
     4
  9
$DIMALTTD
 70
     2
  9
$DIMTXSTY
  7
STANDARD
  9
$DIMAUNIT
 70
     2
  9
$LUNITS
 70
     4
  9
$LUPREC
 70
     4
  9
$SKETCHINC
 40
0.1
  9
$FILLETRAD
 40
1.0
  9
$AUNITS
 70
     2
  9
$AUPREC
 70
     0
  9
$MENU
  1
acad
  9
$ELEVATION
 40
0.0
  9
$PELEVATION
 40
0.0
  9
$THICKNESS
 40
0.0
  9
$LIMCHECK
 70
     0
  9
$BLIPMODE
 70
     1
  9
$CHAMFERA
 40
0.0
  9
$CHAMFERB
 40
0.0
  9
$CHAMFERC
 40
0.0
  9
$CHAMFERD
 40
0.0
  9
$SKPOLY
 70
     0
  9
$TDCREATE
 40
2451171.730657176
  9
$TDUPDATE
 40
2452248.728292245
  9
$TDINDWG
 40
0.0397050926
  9
$TDUSRTIMER
 40
0.0397050926
  9
$USRTIMER
 70
     1
  9
$ANGBASE
 50
0.0
  9
$ANGDIR
 70
     0
  9
$PDMODE
 70
     0
  9
$PDSIZE
 40
0.0
  9
$PLINEWID
 40
0.0
  9
$COORDS
 70
     1
  9
$SPLFRAME
 70
     0
  9
$SPLINETYPE
 70
     6
  9
$SPLINESEGS
 70
     8
  9
$ATTDIA
 70
     0
  9
$ATTREQ
 70
     1
  9
$HANDLING
 70
     1
  9
$HANDSEED
  5
42D7
  9
$SURFTAB1
 70
     6
  9
$SURFTAB2
 70
     6
  9
$SURFTYPE
 70
     6
  9
$SURFU
 70
     6
  9
$SURFV
 70
     6
  9
$UCSNAME
  2

  9
$UCSORG
 10
0.0
 20
0.0
 30
0.0
  9
$UCSXDIR
 10
1.0
 20
0.0
 30
0.0
  9
$UCSYDIR
 10
0.0
 20
1.0
 30
0.0
  9
$PUCSNAME
  2

  9
$PUCSORG
 10
0.0
 20
0.0
 30
0.0
  9
$PUCSXDIR
 10
1.0
 20
0.0
 30
0.0
  9
$PUCSYDIR
 10
0.0
 20
1.0
 30
0.0
  9
$USERI1
 70
     0
  9
$USERI2
 70
     0
  9
$USERI3
 70
     0
  9
$USERI4
 70
     0
  9
$USERI5
 70
     0
  9
$USERR1
 40
0.0
  9
$USERR2
 40
0.0
  9
$USERR3
 40
0.0
  9
$USERR4
 40
0.0
  9
$USERR5
 40
0.0
  9
$WORLDVIEW
 70
     1
  9
$SHADEDGE
 70
     3
  9
$SHADEDIF
 70
    70
  9
$TILEMODE
 70
     1
  9
$MAXACTVP
 70
    16
  9
$PINSBASE
 10
0.0
 20
0.0
 30
0.0
  9
$PLIMCHECK
 70
     0
  9
$PEXTMIN
 10
1.000000E+20
 20
1.000000E+20
 30
1.000000E+20
  9
$PEXTMAX
 10
-1.000000E+20
 20
-1.000000E+20
 30
-1.000000E+20
  9
$PLIMMIN
 10
0.0
 20
0.0
  9
$PLIMMAX
 10
12.0
 20
9.0
  9
$UNITMODE
 70
     0
  9
$VISRETAIN
 70
     0
  9
$PLINEGEN
 70
     0
  9
$PSLTSCALE
 70
     1
  9
$TREEDEPTH
 70
  3020
  9
$PICKSTYLE
 70
     1
  9
$CMLSTYLE
  2
STANDARD
  9
$CMLJUST
 70
     0
  9
$CMLSCALE
 40
1.0
  9
$PROXYGRAPHICS
 70
     1
  9
$MEASUREMENT
 70
     0
  0
ENDSEC
  0
SECTION
  2
CLASSES
  0
CLASS
  1
DICTIONARYVAR
  2
AcDbDictionaryVar
  3
"AutoCAD"
 90
        0
280
     0
281
     0
  0
CLASS
  1
LWPOLYLINE
  2
AcDbPolyline
  3
"AutoCAD"
 90
        0
280
     0
281
     1
  0
ENDSEC
  0
SECTION
  2
TABLES
  0
TABLE
  2
VPORT
  5
42A5
100
AcDbSymbolTable
 70
     1
  0
VPORT
  5
42D1
100
AcDbSymbolTableRecord
100
AcDbViewportTableRecord
  2
*ACTIVE
 70
     0
 10
0.0
 20
0.0
 11
1.0
 21
1.0
 12
49.673277
 22
41.066667
 13
0.0
 23
0.0
 14
1.0
 24
1.0
 15
1.0
 25
1.0
 16
0.0
 26
0.0
 36
1.0
 17
0.0
 27
0.0
 37
0.0
 40
77.488889
 41
1.474388
 42
50.0
 43
0.0
 44
0.0
 50
0.0
 51
0.0
 71
     0
 72
   100
 73
     1
 74
     1
 75
     0
 76
     0
 77
     0
 78
     0
  0
ENDTAB
  0
TABLE
  2
LTYPE
  5
42A2
100
AcDbSymbolTable
 70
     2
  0
LTYPE
  5
42AE
100
AcDbSymbolTableRecord
100
AcDbLinetypeTableRecord
  2
BYBLOCK
 70
     0
  3

 72
    65
 73
     0
 40
0.0
  0
LTYPE
  5
42AF
100
AcDbSymbolTableRecord
100
AcDbLinetypeTableRecord
  2
BYLAYER
 70
     0
  3

 72
    65
 73
     0
 40
0.0
  0
LTYPE
  5
42B0
100
AcDbSymbolTableRecord
100
AcDbLinetypeTableRecord
  2
CONTINUOUS
 70
     0
  3
Solid line
 72
    65
 73
     0
 40
0.0
  0
LTYPE
  5
42BD
100
AcDbSymbolTableRecord
100
AcDbLinetypeTableRecord
  2
HIDDEN
 70
     0
  3
__ __ __ __ __ __ __ __ __ __ __ __ __ __ __ __
 72
    65
 73
     2
 40
0.375
 49
0.25
 74
     0
 49
-0.125
 74
     0
  0
ENDTAB
  0
TABLE
  2
LAYER
  5
429F
100
AcDbSymbolTable
 70
     5
  0
LAYER
  5
42AB
100
AcDbSymbolTableRecord
100
AcDbLayerTableRecord
  2
0
 70
     0
 62
     7
  6
CONTINUOUS
  0
LAYER
  5
42C2
100
AcDbSymbolTableRecord
100
AcDbLayerTableRecord
  2
DRAWING
 70
     0
 62
     7
  6
CONTINUOUS
  0
LAYER
  5
42C3
100
AcDbSymbolTableRecord
100
AcDbLayerTableRecord
  2
HATCH
 70
     0
 62
     3
  6
CONTINUOUS
  0
LAYER
  5
42C4
100
AcDbSymbolTableRecord
100
AcDbLayerTableRecord
  2
DIM_TEXT
 70
     0
 62
     6
  6
CONTINUOUS
  0
LAYER
  5
42C5
100
AcDbSymbolTableRecord
100
AcDbLayerTableRecord
  2
HIDDEN
 70
     0
 62
     4
  6
HIDDEN
  0
ENDTAB
  0
TABLE
  2
STYLE
  5
42A0
100
AcDbSymbolTable
 70
     3
  0
STYLE
  5
42AC
100
AcDbSymbolTableRecord
100
AcDbTextStyleTableRecord
  2
STANDARD
 70
     0
 40
0.0
 41
1.0
 50
0.0
 71
     0
 42
0.2
  3
txt
  4

  0
STYLE
  5
42BB
100
AcDbSymbolTableRecord
100
AcDbTextStyleTableRecord
  2
INFO
 70
     0
 40
0.0
 41
1.0
 50
15.0
 71
     0
 42
1.08
  3
C:\ACADWIN\FONTS\ROMANS.SHX
  4

  0
STYLE
  5
42BC
100
AcDbSymbolTableRecord
100
AcDbTextStyleTableRecord
  2
TITLE
 70
     0
 40
0.0
 41
1.0
 50
0.0
 71
     0
 42
2.8
  3
C:\ACADWIN\FONTS\ROMANC.SHX
  4

  0
ENDTAB
  0
TABLE
  2
VIEW
  5
42A3
100
AcDbSymbolTable
 70
     0
  0
ENDTAB
  0
TABLE
  2
UCS
  5
42A4
100
AcDbSymbolTable
 70
     0
  0
ENDTAB
  0
TABLE
  2
APPID
  5
42A6
100
AcDbSymbolTable
 70
     2
  0
APPID
  5
42AD
100
AcDbSymbolTableRecord
100
AcDbRegAppTableRecord
  2
ACAD
 70
     0
  0
APPID
  5
42C1
100
AcDbSymbolTableRecord
100
AcDbRegAppTableRecord
  2
ZIMM
 70
     0
  0
ENDTAB
  0
TABLE
  2
DIMSTYLE
  5
42A7
100
AcDbSymbolTable
 70
     1
  0
DIMSTYLE
105
42CE
100
AcDbSymbolTableRecord
100
AcDbDimStyleTableRecord
  2
STANDARD
 70
     0
  3

  4

  5

  6

  7

 40
1.0
 41
0.18
 42
0.0625
 43
0.38
 44
0.18
 45
0.0
 46
0.0
 47
0.0
 48
0.0
140
0.18
141
0.09
142
0.0
143
25.4
144
1.0
145
0.0
146
1.0
147
0.09
 71
     0
 72
     0
 73
     1
 74
     1
 75
     0
 76
     0
 77
     0
 78
     0
170
     0
171
     2
172
     0
173
     0
174
     0
175
     0
176
     0
177
     0
178
     0
270
     2
271
     4
272
     4
273
     2
274
     2
340
42AC
275
     0
280
     0
281
     0
282
     0
283
     1
284
     0
285
     0
286
     0
287
     3
288
     0
  0
ENDTAB
  0
TABLE
  2
BLOCK_RECORD
  5
429E
100
AcDbSymbolTable
 70
     2
  0
BLOCK_RECORD
  5
42B4
100
AcDbSymbolTableRecord
100
AcDbBlockTableRecord
  2
*MODEL_SPACE
  0
BLOCK_RECORD
  5
42B1
100
AcDbSymbolTableRecord
100
AcDbBlockTableRecord
  2
*PAPER_SPACE
  0
BLOCK_RECORD
  5
42B9
100
AcDbSymbolTableRecord
100
AcDbBlockTableRecord
  2
*X0
  0
BLOCK_RECORD
  5
42BA
100
AcDbSymbolTableRecord
100
AcDbBlockTableRecord
  2
*X1
  0
ENDTAB
  0
ENDSEC
  0
SECTION
  2
BLOCKS
  0
BLOCK
  5
42C8
100
AcDbEntity
  8
0
100
AcDbBlockBegin
  2
*MODEL_SPACE
 70
     0
 10
0.0
 20
0.0
 30
0.0
  3
*MODEL_SPACE
  1

  0
ENDBLK
  5
42C9
100
AcDbEntity
  8
0
100
AcDbBlockEnd
  0
BLOCK
  5
42C6
100
AcDbEntity
 67
     1
  8
0
100
AcDbBlockBegin
  2
*PAPER_SPACE
 70
     0
 10
0.0
 20
0.0
 30
0.0
  3
*PAPER_SPACE
  1

  0
ENDBLK
  5
42C7
100
AcDbEntity
 67
     1
  8
0
100
AcDbBlockEnd
  0
BLOCK
  5
3F82
100
AcDbEntity
  8
0
100
AcDbBlockBegin
  2
*X0
 70
     1
 10
0.0
 20
0.0
 30
0.0
  3
*X0
  1

  0
LINE
  5
3F84
100
AcDbEntity
  8
0
 62
     0
100
AcDbLine
 10
34.701004
 20
29.397703
 30
0.0
 11
37.678301
 21
32.375
 31
0.0
  0
LINE
  5
3F85
100
AcDbEntity
  8
0
 62
     0
100
AcDbLine
 10
43.701004
 20
38.397703
 30
0.0
 11
46.701004
 21
41.397703
 31
0.0
  0
LINE
  5
3F86
100
AcDbEntity
  8
0
 62
     0
100
AcDbLine
 10
34.701004
 20
31.16547
 30
0.0
 11
35.910534
 21
32.375
 31
0.0
  0
LINE
  5
3F87
100
AcDbEntity
  8
0
 62
     0
100
AcDbLine
 10
43.701004
 20
40.16547
 30
0.0
 11
46.701004
 21
43.16547
 31
0.0
  0
LINE
  5
3F88
100
AcDbEntity
  8
0
 62
     0
100
AcDbLine
 10
43.701004
 20
41.933237
 30
0.0
 11
46.701004
 21
44.933237
 31
0.0
  0
LINE
  5
3F89
100
AcDbEntity
  8
0
 62
     0
100
AcDbLine
 10
43.701004
 20
43.701004
 30
0.0
 11
46.701004
 21
46.701004
 31
0.0
  0
LINE
  5
3F8A
100
AcDbEntity
  8
0
 62
     0
100
AcDbLine
 10
36.607233
 20
38.375
 30
0.0
 11
37.701004
 21
39.468771
 31
0.0
  0
LINE
  5
3F8B
100
AcDbEntity
  8
0
 62
     0
100
AcDbLine
 10
43.701004
 20
45.468771
 30
0.0
 11
46.701004
 21
48.468771
 31
0.0
  0
LINE
  5
3F8C
100
AcDbEntity
  8
0
 62
     0
100
AcDbLine
 10
34.839466
 20
38.375
 30
0.0
 11
37.701004
 21
41.236538
 31
0.0
  0
LINE
  5
3F8D
100
AcDbEntity
  8
0
 62
     0
100
AcDbLine
 10
43.701004
 20
47.236538
 30
0.0
 11
45.776966
 21
49.3125
 31
0.0
  0
LINE
  5
3F8E
100
AcDbEntity
  8
0
 62
     0
100
AcDbLine
 10
34.701004
 20
40.004305
 30
0.0
 11
37.701004
 21
43.004305
 31
0.0
  0
LINE
  5
3F8F
100
AcDbEntity
  8
0
 62
     0
100
AcDbLine
 10
43.701004
 20
49.004305
 30
0.0
 11
44.009199
 21
49.3125
 31
0.0
  0
LINE
  5
3F90
100
AcDbEntity
  8
0
 62
     0
100
AcDbLine
 10
34.701004
 20
41.772072
 30
0.0
 11
37.701004
 21
44.772072
 31
0.0
  0
LINE
  5
3F91
100
AcDbEntity
  8
0
 62
     0
100
AcDbLine
 10
34.701004
 20
43.539838
 30
0.0
 11
37.701004
 21
46.539838
 31
0.0
  0
LINE
  5
3F92
100
AcDbEntity
  8
0
 62
     0
100
AcDbLine
 10
34.701004
 20
45.307605
 30
0.0
 11
37.701004
 21
48.307605
 31
0.0
  0
LINE
  5
3F93
100
AcDbEntity
  8
0
 62
     0
100
AcDbLine
 10
34.701004
 20
47.075372
 30
0.0
 11
36.938131
 21
49.3125
 31
0.0
  0
LINE
  5
3F94
100
AcDbEntity
  8
0
 62
     0
100
AcDbLine
 10
34.701004
 20
48.843139
 30
0.0
 11
35.170364
 21
49.3125
 31
0.0
  0
LINE
  5
3F95
100
AcDbEntity
  8
0
 62
     0
100
AcDbLine
 10
34.701004
 20
27.629936
 30
0.0
 11
37.701004
 21
30.629936
 31
0.0
  0
LINE
  5
3F96
100
AcDbEntity
  8
0
 62
     0
100
AcDbLine
 10
43.701004
 20
36.629936
 30
0.0
 11
46.701004
 21
39.629936
 31
0.0
  0
LINE
  5
3F97
100
AcDbEntity
  8
0
 62
     0
100
AcDbLine
 10
34.701004
 20
25.862169
 30
0.0
 11
37.701004
 21
28.862169
 31
0.0
  0
LINE
  5
3F98
100
AcDbEntity
  8
0
 62
     0
100
AcDbLine
 10
43.701004
 20
34.862169
 30
0.0
 11
46.701004
 21
37.862169
 31
0.0
  0
LINE
  5
3F99
100
AcDbEntity
  8
0
 62
     0
100
AcDbLine
 10
34.701004
 20
24.094402
 30
0.0
 11
37.701004
 21
27.094402
 31
0.0
  0
LINE
  5
3F9A
100
AcDbEntity
  8
0
 62
     0
100
AcDbLine
 10
43.701004
 20
33.094402
 30
0.0
 11
46.701004
 21
36.094402
 31
0.0
  0
LINE
  5
3F9B
100
AcDbEntity
  8
0
 62
     0
100
AcDbLine
 10
34.701004
 20
22.326635
 30
0.0
 11
37.701004
 21
25.326635
 31
0.0
  0
LINE
  5
3F9C
100
AcDbEntity
  8
0
 62
     0
100
AcDbLine
 10
43.701004
 20
31.326635
 30
0.0
 11
46.701004
 21
34.326635
 31
0.0
  0
LINE
  5
3F9D
100
AcDbEntity
  8
0
 62
     0
100
AcDbLine
 10
35.579636
 20
21.4375
 30
0.0
 11
37.701004
 21
23.558868
 31
0.0
  0
LINE
  5
3F9E
100
AcDbEntity
  8
0
 62
     0
100
AcDbLine
 10
43.701004
 20
29.558868
 30
0.0
 11
46.701004
 21
32.558868
 31
0.0
  0
LINE
  5
3F9F
100
AcDbEntity
  8
0
 62
     0
100
AcDbLine
 10
37.347403
 20
21.4375
 30
0.0
 11
37.701004
 21
21.791101
 31
0.0
  0
LINE
  5
3FA0
100
AcDbEntity
  8
0
 62
     0
100
AcDbLine
 10
43.701004
 20
27.791101
 30
0.0
 11
46.701004
 21
30.791101
 31
0.0
  0
LINE
  5
3FA1
100
AcDbEntity
  8
0
 62
     0
100
AcDbLine
 10
43.701004
 20
26.023334
 30
0.0
 11
46.701004
 21
29.023334
 31
0.0
  0
LINE
  5
3FA2
100
AcDbEntity
  8
0
 62
     0
100
AcDbLine
 10
43.701004
 20
24.255567
 30
0.0
 11
46.701004
 21
27.255567
 31
0.0
  0
LINE
  5
3FA3
100
AcDbEntity
  8
0
 62
     0
100
AcDbLine
 10
43.701004
 20
22.4878
 30
0.0
 11
46.701004
 21
25.4878
 31
0.0
  0
LINE
  5
3FA4
100
AcDbEntity
  8
0
 62
     0
100
AcDbLine
 10
44.41847
 20
21.4375
 30
0.0
 11
46.701004
 21
23.720033
 31
0.0
  0
LINE
  5
3FA5
100
AcDbEntity
  8
0
 62
     0
100
AcDbLine
 10
46.186237
 20
21.4375
 30
0.0
 11
46.701004
 21
21.952266
 31
0.0
  0
LINE
  5
3FA6
100
AcDbEntity
  8
0
 62
     0
100
AcDbLine
 10
34.701004
 20
30.281586
 30
0.0
 11
34.913397
 21
30.49398
 31
0.0
  0
LINE
  5
3FA7
100
AcDbEntity
  8
0
 62
     0
100
AcDbLine
 10
35.134368
 20
30.714951
 30
0.0
 11
35.57631
 21
31.156893
 31
0.0
  0
LINE
  5
3FA8
100
AcDbEntity
  8
0
 62
     0
100
AcDbLine
 10
35.797281
 20
31.377863
 30
0.0
 11
36.239223
 21
31.819805
 31
0.0
  0
LINE
  5
3FA9
100
AcDbEntity
  8
0
 62
     0
100
AcDbLine
 10
36.460193
 20
32.040776
 30
0.0
 11
36.794417
 21
32.375
 31
0.0
  0
LINE
  5
3FAA
100
AcDbEntity
  8
0
 62
     0
100
AcDbLine
 10
43.752232
 20
39.332815
 30
0.0
 11
44.194174
 21
39.774756
 31
0.0
  0
LINE
  5
3FAB
100
AcDbEntity
  8
0
 62
     0
100
AcDbLine
 10
44.415145
 20
39.995727
 30
0.0
 11
44.857086
 21
40.437669
 31
0.0
  0
LINE
  5
3FAC
100
AcDbEntity
  8
0
 62
     0
100
AcDbLine
 10
45.078057
 20
40.65864
 30
0.0
 11
45.519999
 21
41.100582
 31
0.0
  0
LINE
  5
3FAD
100
AcDbEntity
  8
0
 62
     0
100
AcDbLine
 10
45.74097
 20
41.321553
 30
0.0
 11
46.182912
 21
41.763494
 31
0.0
  0
LINE
  5
3FAE
100
AcDbEntity
  8
0
 62
     0
100
AcDbLine
 10
46.403883
 20
41.984465
 30
0.0
 11
46.701004
 21
42.281586
 31
0.0
  0
LINE
  5
3FAF
100
AcDbEntity
  8
0
 62
     0
100
AcDbLine
 10
34.913397
 20
32.261747
 30
0.0
 11
35.02665
 21
32.375
 31
0.0
  0
LINE
  5
3FB0
100
AcDbEntity
  8
0
 62
     0
100
AcDbLine
 10
43.701004
 20
41.049353
 30
0.0
 11
43.973203
 21
41.321553
 31
0.0
  0
LINE
  5
3FB1
100
AcDbEntity
  8
0
 62
     0
100
AcDbLine
 10
44.194174
 20
41.542523
 30
0.0
 11
44.636116
 21
41.984465
 31
0.0
  0
LINE
  5
3FB2
100
AcDbEntity
  8
0
 62
     0
100
AcDbLine
 10
44.857086
 20
42.205436
 30
0.0
 11
45.299028
 21
42.647378
 31
0.0
  0
LINE
  5
3FB3
100
AcDbEntity
  8
0
 62
     0
100
AcDbLine
 10
45.519999
 20
42.868349
 30
0.0
 11
45.961941
 21
43.31029
 31
0.0
  0
LINE
  5
3FB4
100
AcDbEntity
  8
0
 62
     0
100
AcDbLine
 10
46.182912
 20
43.531261
 30
0.0
 11
46.624853
 21
43.973203
 31
0.0
  0
LINE
  5
3FB5
100
AcDbEntity
  8
0
 62
     0
100
AcDbLine
 10
43.701004
 20
42.81712
 30
0.0
 11
43.752232
 21
42.868349
 31
0.0
  0
LINE
  5
3FB6
100
AcDbEntity
  8
0
 62
     0
100
AcDbLine
 10
43.973203
 20
43.089319
 30
0.0
 11
44.415145
 21
43.531261
 31
0.0
  0
LINE
  5
3FB7
100
AcDbEntity
  8
0
 62
     0
100
AcDbLine
 10
44.636116
 20
43.752232
 30
0.0
 11
45.078057
 21
44.194174
 31
0.0
  0
LINE
  5
3FB8
100
AcDbEntity
  8
0
 62
     0
100
AcDbLine
 10
45.299028
 20
44.415145
 30
0.0
 11
45.74097
 21
44.857086
 31
0.0
  0
LINE
  5
3FB9
100
AcDbEntity
  8
0
 62
     0
100
AcDbLine
 10
45.961941
 20
45.078057
 30
0.0
 11
46.403883
 21
45.519999
 31
0.0
  0
LINE
  5
3FBA
100
AcDbEntity
  8
0
 62
     0
100
AcDbLine
 10
46.624853
 20
45.74097
 30
0.0
 11
46.701004
 21
45.81712
 31
0.0
  0
LINE
  5
3FBB
100
AcDbEntity
  8
0
 62
     0
100
AcDbLine
 10
37.491116
 20
38.375
 30
0.0
 11
37.565048
 21
38.448931
 31
0.0
  0
LINE
  5
3FBC
100
AcDbEntity
  8
0
 62
     0
100
AcDbLine
 10
43.752232
 20
44.636116
 30
0.0
 11
44.194174
 21
45.078057
 31
0.0
  0
LINE
  5
3FBD
100
AcDbEntity
  8
0
 62
     0
100
AcDbLine
 10
44.415145
 20
45.299028
 30
0.0
 11
44.857086
 21
45.74097
 31
0.0
  0
LINE
  5
3FBE
100
AcDbEntity
  8
0
 62
     0
100
AcDbLine
 10
45.078057
 20
45.961941
 30
0.0
 11
45.519999
 21
46.403883
 31
0.0
  0
LINE
  5
3FBF
100
AcDbEntity
  8
0
 62
     0
100
AcDbLine
 10
45.74097
 20
46.624853
 30
0.0
 11
46.182912
 21
47.066795
 31
0.0
  0
LINE
  5
3FC0
100
AcDbEntity
  8
0
 62
     0
100
AcDbLine
 10
46.403883
 20
47.287766
 30
0.0
 11
46.701004
 21
47.584887
 31
0.0
  0
LINE
  5
3FC1
100
AcDbEntity
  8
0
 62
     0
100
AcDbLine
 10
35.723349
 20
38.375
 30
0.0
 11
36.018252
 21
38.669902
 31
0.0
  0
LINE
  5
3FC2
100
AcDbEntity
  8
0
 62
     0
100
AcDbLine
 10
36.239223
 20
38.890873
 30
0.0
 11
36.681164
 21
39.332815
 31
0.0
  0
LINE
  5
3FC3
100
AcDbEntity
  8
0
 62
     0
100
AcDbLine
 10
36.902135
 20
39.553786
 30
0.0
 11
37.344077
 21
39.995727
 31
0.0
  0
LINE
  5
3FC4
100
AcDbEntity
  8
0
 62
     0
100
AcDbLine
 10
37.565048
 20
40.216698
 30
0.0
 11
37.701004
 21
40.352654
 31
0.0
  0
LINE
  5
3FC5
100
AcDbEntity
  8
0
 62
     0
100
AcDbLine
 10
43.701004
 20
46.352654
 30
0.0
 11
43.973203
 21
46.624853
 31
0.0
  0
LINE
  5
3FC6
100
AcDbEntity
  8
0
 62
     0
100
AcDbLine
 10
44.194174
 20
46.845824
 30
0.0
 11
44.636116
 21
47.287766
 31
0.0
  0
LINE
  5
3FC7
100
AcDbEntity
  8
0
 62
     0
100
AcDbLine
 10
44.857086
 20
47.508737
 30
0.0
 11
45.299028
 21
47.950679
 31
0.0
  0
LINE
  5
3FC8
100
AcDbEntity
  8
0
 62
     0
100
AcDbLine
 10
45.519999
 20
48.171649
 30
0.0
 11
45.961941
 21
48.613591
 31
0.0
  0
LINE
  5
3FC9
100
AcDbEntity
  8
0
 62
     0
100
AcDbLine
 10
46.182912
 20
48.834562
 30
0.0
 11
46.624853
 21
49.276504
 31
0.0
  0
LINE
  5
3FCA
100
AcDbEntity
  8
0
 62
     0
100
AcDbLine
 10
34.701004
 20
39.120421
 30
0.0
 11
35.134368
 21
39.553786
 31
0.0
  0
LINE
  5
3FCB
100
AcDbEntity
  8
0
 62
     0
100
AcDbLine
 10
35.355339
 20
39.774756
 30
0.0
 11
35.797281
 21
40.216698
 31
0.0
  0
LINE
  5
3FCC
100
AcDbEntity
  8
0
 62
     0
100
AcDbLine
 10
36.018252
 20
40.437669
 30
0.0
 11
36.460193
 21
40.879611
 31
0.0
  0
LINE
  5
3FCD
100
AcDbEntity
  8
0
 62
     0
100
AcDbLine
 10
36.681164
 20
41.100582
 30
0.0
 11
37.123106
 21
41.542523
 31
0.0
  0
LINE
  5
3FCE
100
AcDbEntity
  8
0
 62
     0
100
AcDbLine
 10
37.344077
 20
41.763494
 30
0.0
 11
37.701004
 21
42.120421
 31
0.0
  0
LINE
  5
3FCF
100
AcDbEntity
  8
0
 62
     0
100
AcDbLine
 10
43.701004
 20
48.120421
 30
0.0
 11
43.752232
 21
48.171649
 31
0.0
  0
LINE
  5
3FD0
100
AcDbEntity
  8
0
 62
     0
100
AcDbLine
 10
43.973203
 20
48.39262
 30
0.0
 11
44.415145
 21
48.834562
 31
0.0
  0
LINE
  5
3FD1
100
AcDbEntity
  8
0
 62
     0
100
AcDbLine
 10
44.636116
 20
49.055533
 30
0.0
 11
44.893083
 21
49.3125
 31
0.0
  0
LINE
  5
3FD2
100
AcDbEntity
  8
0
 62
     0
100
AcDbLine
 10
34.701004
 20
40.888188
 30
0.0
 11
34.913397
 21
41.100582
 31
0.0
  0
LINE
  5
3FD3
100
AcDbEntity
  8
0
 62
     0
100
AcDbLine
 10
35.134368
 20
41.321553
 30
0.0
 11
35.57631
 21
41.763494
 31
0.0
  0
LINE
  5
3FD4
100
AcDbEntity
  8
0
 62
     0
100
AcDbLine
 10
35.797281
 20
41.984465
 30
0.0
 11
36.239223
 21
42.426407
 31
0.0
  0
LINE
  5
3FD5
100
AcDbEntity
  8
0
 62
     0
100
AcDbLine
 10
36.460193
 20
42.647378
 30
0.0
 11
36.902135
 21
43.089319
 31
0.0
  0
LINE
  5
3FD6
100
AcDbEntity
  8
0
 62
     0
100
AcDbLine
 10
37.123106
 20
43.31029
 30
0.0
 11
37.565048
 21
43.752232
 31
0.0
  0
LINE
  5
3FD7
100
AcDbEntity
  8
0
 62
     0
100
AcDbLine
 10
34.913397
 20
42.868349
 30
0.0
 11
35.355339
 21
43.31029
 31
0.0
  0
LINE
  5
3FD8
100
AcDbEntity
  8
0
 62
     0
100
AcDbLine
 10
35.57631
 20
43.531261
 30
0.0
 11
36.018252
 21
43.973203
 31
0.0
  0
LINE
  5
3FD9
100
AcDbEntity
  8
0
 62
     0
100
AcDbLine
 10
36.239223
 20
44.194174
 30
0.0
 11
36.681164
 21
44.636116
 31
0.0
  0
LINE
  5
3FDA
100
AcDbEntity
  8
0
 62
     0
100
AcDbLine
 10
36.902135
 20
44.857086
 30
0.0
 11
37.344077
 21
45.299028
 31
0.0
  0
LINE
  5
3FDB
100
AcDbEntity
  8
0
 62
     0
100
AcDbLine
 10
37.565048
 20
45.519999
 30
0.0
 11
37.701004
 21
45.655955
 31
0.0
  0
LINE
  5
3FDC
100
AcDbEntity
  8
0
 62
     0
100
AcDbLine
 10
34.701004
 20
44.423722
 30
0.0
 11
35.134368
 21
44.857086
 31
0.0
  0
LINE
  5
3FDD
100
AcDbEntity
  8
0
 62
     0
100
AcDbLine
 10
35.355339
 20
45.078057
 30
0.0
 11
35.797281
 21
45.519999
 31
0.0
  0
LINE
  5
3FDE
100
AcDbEntity
  8
0
 62
     0
100
AcDbLine
 10
36.018252
 20
45.74097
 30
0.0
 11
36.460193
 21
46.182912
 31
0.0
  0
LINE
  5
3FDF
100
AcDbEntity
  8
0
 62
     0
100
AcDbLine
 10
36.681164
 20
46.403883
 30
0.0
 11
37.123106
 21
46.845824
 31
0.0
  0
LINE
  5
3FE0
100
AcDbEntity
  8
0
 62
     0
100
AcDbLine
 10
37.344077
 20
47.066795
 30
0.0
 11
37.701004
 21
47.423722
 31
0.0
  0
LINE
  5
3FE1
100
AcDbEntity
  8
0
 62
     0
100
AcDbLine
 10
34.701004
 20
46.191489
 30
0.0
 11
34.913397
 21
46.403883
 31
0.0
  0
LINE
  5
3FE2
100
AcDbEntity
  8
0
 62
     0
100
AcDbLine
 10
35.134368
 20
46.624853
 30
0.0
 11
35.57631
 21
47.066795
 31
0.0
  0
LINE
  5
3FE3
100
AcDbEntity
  8
0
 62
     0
100
AcDbLine
 10
35.797281
 20
47.287766
 30
0.0
 11
36.239223
 21
47.729708
 31
0.0
  0
LINE
  5
3FE4
100
AcDbEntity
  8
0
 62
     0
100
AcDbLine
 10
36.460193
 20
47.950679
 30
0.0
 11
36.902135
 21
48.39262
 31
0.0
  0
LINE
  5
3FE5
100
AcDbEntity
  8
0
 62
     0
100
AcDbLine
 10
37.123106
 20
48.613591
 30
0.0
 11
37.565048
 21
49.055533
 31
0.0
  0
LINE
  5
3FE6
100
AcDbEntity
  8
0
 62
     0
100
AcDbLine
 10
34.913397
 20
48.171649
 30
0.0
 11
35.355339
 21
48.613591
 31
0.0
  0
LINE
  5
3FE7
100
AcDbEntity
  8
0
 62
     0
100
AcDbLine
 10
35.57631
 20
48.834562
 30
0.0
 11
36.018252
 21
49.276504
 31
0.0
  0
LINE
  5
3FE8
100
AcDbEntity
  8
0
 62
     0
100
AcDbLine
 10
34.701004
 20
28.513819
 30
0.0
 11
35.134368
 21
28.947184
 31
0.0
  0
LINE
  5
3FE9
100
AcDbEntity
  8
0
 62
     0
100
AcDbLine
 10
35.355339
 20
29.168155
 30
0.0
 11
35.797281
 21
29.610096
 31
0.0
  0
LINE
  5
3FEA
100
AcDbEntity
  8
0
 62
     0
100
AcDbLine
 10
36.018252
 20
29.831067
 30
0.0
 11
36.460193
 21
30.273009
 31
0.0
  0
LINE
  5
3FEB
100
AcDbEntity
  8
0
 62
     0
100
AcDbLine
 10
36.681164
 20
30.49398
 30
0.0
 11
37.123106
 21
30.935922
 31
0.0
  0
LINE
  5
3FEC
100
AcDbEntity
  8
0
 62
     0
100
AcDbLine
 10
37.344077
 20
31.156893
 30
0.0
 11
37.701004
 21
31.513819
 31
0.0
  0
LINE
  5
3FED
100
AcDbEntity
  8
0
 62
     0
100
AcDbLine
 10
43.701004
 20
37.513819
 30
0.0
 11
43.752232
 21
37.565048
 31
0.0
  0
LINE
  5
3FEE
100
AcDbEntity
  8
0
 62
     0
100
AcDbLine
 10
43.973203
 20
37.786019
 30
0.0
 11
44.415145
 21
38.22796
 31
0.0
  0
LINE
  5
3FEF
100
AcDbEntity
  8
0
 62
     0
100
AcDbLine
 10
44.636116
 20
38.448931
 30
0.0
 11
45.078057
 21
38.890873
 31
0.0
  0
LINE
  5
3FF0
100
AcDbEntity
  8
0
 62
     0
100
AcDbLine
 10
45.299028
 20
39.111844
 30
0.0
 11
45.74097
 21
39.553786
 31
0.0
  0
LINE
  5
3FF1
100
AcDbEntity
  8
0
 62
     0
100
AcDbLine
 10
45.961941
 20
39.774756
 30
0.0
 11
46.403883
 21
40.216698
 31
0.0
  0
LINE
  5
3FF2
100
AcDbEntity
  8
0
 62
     0
100
AcDbLine
 10
46.624853
 20
40.437669
 30
0.0
 11
46.701004
 21
40.513819
 31
0.0
  0
LINE
  5
3FF3
100
AcDbEntity
  8
0
 62
     0
100
AcDbLine
 10
34.913397
 20
26.958446
 30
0.0
 11
35.355339
 21
27.400388
 31
0.0
  0
LINE
  5
3FF4
100
AcDbEntity
  8
0
 62
     0
100
AcDbLine
 10
35.57631
 20
27.621359
 30
0.0
 11
36.018252
 21
28.0633
 31
0.0
  0
LINE
  5
3FF5
100
AcDbEntity
  8
0
 62
     0
100
AcDbLine
 10
36.239223
 20
28.284271
 30
0.0
 11
36.681164
 21
28.726213
 31
0.0
  0
LINE
  5
3FF6
100
AcDbEntity
  8
0
 62
     0
100
AcDbLine
 10
36.902135
 20
28.947184
 30
0.0
 11
37.344077
 21
29.389126
 31
0.0
  0
LINE
  5
3FF7
100
AcDbEntity
  8
0
 62
     0
100
AcDbLine
 10
37.565048
 20
29.610096
 30
0.0
 11
37.701004
 21
29.746052
 31
0.0
  0
LINE
  5
3FF8
100
AcDbEntity
  8
0
 62
     0
100
AcDbLine
 10
43.701004
 20
35.746052
 30
0.0
 11
43.973203
 21
36.018252
 31
0.0
  0
LINE
  5
3FF9
100
AcDbEntity
  8
0
 62
     0
100
AcDbLine
 10
44.194174
 20
36.239223
 30
0.0
 11
44.636116
 21
36.681164
 31
0.0
  0
LINE
  5
3FFA
100
AcDbEntity
  8
0
 62
     0
100
AcDbLine
 10
44.857086
 20
36.902135
 30
0.0
 11
45.299028
 21
37.344077
 31
0.0
  0
LINE
  5
3FFB
100
AcDbEntity
  8
0
 62
     0
100
AcDbLine
 10
45.519999
 20
37.565048
 30
0.0
 11
45.961941
 21
38.006989
 31
0.0
  0
LINE
  5
3FFC
100
AcDbEntity
  8
0
 62
     0
100
AcDbLine
 10
46.182912
 20
38.22796
 30
0.0
 11
46.624853
 21
38.669902
 31
0.0
  0
LINE
  5
3FFD
100
AcDbEntity
  8
0
 62
     0
100
AcDbLine
 10
34.701004
 20
24.978285
 30
0.0
 11
34.913397
 21
25.190679
 31
0.0
  0
LINE
  5
3FFE
100
AcDbEntity
  8
0
 62
     0
100
AcDbLine
 10
35.134368
 20
25.41165
 30
0.0
 11
35.57631
 21
25.853592
 31
0.0
  0
LINE
  5
3FFF
100
AcDbEntity
  8
0
 62
     0
100
AcDbLine
 10
35.797281
 20
26.074563
 30
0.0
 11
36.239223
 21
26.516504
 31
0.0
  0
LINE
  5
4000
100
AcDbEntity
  8
0
 62
     0
100
AcDbLine
 10
36.460193
 20
26.737475
 30
0.0
 11
36.902135
 21
27.179417
 31
0.0
  0
LINE
  5
4001
100
AcDbEntity
  8
0
 62
     0
100
AcDbLine
 10
37.123106
 20
27.400388
 30
0.0
 11
37.565048
 21
27.84233
 31
0.0
  0
LINE
  5
4002
100
AcDbEntity
  8
0
 62
     0
100
AcDbLine
 10
43.752232
 20
34.029514
 30
0.0
 11
44.194174
 21
34.471456
 31
0.0
  0
LINE
  5
4003
100
AcDbEntity
  8
0
 62
     0
100
AcDbLine
 10
44.415145
 20
34.692426
 30
0.0
 11
44.857086
 21
35.134368
 31
0.0
  0
LINE
  5
4004
100
AcDbEntity
  8
0
 62
     0
100
AcDbLine
 10
45.078057
 20
35.355339
 30
0.0
 11
45.519999
 21
35.797281
 31
0.0
  0
LINE
  5
4005
100
AcDbEntity
  8
0
 62
     0
100
AcDbLine
 10
45.74097
 20
36.018252
 30
0.0
 11
46.182912
 21
36.460193
 31
0.0
  0
LINE
  5
4006
100
AcDbEntity
  8
0
 62
     0
100
AcDbLine
 10
46.403883
 20
36.681164
 30
0.0
 11
46.701004
 21
36.978285
 31
0.0
  0
LINE
  5
4007
100
AcDbEntity
  8
0
 62
     0
100
AcDbLine
 10
34.701004
 20
23.210519
 30
0.0
 11
35.134368
 21
23.643883
 31
0.0
  0
LINE
  5
4008
100
AcDbEntity
  8
0
 62
     0
100
AcDbLine
 10
35.355339
 20
23.864854
 30
0.0
 11
35.797281
 21
24.306796
 31
0.0
  0
LINE
  5
4009
100
AcDbEntity
  8
0
 62
     0
100
AcDbLine
 10
36.018252
 20
24.527766
 30
0.0
 11
36.460193
 21
24.969708
 31
0.0
  0
LINE
  5
400A
100
AcDbEntity
  8
0
 62
     0
100
AcDbLine
 10
36.681164
 20
25.190679
 30
0.0
 11
37.123106
 21
25.632621
 31
0.0
  0
LINE
  5
400B
100
AcDbEntity
  8
0
 62
     0
100
AcDbLine
 10
37.344077
 20
25.853592
 30
0.0
 11
37.701004
 21
26.210519
 31
0.0
  0
LINE
  5
400C
100
AcDbEntity
  8
0
 62
     0
100
AcDbLine
 10
43.701004
 20
32.210519
 30
0.0
 11
43.752232
 21
32.261747
 31
0.0
  0
LINE
  5
400D
100
AcDbEntity
  8
0
 62
     0
100
AcDbLine
 10
43.973203
 20
32.482718
 30
0.0
 11
44.415145
 21
32.924659
 31
0.0
  0
LINE
  5
400E
100
AcDbEntity
  8
0
 62
     0
100
AcDbLine
 10
44.636116
 20
33.14563
 30
0.0
 11
45.078057
 21
33.587572
 31
0.0
  0
LINE
  5
400F
100
AcDbEntity
  8
0
 62
     0
100
AcDbLine
 10
45.299028
 20
33.808543
 30
0.0
 11
45.74097
 21
34.250485
 31
0.0
  0
LINE
  5
4010
100
AcDbEntity
  8
0
 62
     0
100
AcDbLine
 10
45.961941
 20
34.471456
 30
0.0
 11
46.403883
 21
34.913397
 31
0.0
  0
LINE
  5
4011
100
AcDbEntity
  8
0
 62
     0
100
AcDbLine
 10
46.624853
 20
35.134368
 30
0.0
 11
46.701004
 21
35.210519
 31
0.0
  0
LINE
  5
4012
100
AcDbEntity
  8
0
 62
     0
100
AcDbLine
 10
34.913397
 20
21.655145
 30
0.0
 11
35.355339
 21
22.097087
 31
0.0
  0
LINE
  5
4013
100
AcDbEntity
  8
0
 62
     0
100
AcDbLine
 10
35.57631
 20
22.318058
 30
0.0
 11
36.018252
 21
22.76
 31
0.0
  0
LINE
  5
4014
100
AcDbEntity
  8
0
 62
     0
100
AcDbLine
 10
36.239223
 20
22.98097
 30
0.0
 11
36.681164
 21
23.422912
 31
0.0
  0
LINE
  5
4015
100
AcDbEntity
  8
0
 62
     0
100
AcDbLine
 10
36.902135
 20
23.643883
 30
0.0
 11
37.344077
 21
24.085825
 31
0.0
  0
LINE
  5
4016
100
AcDbEntity
  8
0
 62
     0
100
AcDbLine
 10
37.565048
 20
24.306796
 30
0.0
 11
37.701004
 21
24.442752
 31
0.0
  0
LINE
  5
4017
100
AcDbEntity
  8
0
 62
     0
100
AcDbLine
 10
43.701004
 20
30.442752
 30
0.0
 11
43.973203
 21
30.714951
 31
0.0
  0
LINE
  5
4018
100
AcDbEntity
  8
0
 62
     0
100
AcDbLine
 10
44.194174
 20
30.935922
 30
0.0
 11
44.636116
 21
31.377863
 31
0.0
  0
LINE
  5
4019
100
AcDbEntity
  8
0
 62
     0
100
AcDbLine
 10
44.857086
 20
31.598834
 30
0.0
 11
45.299028
 21
32.040776
 31
0.0
  0
LINE
  5
401A
100
AcDbEntity
  8
0
 62
     0
100
AcDbLine
 10
45.519999
 20
32.261747
 30
0.0
 11
45.961941
 21
32.703689
 31
0.0
  0
LINE
  5
401B
100
AcDbEntity
  8
0
 62
     0
100
AcDbLine
 10
46.182912
 20
32.924659
 30
0.0
 11
46.624853
 21
33.366601
 31
0.0
  0
LINE
  5
401C
100
AcDbEntity
  8
0
 62
     0
100
AcDbLine
 10
36.463519
 20
21.4375
 30
0.0
 11
36.902135
 21
21.876116
 31
0.0
  0
LINE
  5
401D
100
AcDbEntity
  8
0
 62
     0
100
AcDbLine
 10
37.123106
 20
22.097087
 30
0.0
 11
37.565048
 21
22.539029
 31
0.0
  0
LINE
  5
401E
100
AcDbEntity
  8
0
 62
     0
100
AcDbLine
 10
43.752232
 20
28.726213
 30
0.0
 11
44.194174
 21
29.168155
 31
0.0
  0
LINE
  5
401F
100
AcDbEntity
  8
0
 62
     0
100
AcDbLine
 10
44.415145
 20
29.389126
 30
0.0
 11
44.857086
 21
29.831067
 31
0.0
  0
LINE
  5
4020
100
AcDbEntity
  8
0
 62
     0
100
AcDbLine
 10
45.078057
 20
30.052038
 30
0.0
 11
45.519999
 21
30.49398
 31
0.0
  0
LINE
  5
4021
100
AcDbEntity
  8
0
 62
     0
100
AcDbLine
 10
45.74097
 20
30.714951
 30
0.0
 11
46.182912
 21
31.156893
 31
0.0
  0
LINE
  5
4022
100
AcDbEntity
  8
0
 62
     0
100
AcDbLine
 10
46.403883
 20
31.377863
 30
0.0
 11
46.701004
 21
31.674985
 31
0.0
  0
LINE
  5
4023
100
AcDbEntity
  8
0
 62
     0
100
AcDbLine
 10
43.701004
 20
26.907218
 30
0.0
 11
43.752232
 21
26.958446
 31
0.0
  0
LINE
  5
4024
100
AcDbEntity
  8
0
 62
     0
100
AcDbLine
 10
43.973203
 20
27.179417
 30
0.0
 11
44.415145
 21
27.621359
 31
0.0
  0
LINE
  5
4025
100
AcDbEntity
  8
0
 62
     0
100
AcDbLine
 10
44.636116
 20
27.84233
 30
0.0
 11
45.078057
 21
28.284271
 31
0.0
  0
LINE
  5
4026
100
AcDbEntity
  8
0
 62
     0
100
AcDbLine
 10
45.299028
 20
28.505242
 30
0.0
 11
45.74097
 21
28.947184
 31
0.0
  0
LINE
  5
4027
100
AcDbEntity
  8
0
 62
     0
100
AcDbLine
 10
45.961941
 20
29.168155
 30
0.0
 11
46.403883
 21
29.610096
 31
0.0
  0
LINE
  5
4028
100
AcDbEntity
  8
0
 62
     0
100
AcDbLine
 10
46.624853
 20
29.831067
 30
0.0
 11
46.701004
 21
29.907218
 31
0.0
  0
LINE
  5
4029
100
AcDbEntity
  8
0
 62
     0
100
AcDbLine
 10
43.701004
 20
25.139451
 30
0.0
 11
43.973203
 21
25.41165
 31
0.0
  0
LINE
  5
402A
100
AcDbEntity
  8
0
 62
     0
100
AcDbLine
 10
44.194174
 20
25.632621
 30
0.0
 11
44.636116
 21
26.074563
 31
0.0
  0
LINE
  5
402B
100
AcDbEntity
  8
0
 62
     0
100
AcDbLine
 10
44.857086
 20
26.295533
 30
0.0
 11
45.299028
 21
26.737475
 31
0.0
  0
LINE
  5
402C
100
AcDbEntity
  8
0
 62
     0
100
AcDbLine
 10
45.519999
 20
26.958446
 30
0.0
 11
45.961941
 21
27.400388
 31
0.0
  0
LINE
  5
402D
100
AcDbEntity
  8
0
 62
     0
100
AcDbLine
 10
46.182912
 20
27.621359
 30
0.0
 11
46.624853
 21
28.0633
 31
0.0
  0
LINE
  5
402E
100
AcDbEntity
  8
0
 62
     0
100
AcDbLine
 10
43.752232
 20
23.422912
 30
0.0
 11
44.194174
 21
23.864854
 31
0.0
  0
LINE
  5
402F
100
AcDbEntity
  8
0
 62
     0
100
AcDbLine
 10
44.415145
 20
24.085825
 30
0.0
 11
44.857086
 21
24.527766
 31
0.0
  0
LINE
  5
4030
100
AcDbEntity
  8
0
 62
     0
100
AcDbLine
 10
45.078057
 20
24.748737
 30
0.0
 11
45.519999
 21
25.190679
 31
0.0
  0
LINE
  5
4031
100
AcDbEntity
  8
0
 62
     0
100
AcDbLine
 10
45.74097
 20
25.41165
 30
0.0
 11
46.182912
 21
25.853592
 31
0.0
  0
LINE
  5
4032
100
AcDbEntity
  8
0
 62
     0
100
AcDbLine
 10
46.403883
 20
26.074563
 30
0.0
 11
46.701004
 21
26.371684
 31
0.0
  0
LINE
  5
4033
100
AcDbEntity
  8
0
 62
     0
100
AcDbLine
 10
43.701004
 20
21.603917
 30
0.0
 11
43.752232
 21
21.655145
 31
0.0
  0
LINE
  5
4034
100
AcDbEntity
  8
0
 62
     0
100
AcDbLine
 10
43.973203
 20
21.876116
 30
0.0
 11
44.415145
 21
22.318058
 31
0.0
  0
LINE
  5
4035
100
AcDbEntity
  8
0
 62
     0
100
AcDbLine
 10
44.636116
 20
22.539029
 30
0.0
 11
45.078057
 21
22.98097
 31
0.0
  0
LINE
  5
4036
100
AcDbEntity
  8
0
 62
     0
100
AcDbLine
 10
45.299028
 20
23.201941
 30
0.0
 11
45.74097
 21
23.643883
 31
0.0
  0
LINE
  5
4037
100
AcDbEntity
  8
0
 62
     0
100
AcDbLine
 10
45.961941
 20
23.864854
 30
0.0
 11
46.403883
 21
24.306796
 31
0.0
  0
LINE
  5
4038
100
AcDbEntity
  8
0
 62
     0
100
AcDbLine
 10
46.624853
 20
24.527766
 30
0.0
 11
46.701004
 21
24.603917
 31
0.0
  0
LINE
  5
4039
100
AcDbEntity
  8
0
 62
     0
100
AcDbLine
 10
45.519999
 20
21.655145
 30
0.0
 11
45.961941
 21
22.097087
 31
0.0
  0
LINE
  5
403A
100
AcDbEntity
  8
0
 62
     0
100
AcDbLine
 10
46.182912
 20
22.318058
 30
0.0
 11
46.624853
 21
22.76
 31
0.0
  0
ENDBLK
  5
403B
100
AcDbEntity
  8
0
100
AcDbBlockEnd
  0
BLOCK
  5
40CF
100
AcDbEntity
  8
0
100
AcDbBlockBegin
  2
*X1
 70
     1
 10
0.0
 20
0.0
 30
0.0
  3
*X1
  1

  0
LINE
  5
40D1
100
AcDbEntity
  8
0
 62
     0
100
AcDbLine
 10
56.923876
 20
35.725
 30
0.0
 11
57.163138
 21
36.010142
 31
0.0
  0
LINE
  5
40D2
100
AcDbEntity
  8
0
 62
     0
100
AcDbLine
 10
59.814637
 20
39.170075
 30
0.0
 11
60.055683
 21
39.457342
 31
0.0
  0
LINE
  5
40D3
100
AcDbEntity
  8
0
 62
     0
100
AcDbLine
 10
62.707182
 20
42.617275
 30
0.0
 11
62.948227
 21
42.904542
 31
0.0
  0
LINE
  5
40D4
100
AcDbEntity
  8
0
 62
     0
100
AcDbLine
 10
57.767886
 20
32.143104
 30
0.0
 11
57.856895
 21
32.249181
 31
0.0
  0
LINE
  5
40D5
100
AcDbEntity
  8
0
 62
     0
100
AcDbLine
 10
63.400938
 20
38.856315
 30
0.0
 11
63.641984
 21
39.143581
 31
0.0
  0
LINE
  5
40D6
100
AcDbEntity
  8
0
 62
     0
100
AcDbLine
 10
58.309606
 20
28.200954
 30
0.0
 11
58.550652
 21
28.488221
 31
0.0
  0
LINE
  5
40D7
100
AcDbEntity
  8
0
 62
     0
100
AcDbLine
 10
61.202151
 20
31.648154
 30
0.0
 11
61.417886
 21
31.905257
 31
0.0
  0
LINE
  5
40D8
100
AcDbEntity
  8
0
 62
     0
100
AcDbLine
 10
59.003363
 20
24.439993
 30
0.0
 11
59.244408
 21
24.72726
 31
0.0
  0
LINE
  5
40D9
100
AcDbEntity
  8
0
 62
     0
100
AcDbLine
 10
61.895907
 20
27.887193
 30
0.0
 11
62.136953
 21
28.17446
 31
0.0
  0
LINE
  5
40DA
100
AcDbEntity
  8
0
 62
     0
100
AcDbLine
 10
62.589664
 20
24.126233
 30
0.0
 11
62.830709
 21
24.413499
 31
0.0
  0
LINE
  5
40DB
100
AcDbEntity
  8
0
 62
     0
100
AcDbLine
 10
59.120881
 20
42.931036
 30
0.0
 11
59.361926
 21
43.218303
 31
0.0
  0
LINE
  5
40DC
100
AcDbEntity
  8
0
 62
     0
100
AcDbLine
 10
62.013425
 20
46.378236
 30
0.0
 11
62.25447
 21
46.665503
 31
0.0
  0
LINE
  5
40DD
100
AcDbEntity
  8
0
 62
     0
100
AcDbLine
 10
58.427124
 20
46.691997
 30
0.0
 11
58.668169
 21
46.979263
 31
0.0
  0
LINE
  5
40DE
100
AcDbEntity
  8
0
 62
     0
100
AcDbLine
 10
57.767886
 20
31.948613
 30
0.0
 11
57.914708
 21
31.935768
 31
0.0
  0
LINE
  5
40DF
100
AcDbEntity
  8
0
 62
     0
100
AcDbLine
 10
61.202151
 20
31.648154
 30
0.0
 11
61.417886
 21
31.62928
 31
0.0
  0
LINE
  5
40E0
100
AcDbEntity
  8
0
 62
     0
100
AcDbLine
 10
59.814637
 20
39.170075
 30
0.0
 11
60.113496
 21
39.143928
 31
0.0
  0
LINE
  5
40E1
100
AcDbEntity
  8
0
 62
     0
100
AcDbLine
 10
63.400938
 20
38.856315
 30
0.0
 11
63.699797
 21
38.830168
 31
0.0
  0
LINE
  5
40E2
100
AcDbEntity
  8
0
 62
     0
100
AcDbLine
 10
59.120881
 20
42.931036
 30
0.0
 11
59.419739
 21
42.904889
 31
0.0
  0
LINE
  5
40E3
100
AcDbEntity
  8
0
 62
     0
100
AcDbLine
 10
62.707182
 20
42.617275
 30
0.0
 11
63.00604
 21
42.591128
 31
0.0
  0
LINE
  5
40E4
100
AcDbEntity
  8
0
 62
     0
100
AcDbLine
 10
58.427124
 20
46.691997
 30
0.0
 11
58.725982
 21
46.66585
 31
0.0
  0
LINE
  5
40E5
100
AcDbEntity
  8
0
 62
     0
100
AcDbLine
 10
62.013425
 20
46.378236
 30
0.0
 11
62.312283
 21
46.352089
 31
0.0
  0
LINE
  5
40E6
100
AcDbEntity
  8
0
 62
     0
100
AcDbLine
 10
58.309606
 20
28.200954
 30
0.0
 11
58.608465
 21
28.174807
 31
0.0
  0
LINE
  5
40E7
100
AcDbEntity
  8
0
 62
     0
100
AcDbLine
 10
61.895907
 20
27.887193
 30
0.0
 11
62.194766
 21
27.861046
 31
0.0
  0
LINE
  5
40E8
100
AcDbEntity
  8
0
 62
     0
100
AcDbLine
 10
59.003363
 20
24.439993
 30
0.0
 11
59.302222
 21
24.413846
 31
0.0
  0
LINE
  5
40E9
100
AcDbEntity
  8
0
 62
     0
100
AcDbLine
 10
62.589664
 20
24.126233
 30
0.0
 11
62.888522
 21
24.100086
 31
0.0
  0
LINE
  5
40EA
100
AcDbEntity
  8
0
 62
     0
100
AcDbLine
 10
59.30224
 20
24.4138
 30
0.0
 11
59.244427
 21
24.727213
 31
0.0
  0
LINE
  5
40EB
100
AcDbEntity
  8
0
 62
     0
100
AcDbLine
 10
58.608486
 20
28.174761
 30
0.0
 11
58.550674
 21
28.488175
 31
0.0
  0
LINE
  5
40EC
100
AcDbEntity
  8
0
 62
     0
100
AcDbLine
 10
57.914733
 20
31.935722
 30
0.0
 11
57.85692
 21
32.249136
 31
0.0
  0
LINE
  5
40ED
100
AcDbEntity
  8
0
 62
     0
100
AcDbLine
 10
57.215756
 20
35.725
 30
0.0
 11
57.163166
 21
36.010097
 31
0.0
  0
LINE
  5
40EE
100
AcDbEntity
  8
0
 62
     0
100
AcDbLine
 10
62.888541
 20
24.100037
 30
0.0
 11
62.830728
 21
24.41345
 31
0.0
  0
LINE
  5
40EF
100
AcDbEntity
  8
0
 62
     0
100
AcDbLine
 10
62.194787
 20
27.860998
 30
0.0
 11
62.136974
 21
28.174411
 31
0.0
  0
LINE
  5
40F0
100
AcDbEntity
  8
0
 62
     0
100
AcDbLine
 10
60.113526
 20
39.143881
 30
0.0
 11
60.055713
 21
39.457295
 31
0.0
  0
LINE
  5
40F1
100
AcDbEntity
  8
0
 62
     0
100
AcDbLine
 10
59.419772
 20
42.904843
 30
0.0
 11
59.361959
 21
43.218256
 31
0.0
  0
LINE
  5
40F2
100
AcDbEntity
  8
0
 62
     0
100
AcDbLine
 10
58.726018
 20
46.665804
 30
0.0
 11
58.668206
 21
46.979217
 31
0.0
  0
LINE
  5
40F3
100
AcDbEntity
  8
0
 62
     0
100
AcDbLine
 10
63.699826
 20
38.830118
 30
0.0
 11
63.642014
 21
39.143531
 31
0.0
  0
LINE
  5
40F4
100
AcDbEntity
  8
0
 62
     0
100
AcDbLine
 10
63.006073
 20
42.591079
 30
0.0
 11
62.94826
 21
42.904493
 31
0.0
  0
LINE
  5
40F5
100
AcDbEntity
  8
0
 62
     0
100
AcDbLine
 10
62.312319
 20
46.35204
 30
0.0
 11
62.254506
 21
46.665454
 31
0.0
  0
LINE
  5
40F6
100
AcDbEntity
  8
0
 62
     0
100
AcDbLine
 10
58.731299
 20
36.654364
 30
0.0
 11
59.120741
 21
37.060246
 31
0.0
  0
LINE
  5
40F7
100
AcDbEntity
  8
0
 62
     0
100
AcDbLine
 10
63.404609
 20
41.524957
 30
0.0
 11
63.767886
 21
41.90357
 31
0.0
  0
LINE
  5
40F8
100
AcDbEntity
  8
0
 62
     0
100
AcDbLine
 10
59.394194
 20
30.956176
 30
0.0
 11
59.783637
 21
31.362058
 31
0.0
  0
LINE
  5
40F9
100
AcDbEntity
  8
0
 62
     0
100
AcDbLine
 10
60.05709
 20
25.257988
 30
0.0
 11
60.446532
 21
25.66387
 31
0.0
  0
LINE
  5
40FA
100
AcDbEntity
  8
0
 62
     0
100
AcDbLine
 10
58.068403
 20
42.352552
 30
0.0
 11
58.457846
 21
42.758435
 31
0.0
  0
LINE
  5
40FB
100
AcDbEntity
  8
0
 62
     0
100
AcDbLine
 10
62.741713
 20
47.223145
 30
0.0
 11
63.131155
 21
47.629028
 31
0.0
  0
LINE
  5
40FC
100
AcDbEntity
  8
0
 62
     0
100
AcDbLine
 10
57.767886
 20
48.428415
 30
0.0
 11
57.79495
 21
48.456623
 31
0.0
  0
LINE
  5
40FD
100
AcDbEntity
  8
0
 62
     0
100
AcDbLine
 10
60.501792
 20
25.188979
 30
0.0
 11
60.446551
 21
25.663828
 31
0.0
  0
LINE
  5
40FE
100
AcDbEntity
  8
0
 62
     0
100
AcDbLine
 10
59.838901
 20
30.887167
 30
0.0
 11
59.78366
 21
31.362016
 31
0.0
  0
LINE
  5
40FF
100
AcDbEntity
  8
0
 62
     0
100
AcDbLine
 10
59.17601
 20
36.585355
 30
0.0
 11
59.120769
 21
37.060204
 31
0.0
  0
LINE
  5
4100
100
AcDbEntity
  8
0
 62
     0
100
AcDbLine
 10
58.513119
 20
42.283542
 30
0.0
 11
58.457878
 21
42.758391
 31
0.0
  0
LINE
  5
4101
100
AcDbEntity
  8
0
 62
     0
100
AcDbLine
 10
57.850228
 20
47.98173
 30
0.0
 11
57.794987
 21
48.456579
 31
0.0
  0
LINE
  5
4102
100
AcDbEntity
  8
0
 62
     0
100
AcDbLine
 10
63.186432
 20
47.154132
 30
0.0
 11
63.131192
 21
47.628981
 31
0.0
  0
LINE
  5
4103
100
AcDbEntity
  8
0
 62
     0
100
AcDbLine
 10
59.394194
 20
30.956176
 30
0.0
 11
59.838878
 21
30.887209
 31
0.0
  0
LINE
  5
4104
100
AcDbEntity
  8
0
 62
     0
100
AcDbLine
 10
58.731299
 20
36.654364
 30
0.0
 11
59.175983
 21
36.585398
 31
0.0
  0
LINE
  5
4105
100
AcDbEntity
  8
0
 62
     0
100
AcDbLine
 10
58.068403
 20
42.352552
 30
0.0
 11
58.513087
 21
42.283586
 31
0.0
  0
LINE
  5
4106
100
AcDbEntity
  8
0
 62
     0
100
AcDbLine
 10
63.404609
 20
41.524957
 30
0.0
 11
63.767886
 21
41.468616
 31
0.0
  0
LINE
  5
4107
100
AcDbEntity
  8
0
 62
     0
100
AcDbLine
 10
57.767886
 20
47.994539
 30
0.0
 11
57.850192
 21
47.981774
 31
0.0
  0
LINE
  5
4108
100
AcDbEntity
  8
0
 62
     0
100
AcDbLine
 10
62.741713
 20
47.223145
 30
0.0
 11
63.186397
 21
47.154179
 31
0.0
  0
LINE
  5
4109
100
AcDbEntity
  8
0
 62
     0
100
AcDbLine
 10
60.05709
 20
25.257988
 30
0.0
 11
60.501774
 21
25.189021
 31
0.0
  0
LINE
  5
410A
100
AcDbEntity
  8
0
 62
     0
100
AcDbLine
 10
58.764185
 20
32.591776
 30
0.0
 11
59.114278
 21
32.726164
 31
0.0
  0
LINE
  5
410B
100
AcDbEntity
  8
0
 62
     0
100
AcDbLine
 10
62.965297
 20
34.204432
 30
0.0
 11
63.31539
 21
34.338819
 31
0.0
  0
LINE
  5
410C
100
AcDbEntity
  8
0
 62
     0
100
AcDbLine
 10
57.767886
 20
29.050582
 30
0.0
 11
57.897701
 21
29.100413
 31
0.0
  0
LINE
  5
410D
100
AcDbEntity
  8
0
 62
     0
100
AcDbLine
 10
61.74872
 20
30.578681
 30
0.0
 11
62.098813
 21
30.713069
 31
0.0
  0
LINE
  5
410E
100
AcDbEntity
  8
0
 62
     0
100
AcDbLine
 10
60.532144
 20
26.952931
 30
0.0
 11
60.882236
 21
27.087319
 31
0.0
  0
LINE
  5
410F
100
AcDbEntity
  8
0
 62
     0
100
AcDbLine
 10
59.315567
 20
23.327181
 30
0.0
 11
59.66566
 21
23.461569
 31
0.0
  0
LINE
  5
4110
100
AcDbEntity
  8
0
 62
     0
100
AcDbLine
 10
63.516679
 20
24.939837
 30
0.0
 11
63.767886
 21
25.036266
 31
0.0
  0
LINE
  5
4111
100
AcDbEntity
  8
0
 62
     0
100
AcDbLine
 10
62.621606
 20
21.4375
 30
0.0
 11
62.650195
 21
21.448474
 31
0.0
  0
LINE
  5
4112
100
AcDbEntity
  8
0
 62
     0
100
AcDbLine
 10
55.77965
 20
34.60487
 30
0.0
 11
56.129742
 21
34.739258
 31
0.0
  0
LINE
  5
4113
100
AcDbEntity
  8
0
 62
     0
100
AcDbLine
 10
59.980762
 20
36.217526
 30
0.0
 11
60.330854
 21
36.351914
 31
0.0
  0
LINE
  5
4114
100
AcDbEntity
  8
0
 62
     0
100
AcDbLine
 10
56.996226
 20
38.23062
 30
0.0
 11
57.346319
 21
38.365008
 31
0.0
  0
LINE
  5
4115
100
AcDbEntity
  8
0
 62
     0
100
AcDbLine
 10
61.197338
 20
39.843276
 30
0.0
 11
61.547431
 21
39.977664
 31
0.0
  0
LINE
  5
4116
100
AcDbEntity
  8
0
 62
     0
100
AcDbLine
 10
58.212803
 20
41.856371
 30
0.0
 11
58.562896
 21
41.990759
 31
0.0
  0
LINE
  5
4117
100
AcDbEntity
  8
0
 62
     0
100
AcDbLine
 10
62.413915
 20
43.469026
 30
0.0
 11
62.764008
 21
43.603414
 31
0.0
  0
LINE
  5
4118
100
AcDbEntity
  8
0
 62
     0
100
AcDbLine
 10
59.42938
 20
45.482121
 30
0.0
 11
59.779472
 21
45.616509
 31
0.0
  0
LINE
  5
4119
100
AcDbEntity
  8
0
 62
     0
100
AcDbLine
 10
63.630492
 20
47.094777
 30
0.0
 11
63.767886
 21
47.147517
 31
0.0
  0
LINE
  5
411A
100
AcDbEntity
  8
0
 62
     0
100
AcDbLine
 10
60.645956
 20
49.107871
 30
0.0
 11
60.809683
 21
49.17072
 31
0.0
  0
LINE
  5
411B
100
AcDbEntity
  8
0
 62
     0
100
AcDbLine
 10
55.77965
 20
34.60487
 30
0.0
 11
56.028361
 21
34.437112
 31
0.0
  0
LINE
  5
411C
100
AcDbEntity
  8
0
 62
     0
100
AcDbLine
 10
58.764185
 20
32.591776
 30
0.0
 11
59.012896
 21
32.424018
 31
0.0
  0
LINE
  5
411D
100
AcDbEntity
  8
0
 62
     0
100
AcDbLine
 10
61.74872
 20
30.578681
 30
0.0
 11
61.997431
 21
30.410923
 31
0.0
  0
LINE
  5
411E
100
AcDbEntity
  8
0
 62
     0
100
AcDbLine
 10
56.996226
 20
38.23062
 30
0.0
 11
57.244938
 21
38.062863
 31
0.0
  0
LINE
  5
411F
100
AcDbEntity
  8
0
 62
     0
100
AcDbLine
 10
59.980762
 20
36.217526
 30
0.0
 11
60.229473
 21
36.049768
 31
0.0
  0
LINE
  5
4120
100
AcDbEntity
  8
0
 62
     0
100
AcDbLine
 10
62.965297
 20
34.204431
 30
0.0
 11
63.214008
 21
34.036674
 31
0.0
  0
LINE
  5
4121
100
AcDbEntity
  8
0
 62
     0
100
AcDbLine
 10
58.212803
 20
41.856371
 30
0.0
 11
58.461514
 21
41.688613
 31
0.0
  0
LINE
  5
4122
100
AcDbEntity
  8
0
 62
     0
100
AcDbLine
 10
61.197338
 20
39.843276
 30
0.0
 11
61.44605
 21
39.675518
 31
0.0
  0
LINE
  5
4123
100
AcDbEntity
  8
0
 62
     0
100
AcDbLine
 10
59.42938
 20
45.482121
 30
0.0
 11
59.678091
 21
45.314363
 31
0.0
  0
LINE
  5
4124
100
AcDbEntity
  8
0
 62
     0
100
AcDbLine
 10
62.413915
 20
43.469026
 30
0.0
 11
62.662626
 21
43.301269
 31
0.0
  0
LINE
  5
4125
100
AcDbEntity
  8
0
 62
     0
100
AcDbLine
 10
60.645956
 20
49.107871
 30
0.0
 11
60.894668
 21
48.940113
 31
0.0
  0
LINE
  5
4126
100
AcDbEntity
  8
0
 62
     0
100
AcDbLine
 10
63.630492
 20
47.094777
 30
0.0
 11
63.767886
 21
47.002103
 31
0.0
  0
LINE
  5
4127
100
AcDbEntity
  8
0
 62
     0
100
AcDbLine
 10
57.767886
 20
28.817447
 30
0.0
 11
57.79632
 21
28.798268
 31
0.0
  0
LINE
  5
4128
100
AcDbEntity
  8
0
 62
     0
100
AcDbLine
 10
60.532144
 20
26.952931
 30
0.0
 11
60.780855
 21
26.785173
 31
0.0
  0
LINE
  5
4129
100
AcDbEntity
  8
0
 62
     0
100
AcDbLine
 10
63.516679
 20
24.939837
 30
0.0
 11
63.76539
 21
24.772079
 31
0.0
  0
LINE
  5
412A
100
AcDbEntity
  8
0
 62
     0
100
AcDbLine
 10
59.315567
 20
23.327181
 30
0.0
 11
59.564278
 21
23.159423
 31
0.0
  0
LINE
  5
412B
100
AcDbEntity
  8
0
 62
     0
100
AcDbLine
 10
56.028387
 20
34.437069
 30
0.0
 11
56.129768
 21
34.739215
 31
0.0
  0
LINE
  5
412C
100
AcDbEntity
  8
0
 62
     0
100
AcDbLine
 10
58.461546
 20
41.688567
 30
0.0
 11
58.562927
 21
41.990713
 31
0.0
  0
LINE
  5
412D
100
AcDbEntity
  8
0
 62
     0
100
AcDbLine
 10
59.678125
 20
45.314317
 30
0.0
 11
59.779507
 21
45.616462
 31
0.0
  0
LINE
  5
412E
100
AcDbEntity
  8
0
 62
     0
100
AcDbLine
 10
60.894705
 20
48.940066
 30
0.0
 11
60.929907
 21
49.044978
 31
0.0
  0
LINE
  5
412F
100
AcDbEntity
  8
0
 62
     0
100
AcDbLine
 10
57.244966
 20
38.062818
 30
0.0
 11
57.346348
 21
38.364964
 31
0.0
  0
LINE
  5
4130
100
AcDbEntity
  8
0
 62
     0
100
AcDbLine
 10
57.796341
 20
28.798223
 30
0.0
 11
57.897723
 21
29.100369
 31
0.0
  0
LINE
  5
4131
100
AcDbEntity
  8
0
 62
     0
100
AcDbLine
 10
59.01292
 20
32.423972
 30
0.0
 11
59.114302
 21
32.726118
 31
0.0
  0
LINE
  5
4132
100
AcDbEntity
  8
0
 62
     0
100
AcDbLine
 10
60.2295
 20
36.049721
 30
0.0
 11
60.330882
 21
36.351867
 31
0.0
  0
LINE
  5
4133
100
AcDbEntity
  8
0
 62
     0
100
AcDbLine
 10
61.446079
 20
39.675471
 30
0.0
 11
61.547461
 21
39.977616
 31
0.0
  0
LINE
  5
4134
100
AcDbEntity
  8
0
 62
     0
100
AcDbLine
 10
62.662659
 20
43.30122
 30
0.0
 11
62.764041
 21
43.603366
 31
0.0
  0
LINE
  5
4135
100
AcDbEntity
  8
0
 62
     0
100
AcDbLine
 10
59.564295
 20
23.159377
 30
0.0
 11
59.665677
 21
23.461523
 31
0.0
  0
LINE
  5
4136
100
AcDbEntity
  8
0
 62
     0
100
AcDbLine
 10
60.780875
 20
26.785126
 30
0.0
 11
60.882256
 21
27.087272
 31
0.0
  0
LINE
  5
4137
100
AcDbEntity
  8
0
 62
     0
100
AcDbLine
 10
61.997454
 20
30.410875
 30
0.0
 11
62.098836
 21
30.713021
 31
0.0
  0
LINE
  5
4138
100
AcDbEntity
  8
0
 62
     0
100
AcDbLine
 10
63.214034
 20
34.036625
 30
0.0
 11
63.315415
 21
34.33877
 31
0.0
  0
LINE
  5
4139
100
AcDbEntity
  8
0
 62
     0
100
AcDbLine
 10
62.646544
 20
21.4375
 30
0.0
 11
62.65021
 21
21.448426
 31
0.0
  0
LINE
  5
413A
100
AcDbEntity
  8
0
 62
     0
100
AcDbLine
 10
63.765408
 20
24.772029
 30
0.0
 11
63.767886
 21
24.779412
 31
0.0
  0
LINE
  5
413B
100
AcDbEntity
  8
0
 62
     0
100
AcDbLine
 10
57.325876
 20
34.280794
 30
0.0
 11
57.325876
 21
34.280794
 31
0.0
  0
LINE
  5
413C
100
AcDbEntity
  8
0
 62
     0
100
AcDbLine
 10
59.98361
 20
36.320144
 30
0.0
 11
59.98361
 21
36.320144
 31
0.0
  0
LINE
  5
413D
100
AcDbEntity
  8
0
 62
     0
100
AcDbLine
 10
62.611592
 20
38.336667
 30
0.0
 11
62.611592
 21
38.336667
 31
0.0
  0
LINE
  5
413E
100
AcDbEntity
  8
0
 62
     0
100
AcDbLine
 10
54.800343
 20
33.960701
 30
0.0
 11
54.800343
 21
33.960701
 31
0.0
  0
LINE
  5
413F
100
AcDbEntity
  8
0
 62
     0
100
AcDbLine
 10
57.386675
 20
35.945263
 30
0.0
 11
57.386675
 21
35.945263
 31
0.0
  0
LINE
  5
4140
100
AcDbEntity
  8
0
 62
     0
100
AcDbLine
 10
60.044409
 20
37.984614
 30
0.0
 11
60.044409
 21
37.984614
 31
0.0
  0
LINE
  5
4141
100
AcDbEntity
  8
0
 62
     0
100
AcDbLine
 10
62.672392
 20
40.001136
 30
0.0
 11
62.672392
 21
40.001136
 31
0.0
  0
LINE
  5
4142
100
AcDbEntity
  8
0
 62
     0
100
AcDbLine
 10
57.447474
 20
37.609732
 30
0.0
 11
57.447474
 21
37.609732
 31
0.0
  0
LINE
  5
4143
100
AcDbEntity
  8
0
 62
     0
100
AcDbLine
 10
60.105208
 20
39.649083
 30
0.0
 11
60.105208
 21
39.649083
 31
0.0
  0
LINE
  5
4144
100
AcDbEntity
  8
0
 62
     0
100
AcDbLine
 10
62.733191
 20
41.665605
 30
0.0
 11
62.733191
 21
41.665605
 31
0.0
  0
LINE
  5
4145
100
AcDbEntity
  8
0
 62
     0
100
AcDbLine
 10
54.921942
 20
37.289639
 30
0.0
 11
54.921942
 21
37.289639
 31
0.0
  0
LINE
  5
4146
100
AcDbEntity
  8
0
 62
     0
100
AcDbLine
 10
60.166007
 20
41.313552
 30
0.0
 11
60.166007
 21
41.313552
 31
0.0
  0
LINE
  5
4147
100
AcDbEntity
  8
0
 62
     0
100
AcDbLine
 10
62.79399
 20
43.330074
 30
0.0
 11
62.79399
 21
43.330074
 31
0.0
  0
LINE
  5
4148
100
AcDbEntity
  8
0
 62
     0
100
AcDbLine
 10
60.226807
 20
42.978021
 30
0.0
 11
60.226807
 21
42.978021
 31
0.0
  0
LINE
  5
4149
100
AcDbEntity
  8
0
 62
     0
100
AcDbLine
 10
62.85479
 20
44.994544
 30
0.0
 11
62.85479
 21
44.994544
 31
0.0
  0
LINE
  5
414A
100
AcDbEntity
  8
0
 62
     0
100
AcDbLine
 10
60.287606
 20
44.642491
 30
0.0
 11
60.287606
 21
44.642491
 31
0.0
  0
LINE
  5
414B
100
AcDbEntity
  8
0
 62
     0
100
AcDbLine
 10
62.915589
 20
46.659013
 30
0.0
 11
62.915589
 21
46.659013
 31
0.0
  0
LINE
  5
414C
100
AcDbEntity
  8
0
 62
     0
100
AcDbLine
 10
60.348405
 20
46.30696
 30
0.0
 11
60.348405
 21
46.30696
 31
0.0
  0
LINE
  5
414D
100
AcDbEntity
  8
0
 62
     0
100
AcDbLine
 10
62.976388
 20
48.323482
 30
0.0
 11
62.976388
 21
48.323482
 31
0.0
  0
LINE
  5
414E
100
AcDbEntity
  8
0
 62
     0
100
AcDbLine
 10
60.409204
 20
47.971429
 30
0.0
 11
60.409204
 21
47.971429
 31
0.0
  0
LINE
  5
414F
100
AcDbEntity
  8
0
 62
     0
100
AcDbLine
 10
57.81227
 20
47.596548
 30
0.0
 11
57.81227
 21
47.596548
 31
0.0
  0
LINE
  5
4150
100
AcDbEntity
  8
0
 62
     0
100
AcDbLine
 10
57.873069
 20
49.261017
 30
0.0
 11
57.873069
 21
49.261017
 31
0.0
  0
LINE
  5
4151
100
AcDbEntity
  8
0
 62
     0
100
AcDbLine
 10
57.265077
 20
32.616324
 30
0.0
 11
57.265077
 21
32.616324
 31
0.0
  0
LINE
  5
4152
100
AcDbEntity
  8
0
 62
     0
100
AcDbLine
 10
59.92281
 20
34.655675
 30
0.0
 11
59.92281
 21
34.655675
 31
0.0
  0
LINE
  5
4153
100
AcDbEntity
  8
0
 62
     0
100
AcDbLine
 10
62.550793
 20
36.672197
 30
0.0
 11
62.550793
 21
36.672197
 31
0.0
  0
LINE
  5
4154
100
AcDbEntity
  8
0
 62
     0
100
AcDbLine
 10
59.862011
 20
32.991206
 30
0.0
 11
59.862011
 21
32.991206
 31
0.0
  0
LINE
  5
4155
100
AcDbEntity
  8
0
 62
     0
100
AcDbLine
 10
62.489994
 20
35.007728
 30
0.0
 11
62.489994
 21
35.007728
 31
0.0
  0
LINE
  5
4156
100
AcDbEntity
  8
0
 62
     0
100
AcDbLine
 10
59.801212
 20
31.326737
 30
0.0
 11
59.801212
 21
31.326737
 31
0.0
  0
LINE
  5
4157
100
AcDbEntity
  8
0
 62
     0
100
AcDbLine
 10
62.429195
 20
33.343259
 30
0.0
 11
62.429195
 21
33.343259
 31
0.0
  0
LINE
  5
4158
100
AcDbEntity
  8
0
 62
     0
100
AcDbLine
 10
59.740412
 20
29.662267
 30
0.0
 11
59.740412
 21
29.662267
 31
0.0
  0
LINE
  5
4159
100
AcDbEntity
  8
0
 62
     0
100
AcDbLine
 10
62.368395
 20
31.67879
 30
0.0
 11
62.368395
 21
31.67879
 31
0.0
  0
LINE
  5
415A
100
AcDbEntity
  8
0
 62
     0
100
AcDbLine
 10
59.679613
 20
27.997798
 30
0.0
 11
59.679613
 21
27.997798
 31
0.0
  0
LINE
  5
415B
100
AcDbEntity
  8
0
 62
     0
100
AcDbLine
 10
62.307596
 20
30.01432
 30
0.0
 11
62.307596
 21
30.01432
 31
0.0
  0
LINE
  5
415C
100
AcDbEntity
  8
0
 62
     0
100
AcDbLine
 10
59.618814
 20
26.333329
 30
0.0
 11
59.618814
 21
26.333329
 31
0.0
  0
LINE
  5
415D
100
AcDbEntity
  8
0
 62
     0
100
AcDbLine
 10
62.246797
 20
28.349851
 30
0.0
 11
62.246797
 21
28.349851
 31
0.0
  0
LINE
  5
415E
100
AcDbEntity
  8
0
 62
     0
100
AcDbLine
 10
59.558015
 20
24.66886
 30
0.0
 11
59.558015
 21
24.66886
 31
0.0
  0
LINE
  5
415F
100
AcDbEntity
  8
0
 62
     0
100
AcDbLine
 10
62.185998
 20
26.685382
 30
0.0
 11
62.185998
 21
26.685382
 31
0.0
  0
LINE
  5
4160
100
AcDbEntity
  8
0
 62
     0
100
AcDbLine
 10
59.497215
 20
23.00439
 30
0.0
 11
59.497215
 21
23.00439
 31
0.0
  0
LINE
  5
4161
100
AcDbEntity
  8
0
 62
     0
100
AcDbLine
 10
62.125198
 20
25.020912
 30
0.0
 11
62.125198
 21
25.020912
 31
0.0
  0
LINE
  5
4162
100
AcDbEntity
  8
0
 62
     0
100
AcDbLine
 10
62.064399
 20
23.356443
 30
0.0
 11
62.064399
 21
23.356443
 31
0.0
  0
LINE
  5
4163
100
AcDbEntity
  8
0
 62
     0
100
AcDbLine
 10
62.0036
 20
21.691974
 30
0.0
 11
62.0036
 21
21.691974
 31
0.0
  0
LINE
  5
4164
100
AcDbEntity
  8
0
 62
     0
100
AcDbLine
 10
56.29718
 20
34.395011
 30
0.0
 11
56.29718
 21
34.395011
 31
0.0
  0
LINE
  5
4165
100
AcDbEntity
  8
0
 62
     0
100
AcDbLine
 10
57.54888
 20
34.5598
 30
0.0
 11
57.54888
 21
34.5598
 31
0.0
  0
LINE
  5
4166
100
AcDbEntity
  8
0
 62
     0
100
AcDbLine
 10
59.442539
 20
34.809105
 30
0.0
 11
59.442539
 21
34.809105
 31
0.0
  0
LINE
  5
4167
100
AcDbEntity
  8
0
 62
     0
100
AcDbLine
 10
62.600291
 20
35.224831
 30
0.0
 11
62.600291
 21
35.224831
 31
0.0
  0
LINE
  5
4168
100
AcDbEntity
  8
0
 62
     0
100
AcDbLine
 10
57.612528
 20
36.367069
 30
0.0
 11
57.612528
 21
36.367069
 31
0.0
  0
LINE
  5
4169
100
AcDbEntity
  8
0
 62
     0
100
AcDbLine
 10
58.864227
 20
36.531859
 30
0.0
 11
58.864227
 21
36.531859
 31
0.0
  0
LINE
  5
416A
100
AcDbEntity
  8
0
 62
     0
100
AcDbLine
 10
60.757887
 20
36.781164
 30
0.0
 11
60.757887
 21
36.781164
 31
0.0
  0
LINE
  5
416B
100
AcDbEntity
  8
0
 62
     0
100
AcDbLine
 10
55.770124
 20
37.923402
 30
0.0
 11
55.770124
 21
37.923402
 31
0.0
  0
LINE
  5
416C
100
AcDbEntity
  8
0
 62
     0
100
AcDbLine
 10
58.927876
 20
38.339128
 30
0.0
 11
58.927876
 21
38.339128
 31
0.0
  0
LINE
  5
416D
100
AcDbEntity
  8
0
 62
     0
100
AcDbLine
 10
60.179575
 20
38.503917
 30
0.0
 11
60.179575
 21
38.503917
 31
0.0
  0
LINE
  5
416E
100
AcDbEntity
  8
0
 62
     0
100
AcDbLine
 10
62.073235
 20
38.753222
 30
0.0
 11
62.073235
 21
38.753222
 31
0.0
  0
LINE
  5
416F
100
AcDbEntity
  8
0
 62
     0
100
AcDbLine
 10
60.243223
 20
40.311186
 30
0.0
 11
60.243223
 21
40.311186
 31
0.0
  0
LINE
  5
4170
100
AcDbEntity
  8
0
 62
     0
100
AcDbLine
 10
61.494923
 20
40.475976
 30
0.0
 11
61.494923
 21
40.475976
 31
0.0
  0
LINE
  5
4171
100
AcDbEntity
  8
0
 62
     0
100
AcDbLine
 10
63.388582
 20
40.725281
 30
0.0
 11
63.388582
 21
40.725281
 31
0.0
  0
LINE
  5
4172
100
AcDbEntity
  8
0
 62
     0
100
AcDbLine
 10
58.400819
 20
41.867519
 30
0.0
 11
58.400819
 21
41.867519
 31
0.0
  0
LINE
  5
4173
100
AcDbEntity
  8
0
 62
     0
100
AcDbLine
 10
61.558571
 20
42.283245
 30
0.0
 11
61.558571
 21
42.283245
 31
0.0
  0
LINE
  5
4174
100
AcDbEntity
  8
0
 62
     0
100
AcDbLine
 10
62.81027
 20
42.448034
 30
0.0
 11
62.81027
 21
42.448034
 31
0.0
  0
LINE
  5
4175
100
AcDbEntity
  8
0
 62
     0
100
AcDbLine
 10
57.822507
 20
43.590273
 30
0.0
 11
57.822507
 21
43.590273
 31
0.0
  0
LINE
  5
4176
100
AcDbEntity
  8
0
 62
     0
100
AcDbLine
 10
59.716167
 20
43.839578
 30
0.0
 11
59.716167
 21
43.839578
 31
0.0
  0
LINE
  5
4177
100
AcDbEntity
  8
0
 62
     0
100
AcDbLine
 10
62.873919
 20
44.255303
 30
0.0
 11
62.873919
 21
44.255303
 31
0.0
  0
LINE
  5
4178
100
AcDbEntity
  8
0
 62
     0
100
AcDbLine
 10
57.886156
 20
45.397542
 30
0.0
 11
57.886156
 21
45.397542
 31
0.0
  0
LINE
  5
4179
100
AcDbEntity
  8
0
 62
     0
100
AcDbLine
 10
59.137855
 20
45.562331
 30
0.0
 11
59.137855
 21
45.562331
 31
0.0
  0
LINE
  5
417A
100
AcDbEntity
  8
0
 62
     0
100
AcDbLine
 10
61.031515
 20
45.811636
 30
0.0
 11
61.031515
 21
45.811636
 31
0.0
  0
LINE
  5
417B
100
AcDbEntity
  8
0
 62
     0
100
AcDbLine
 10
59.201504
 20
47.3696
 30
0.0
 11
59.201504
 21
47.3696
 31
0.0
  0
LINE
  5
417C
100
AcDbEntity
  8
0
 62
     0
100
AcDbLine
 10
60.453203
 20
47.53439
 30
0.0
 11
60.453203
 21
47.53439
 31
0.0
  0
LINE
  5
417D
100
AcDbEntity
  8
0
 62
     0
100
AcDbLine
 10
60.516851
 20
49.341659
 30
0.0
 11
60.516851
 21
49.341659
 31
0.0
  0
LINE
  5
417E
100
AcDbEntity
  8
0
 62
     0
100
AcDbLine
 10
54.981833
 20
32.422952
 30
0.0
 11
54.981833
 21
32.422952
 31
0.0
  0
LINE
  5
417F
100
AcDbEntity
  8
0
 62
     0
100
AcDbLine
 10
56.233532
 20
32.587741
 30
0.0
 11
56.233532
 21
32.587741
 31
0.0
  0
LINE
  5
4180
100
AcDbEntity
  8
0
 62
     0
100
AcDbLine
 10
58.127192
 20
32.837046
 30
0.0
 11
58.127192
 21
32.837046
 31
0.0
  0
LINE
  5
4181
100
AcDbEntity
  8
0
 62
     0
100
AcDbLine
 10
61.284943
 20
33.252772
 30
0.0
 11
61.284943
 21
33.252772
 31
0.0
  0
LINE
  5
4182
100
AcDbEntity
  8
0
 62
     0
100
AcDbLine
 10
62.536643
 20
33.417562
 30
0.0
 11
62.536643
 21
33.417562
 31
0.0
  0
LINE
  5
4183
100
AcDbEntity
  8
0
 62
     0
100
AcDbLine
 10
59.969596
 20
31.280714
 30
0.0
 11
59.969596
 21
31.280714
 31
0.0
  0
LINE
  5
4184
100
AcDbEntity
  8
0
 62
     0
100
AcDbLine
 10
61.221295
 20
31.445503
 30
0.0
 11
61.221295
 21
31.445503
 31
0.0
  0
LINE
  5
4185
100
AcDbEntity
  8
0
 62
     0
100
AcDbLine
 10
63.114955
 20
31.694808
 30
0.0
 11
63.114955
 21
31.694808
 31
0.0
  0
LINE
  5
4186
100
AcDbEntity
  8
0
 62
     0
100
AcDbLine
 10
58.654248
 20
29.308655
 30
0.0
 11
58.654248
 21
29.308655
 31
0.0
  0
LINE
  5
4187
100
AcDbEntity
  8
0
 62
     0
100
AcDbLine
 10
59.905947
 20
29.473445
 30
0.0
 11
59.905947
 21
29.473445
 31
0.0
  0
LINE
  5
4188
100
AcDbEntity
  8
0
 62
     0
100
AcDbLine
 10
61.799607
 20
29.72275
 30
0.0
 11
61.799607
 21
29.72275
 31
0.0
  0
LINE
  5
4189
100
AcDbEntity
  8
0
 62
     0
100
AcDbLine
 10
58.5906
 20
27.501386
 30
0.0
 11
58.5906
 21
27.501386
 31
0.0
  0
LINE
  5
418A
100
AcDbEntity
  8
0
 62
     0
100
AcDbLine
 10
60.484259
 20
27.750691
 30
0.0
 11
60.484259
 21
27.750691
 31
0.0
  0
LINE
  5
418B
100
AcDbEntity
  8
0
 62
     0
100
AcDbLine
 10
63.642011
 20
28.166417
 30
0.0
 11
63.642011
 21
28.166417
 31
0.0
  0
LINE
  5
418C
100
AcDbEntity
  8
0
 62
     0
100
AcDbLine
 10
59.168912
 20
25.778632
 30
0.0
 11
59.168912
 21
25.778632
 31
0.0
  0
LINE
  5
418D
100
AcDbEntity
  8
0
 62
     0
100
AcDbLine
 10
62.326663
 20
26.194358
 30
0.0
 11
62.326663
 21
26.194358
 31
0.0
  0
LINE
  5
418E
100
AcDbEntity
  8
0
 62
     0
100
AcDbLine
 10
63.578363
 20
26.359148
 30
0.0
 11
63.578363
 21
26.359148
 31
0.0
  0
LINE
  5
418F
100
AcDbEntity
  8
0
 62
     0
100
AcDbLine
 10
57.853564
 20
23.806574
 30
0.0
 11
57.853564
 21
23.806574
 31
0.0
  0
LINE
  5
4190
100
AcDbEntity
  8
0
 62
     0
100
AcDbLine
 10
61.011316
 20
24.2223
 30
0.0
 11
61.011316
 21
24.2223
 31
0.0
  0
LINE
  5
4191
100
AcDbEntity
  8
0
 62
     0
100
AcDbLine
 10
62.263015
 20
24.387089
 30
0.0
 11
62.263015
 21
24.387089
 31
0.0
  0
LINE
  5
4192
100
AcDbEntity
  8
0
 62
     0
100
AcDbLine
 10
60.947667
 20
22.415031
 30
0.0
 11
60.947667
 21
22.415031
 31
0.0
  0
LINE
  5
4193
100
AcDbEntity
  8
0
 62
     0
100
AcDbLine
 10
62.841327
 20
22.664336
 30
0.0
 11
62.841327
 21
22.664336
 31
0.0
  0
LINE
  5
4194
100
AcDbEntity
  8
0
 62
     0
100
AcDbLine
 10
61.525979
 20
20.692277
 30
0.0
 11
61.525979
 21
20.692277
 31
0.0
  0
LINE
  5
4195
100
AcDbEntity
  8
0
 62
     0
100
AcDbLine
 10
56.343493
 20
36.426234
 30
0.0
 11
56.343493
 21
36.426234
 31
0.0
  0
LINE
  5
4196
100
AcDbEntity
  8
0
 62
     0
100
AcDbLine
 10
60.708044
 20
33.645709
 30
0.0
 11
60.708044
 21
33.645709
 31
0.0
  0
LINE
  5
4197
100
AcDbEntity
  8
0
 62
     0
100
AcDbLine
 10
59.012605
 20
36.31346
 30
0.0
 11
59.012605
 21
36.31346
 31
0.0
  0
LINE
  5
4198
100
AcDbEntity
  8
0
 62
     0
100
AcDbLine
 10
63.377156
 20
33.532934
 30
0.0
 11
63.377156
 21
33.532934
 31
0.0
  0
LINE
  5
4199
100
AcDbEntity
  8
0
 62
     0
100
AcDbLine
 10
58.392491
 20
38.296154
 30
0.0
 11
58.392491
 21
38.296154
 31
0.0
  0
LINE
  5
419A
100
AcDbEntity
  8
0
 62
     0
100
AcDbLine
 10
61.681717
 20
36.200685
 30
0.0
 11
61.681717
 21
36.200685
 31
0.0
  0
LINE
  5
419B
100
AcDbEntity
  8
0
 62
     0
100
AcDbLine
 10
60.007363
 20
38.855004
 30
0.0
 11
60.007363
 21
38.855004
 31
0.0
  0
LINE
  5
419C
100
AcDbEntity
  8
0
 62
     0
100
AcDbLine
 10
61.061603
 20
38.18338
 30
0.0
 11
61.061603
 21
38.18338
 31
0.0
  0
LINE
  5
419D
100
AcDbEntity
  8
0
 62
     0
100
AcDbLine
 10
58.311925
 20
41.522755
 30
0.0
 11
58.311925
 21
41.522755
 31
0.0
  0
LINE
  5
419E
100
AcDbEntity
  8
0
 62
     0
100
AcDbLine
 10
62.676476
 20
38.74223
 30
0.0
 11
62.676476
 21
38.74223
 31
0.0
  0
LINE
  5
419F
100
AcDbEntity
  8
0
 62
     0
100
AcDbLine
 10
63.730715
 20
38.070605
 30
0.0
 11
63.730715
 21
38.070605
 31
0.0
  0
LINE
  5
41A0
100
AcDbEntity
  8
0
 62
     0
100
AcDbLine
 10
60.981037
 20
41.409981
 30
0.0
 11
60.981037
 21
41.409981
 31
0.0
  0
LINE
  5
41A1
100
AcDbEntity
  8
0
 62
     0
100
AcDbLine
 10
59.306683
 20
44.064299
 30
0.0
 11
59.306683
 21
44.064299
 31
0.0
  0
LINE
  5
41A2
100
AcDbEntity
  8
0
 62
     0
100
AcDbLine
 10
60.360923
 20
43.392675
 30
0.0
 11
60.360923
 21
43.392675
 31
0.0
  0
LINE
  5
41A3
100
AcDbEntity
  8
0
 62
     0
100
AcDbLine
 10
63.650149
 20
41.297206
 30
0.0
 11
63.650149
 21
41.297206
 31
0.0
  0
LINE
  5
41A4
100
AcDbEntity
  8
0
 62
     0
100
AcDbLine
 10
61.975795
 20
43.951525
 30
0.0
 11
61.975795
 21
43.951525
 31
0.0
  0
LINE
  5
41A5
100
AcDbEntity
  8
0
 62
     0
100
AcDbLine
 10
63.030035
 20
43.279901
 30
0.0
 11
63.030035
 21
43.279901
 31
0.0
  0
LINE
  5
41A6
100
AcDbEntity
  8
0
 62
     0
100
AcDbLine
 10
60.280357
 20
46.619276
 30
0.0
 11
60.280357
 21
46.619276
 31
0.0
  0
LINE
  5
41A7
100
AcDbEntity
  8
0
 62
     0
100
AcDbLine
 10
58.606003
 20
49.273595
 30
0.0
 11
58.606003
 21
49.273595
 31
0.0
  0
LINE
  5
41A8
100
AcDbEntity
  8
0
 62
     0
100
AcDbLine
 10
59.660242
 20
48.60197
 30
0.0
 11
59.660242
 21
48.60197
 31
0.0
  0
LINE
  5
41A9
100
AcDbEntity
  8
0
 62
     0
100
AcDbLine
 10
62.949469
 20
46.506502
 30
0.0
 11
62.949469
 21
46.506502
 31
0.0
  0
LINE
  5
41AA
100
AcDbEntity
  8
0
 62
     0
100
AcDbLine
 10
62.382397
 20
30.99139
 30
0.0
 11
62.382397
 21
30.99139
 31
0.0
  0
LINE
  5
41AB
100
AcDbEntity
  8
0
 62
     0
100
AcDbLine
 10
58.038931
 20
33.758483
 30
0.0
 11
58.038931
 21
33.758483
 31
0.0
  0
LINE
  5
41AC
100
AcDbEntity
  8
0
 62
     0
100
AcDbLine
 10
59.093171
 20
33.086859
 30
0.0
 11
59.093171
 21
33.086859
 31
0.0
  0
LINE
  5
41AD
100
AcDbEntity
  8
0
 62
     0
100
AcDbLine
 10
55.369819
 20
33.871257
 30
0.0
 11
55.369819
 21
33.871257
 31
0.0
  0
LINE
  5
41AE
100
AcDbEntity
  8
0
 62
     0
100
AcDbLine
 10
56.424059
 20
33.199633
 30
0.0
 11
56.424059
 21
33.199633
 31
0.0
  0
LINE
  5
41AF
100
AcDbEntity
  8
0
 62
     0
100
AcDbLine
 10
59.713285
 20
31.104164
 30
0.0
 11
59.713285
 21
31.104164
 31
0.0
  0
LINE
  5
41B0
100
AcDbEntity
  8
0
 62
     0
100
AcDbLine
 10
61.408724
 20
28.436413
 30
0.0
 11
61.408724
 21
28.436413
 31
0.0
  0
LINE
  5
41B1
100
AcDbEntity
  8
0
 62
     0
100
AcDbLine
 10
62.462963
 20
27.764789
 30
0.0
 11
62.462963
 21
27.764789
 31
0.0
  0
LINE
  5
41B2
100
AcDbEntity
  8
0
 62
     0
100
AcDbLine
 10
58.739612
 20
28.549188
 30
0.0
 11
58.739612
 21
28.549188
 31
0.0
  0
LINE
  5
41B3
100
AcDbEntity
  8
0
 62
     0
100
AcDbLine
 10
59.793851
 20
27.877563
 30
0.0
 11
59.793851
 21
27.877563
 31
0.0
  0
LINE
  5
41B4
100
AcDbEntity
  8
0
 62
     0
100
AcDbLine
 10
63.083077
 20
25.782095
 30
0.0
 11
63.083077
 21
25.782095
 31
0.0
  0
LINE
  5
41B5
100
AcDbEntity
  8
0
 62
     0
100
AcDbLine
 10
60.413965
 20
25.894869
 30
0.0
 11
60.413965
 21
25.894869
 31
0.0
  0
LINE
  5
41B6
100
AcDbEntity
  8
0
 62
     0
100
AcDbLine
 10
62.109404
 20
23.227118
 30
0.0
 11
62.109404
 21
23.227118
 31
0.0
  0
LINE
  5
41B7
100
AcDbEntity
  8
0
 62
     0
100
AcDbLine
 10
63.163643
 20
22.555493
 30
0.0
 11
63.163643
 21
22.555493
 31
0.0
  0
LINE
  5
41B8
100
AcDbEntity
  8
0
 62
     0
100
AcDbLine
 10
59.440292
 20
23.339892
 30
0.0
 11
59.440292
 21
23.339892
 31
0.0
  0
LINE
  5
41B9
100
AcDbEntity
  8
0
 62
     0
100
AcDbLine
 10
60.494531
 20
22.668268
 30
0.0
 11
60.494531
 21
22.668268
 31
0.0
  0
LINE
  5
41BA
100
AcDbEntity
  8
0
 62
     0
100
AcDbLine
 10
57.825419
 20
22.781042
 30
0.0
 11
57.825419
 21
22.781042
 31
0.0
  0
LINE
  5
41BB
100
AcDbEntity
  8
0
 62
     0
100
AcDbLine
 10
57.960667
 20
34.23849
 30
0.0
 11
57.960667
 21
34.23849
 31
0.0
  0
LINE
  5
41BC
100
AcDbEntity
  8
0
 62
     0
100
AcDbLine
 10
59.870215
 20
32.488712
 30
0.0
 11
59.870215
 21
32.488712
 31
0.0
  0
LINE
  5
41BD
100
AcDbEntity
  8
0
 62
     0
100
AcDbLine
 10
62.579709
 20
30.005918
 30
0.0
 11
62.579709
 21
30.005918
 31
0.0
  0
LINE
  5
41BE
100
AcDbEntity
  8
0
 62
     0
100
AcDbLine
 10
56.969028
 20
38.319643
 30
0.0
 11
56.969028
 21
38.319643
 31
0.0
  0
LINE
  5
41BF
100
AcDbEntity
  8
0
 62
     0
100
AcDbLine
 10
59.678522
 20
35.836849
 30
0.0
 11
59.678522
 21
35.836849
 31
0.0
  0
LINE
  5
41C0
100
AcDbEntity
  8
0
 62
     0
100
AcDbLine
 10
62.786146
 20
32.989237
 30
0.0
 11
62.786146
 21
32.989237
 31
0.0
  0
LINE
  5
41C1
100
AcDbEntity
  8
0
 62
     0
100
AcDbLine
 10
60.876597
 20
34.739015
 30
0.0
 11
60.876597
 21
34.739015
 31
0.0
  0
LINE
  5
41C2
100
AcDbEntity
  8
0
 62
     0
100
AcDbLine
 10
57.97541
 20
40.569947
 30
0.0
 11
57.97541
 21
40.569947
 31
0.0
  0
LINE
  5
41C3
100
AcDbEntity
  8
0
 62
     0
100
AcDbLine
 10
59.884958
 20
38.820168
 30
0.0
 11
59.884958
 21
38.820168
 31
0.0
  0
LINE
  5
41C4
100
AcDbEntity
  8
0
 62
     0
100
AcDbLine
 10
62.594453
 20
36.337374
 30
0.0
 11
62.594453
 21
36.337374
 31
0.0
  0
LINE
  5
41C5
100
AcDbEntity
  8
0
 62
     0
100
AcDbLine
 10
59.693265
 20
42.168306
 30
0.0
 11
59.693265
 21
42.168306
 31
0.0
  0
LINE
  5
41C6
100
AcDbEntity
  8
0
 62
     0
100
AcDbLine
 10
60.891341
 20
41.070472
 30
0.0
 11
60.891341
 21
41.070472
 31
0.0
  0
LINE
  5
41C7
100
AcDbEntity
  8
0
 62
     0
100
AcDbLine
 10
62.800889
 20
39.320693
 30
0.0
 11
62.800889
 21
39.320693
 31
0.0
  0
LINE
  5
41C8
100
AcDbEntity
  8
0
 62
     0
100
AcDbLine
 10
57.990154
 20
46.901404
 30
0.0
 11
57.990154
 21
46.901404
 31
0.0
  0
LINE
  5
41C9
100
AcDbEntity
  8
0
 62
     0
100
AcDbLine
 10
59.899702
 20
45.151625
 30
0.0
 11
59.899702
 21
45.151625
 31
0.0
  0
LINE
  5
41CA
100
AcDbEntity
  8
0
 62
     0
100
AcDbLine
 10
62.609196
 20
42.668831
 30
0.0
 11
62.609196
 21
42.668831
 31
0.0
  0
LINE
  5
41CB
100
AcDbEntity
  8
0
 62
     0
100
AcDbLine
 10
59.708009
 20
48.499763
 30
0.0
 11
59.708009
 21
48.499763
 31
0.0
  0
LINE
  5
41CC
100
AcDbEntity
  8
0
 62
     0
100
AcDbLine
 10
60.906084
 20
47.401928
 30
0.0
 11
60.906084
 21
47.401928
 31
0.0
  0
LINE
  5
41CD
100
AcDbEntity
  8
0
 62
     0
100
AcDbLine
 10
62.815633
 20
45.65215
 30
0.0
 11
62.815633
 21
45.65215
 31
0.0
  0
LINE
  5
41CE
100
AcDbEntity
  8
0
 62
     0
100
AcDbLine
 10
62.62394
 20
49.000287
 30
0.0
 11
62.62394
 21
49.000287
 31
0.0
  0
LINE
  5
41CF
100
AcDbEntity
  8
0
 62
     0
100
AcDbLine
 10
55.044736
 20
33.737965
 30
0.0
 11
55.044736
 21
33.737965
 31
0.0
  0
LINE
  5
41D0
100
AcDbEntity
  8
0
 62
     0
100
AcDbLine
 10
59.663778
 20
29.505393
 30
0.0
 11
59.663778
 21
29.505393
 31
0.0
  0
LINE
  5
41D1
100
AcDbEntity
  8
0
 62
     0
100
AcDbLine
 10
60.861854
 20
28.407559
 30
0.0
 11
60.861854
 21
28.407559
 31
0.0
  0
LINE
  5
41D2
100
AcDbEntity
  8
0
 62
     0
100
AcDbLine
 10
62.771402
 20
26.65778
 30
0.0
 11
62.771402
 21
26.65778
 31
0.0
  0
LINE
  5
41D3
100
AcDbEntity
  8
0
 62
     0
100
AcDbLine
 10
57.945923
 20
27.907034
 30
0.0
 11
57.945923
 21
27.907034
 31
0.0
  0
LINE
  5
41D4
100
AcDbEntity
  8
0
 62
     0
100
AcDbLine
 10
59.855471
 20
26.157255
 30
0.0
 11
59.855471
 21
26.157255
 31
0.0
  0
LINE
  5
41D5
100
AcDbEntity
  8
0
 62
     0
100
AcDbLine
 10
62.564966
 20
23.674461
 30
0.0
 11
62.564966
 21
23.674461
 31
0.0
  0
LINE
  5
41D6
100
AcDbEntity
  8
0
 62
     0
100
AcDbLine
 10
63.763041
 20
22.576627
 30
0.0
 11
63.763041
 21
22.576627
 31
0.0
  0
LINE
  5
41D7
100
AcDbEntity
  8
0
 62
     0
100
AcDbLine
 10
59.649035
 20
23.173936
 30
0.0
 11
59.649035
 21
23.173936
 31
0.0
  0
LINE
  5
41D8
100
AcDbEntity
  8
0
 62
     0
100
AcDbLine
 10
60.84711
 20
22.076102
 30
0.0
 11
60.84711
 21
22.076102
 31
0.0
  0
LINE
  5
41D9
100
AcDbEntity
  8
0
 62
     0
100
AcDbLine
 10
57.93118
 20
21.575577
 30
0.0
 11
57.93118
 21
21.575577
 31
0.0
  0
ENDBLK
  5
41DA
100
AcDbEntity
  8
0
100
AcDbBlockEnd
  0
ENDSEC
  0
SECTION
  2
ENTITIES
  0
TEXT
  5
2D
100
AcDbEntity
  8
DIM_TEXT
100
AcDbText
 10
46.852287
 20
37.637121
 30
0.0
 40
1.125
  1
6" %%C HOLE INTO
 51
15.0
  7
INFO
 11
46.852287
 21
38.199621
 31
0.0
100
AcDbText
 73
     2
  0
TEXT
  5
2F
100
AcDbEntity
  8
DRAWING
100
AcDbText
 10
25.689144
 20
5.21143
 30
0.0
 40
2.5
  1
LEDGER DETAIL
  7
TITLE
 72
     1
 11
41.165335
 21
5.21143
 31
0.0
100
AcDbText
  0
LWPOLYLINE
  5
2364
100
AcDbEntity
  8
DRAWING
100
AcDbPolyline
 90
        3
 70
     0
 43
0.0
 10
31.450606
 20
72.537689
 10
30.111626
 20
72.401294
 10
30.113547
 20
72.401294
  0
LWPOLYLINE
  5
23C0
100
AcDbEntity
  8
DRAWING
100
AcDbPolyline
 90
        3
 70
     0
 43
0.0
 10
62.21449
 20
47.973072
 10
62.21449
 20
55.859031
 10
62.216411
 20
55.859031
  0
LWPOLYLINE
  5
23C5
100
AcDbEntity
  8
DRAWING
100
AcDbPolyline
 90
        3
 70
     0
 43
0.0
 10
62.21449
 20
55.859031
 10
62.21449
 20
63.746911
 10
62.216411
 20
63.746911
  0
LWPOLYLINE
  5
23CA
100
AcDbEntity
  8
DRAWING
100
AcDbPolyline
 90
        3
 70
     0
 43
0.0
 10
60.87551
 20
63.612436
 10
62.21449
 20
63.746911
 10
62.216411
 20
63.746911
  0
LWPOLYLINE
  5
23CF
100
AcDbEntity
  8
DRAWING
100
AcDbPolyline
 90
        3
 70
     0
 43
0.0
 10
60.87551
 20
63.612436
 10
60.87551
 20
47.836677
 10
60.877431
 20
47.836677
  0
LWPOLYLINE
  5
23D4
100
AcDbEntity
  8
DRAWING
100
AcDbPolyline
 90
        3
 70
     0
 43
0.0
 10
62.21449
 20
47.973072
 10
60.87551
 20
47.836677
 10
60.877431
 20
47.836677
  0
LWPOLYLINE
  5
27EC
100
AcDbEntity
  8
DRAWING
100
AcDbPolyline
 90
        3
 70
     0
 43
0.0
 10
27.433666
 20
72.128503
 10
26.094686
 20
71.994029
 10
26.096607
 20
71.994029
  0
LWPOLYLINE
  5
28A6
100
AcDbEntity
  8
DRAWING
100
AcDbPolyline
 90
        3
 70
     0
 43
0.0
 10
60.87551
 20
47.836677
 10
26.094686
 20
56.218269
 10
26.096607
 20
56.218269
  0
LWPOLYLINE
  5
28AB
100
AcDbEntity
  8
DRAWING
100
AcDbPolyline
 90
        3
 70
     0
 43
0.0
 10
26.094686
 20
71.994029
 10
60.87551
 20
63.612436
 10
60.877431
 20
63.612436
  0
LWPOLYLINE
  5
28BA
100
AcDbEntity
  8
DRAWING
100
AcDbPolyline
 90
        3
 70
     0
 43
0.0
 10
66.231431
 20
64.156097
 10
31.450606
 20
72.537689
 10
31.452527
 20
72.537689
  0
LWPOLYLINE
  5
28C4
100
AcDbEntity
  8
DRAWING
100
AcDbPolyline
 90
        3
 70
     0
 43
0.0
 10
66.231431
 20
48.380337
 10
64.89245
 20
48.243942
 10
64.894372
 20
48.243942
  0
LWPOLYLINE
  5
28CE
100
AcDbEntity
  8
DRAWING
100
AcDbPolyline
 90
        3
 70
     0
 43
0.0
 10
64.89245
 20
64.019701
 10
66.231431
 20
64.156097
 10
66.233352
 20
64.156097
  0
LWPOLYLINE
  5
28D3
100
AcDbEntity
  8
DRAWING
100
AcDbPolyline
 90
        3
 70
     0
 43
0.0
 10
64.89245
 20
64.019701
 10
64.89245
 20
56.131822
 10
64.894372
 20
56.131822
  0
LWPOLYLINE
  5
2D84
100
AcDbEntity
  8
DRAWING
100
AcDbPolyline
 90
       14
 70
     0
 43
0.0
 10
69.462657
 20
54.08397
 10
69.447288
 20
54.149286
 10
69.406946
 20
54.19347
 10
69.351235
 20
54.204997
 10
69.295524
 20
54.181944
 10
69.255182
 20
54.130075
 10
69.239813
 20
54.062838
 10
69.255182
 20
53.997522
 10
69.295524
 20
53.953337
 10
69.351235
 20
53.941811
 10
69.406946
 20
53.964864
 10
69.447288
 20
54.016732
 10
69.462657
 20
54.08397
 10
69.464578
 20
54.08397
  0
LWPOLYLINE
  5
2DA8
100
AcDbEntity
  8
DRAWING
100
AcDbPolyline
 90
       26
 70
     0
 43
0.0
 10
43.295873
 20
55.526687
 10
43.305479
 20
55.65924
 10
43.334295
 20
55.780267
 10
43.3804
 20
55.878241
 10
43.439953
 20
55.9474
 10
43.509111
 20
55.981979
 10
43.585954
 20
55.981979
 10
43.660875
 20
55.945479
 10
43.730033
 20
55.87632
 10
43.789586
 20
55.778346
 10
43.835692
 20
55.65924
 10
43.864508
 20
55.524766
 10
43.874113
 20
55.38645
 10
43.864508
 20
55.251975
 10
43.835692
 20
55.132869
 10
43.789586
 20
55.034895
 10
43.730033
 20
54.965737
 10
43.660875
 20
54.929237
 10
43.585954
 20
54.931158
 10
43.509111
 20
54.965737
 10
43.439953
 20
55.034895
 10
43.3804
 20
55.132869
 10
43.334295
 20
55.253896
 10
43.305479
 20
55.388371
 10
43.295873
 20
55.526687
 10
43.297794
 20
55.526687
  0
LWPOLYLINE
  5
2DC4
100
AcDbEntity
  8
DRAWING
100
AcDbPolyline
 90
       26
 70
     0
 43
0.0
 10
34.599227
 20
57.620644
 10
34.608832
 20
57.755119
 10
34.637648
 20
57.874225
 10
34.683753
 20
57.972199
 10
34.745227
 20
58.041357
 10
34.814385
 20
58.077857
 10
34.889307
 20
58.077857
 10
34.964228
 20
58.041357
 10
35.035308
 20
57.972199
 10
35.09486
 20
57.874225
 10
35.140966
 20
57.753198
 10
35.169782
 20
57.620644
 10
35.179387
 20
57.482328
 10
35.169782
 20
57.347854
 10
35.140966
 20
57.228748
 10
35.09486
 20
57.130774
 10
35.035308
 20
57.061615
 10
34.964228
 20
57.025115
 10
34.889307
 20
57.025115
 10
34.814385
 20
57.061615
 10
34.745227
 20
57.130774
 10
34.683753
 20
57.228748
 10
34.637648
 20
57.349775
 10
34.608832
 20
57.482328
 10
34.599227
 20
57.620644
 10
34.601148
 20
57.620644
  0
LWPOLYLINE
  5
2DE0
100
AcDbEntity
  8
DRAWING
100
AcDbPolyline
 90
       26
 70
     0
 43
0.0
 10
25.904501
 20
59.716523
 10
25.914106
 20
59.850997
 10
25.942922
 20
59.970103
 10
25.989027
 20
60.068077
 10
26.04858
 20
60.137235
 10
26.11966
 20
60.173736
 10
26.194581
 20
60.173736
 10
26.269502
 20
60.137235
 10
26.338661
 20
60.068077
 10
26.398214
 20
59.970103
 10
26.444319
 20
59.849076
 10
26.475056
 20
59.716523
 10
26.484661
 20
59.578206
 10
26.475056
 20
59.443732
 10
26.444319
 20
59.324626
 10
26.398214
 20
59.226652
 10
26.338661
 20
59.157494
 10
26.269502
 20
59.120994
 10
26.194581
 20
59.120994
 10
26.11966
 20
59.157494
 10
26.04858
 20
59.226652
 10
25.989027
 20
59.324626
 10
25.942922
 20
59.443732
 10
25.914106
 20
59.578206
 10
25.904501
 20
59.716523
 10
25.906422
 20
59.716523
  0
LWPOLYLINE
  5
2DFC
100
AcDbEntity
  8
DRAWING
100
AcDbPolyline
 90
       26
 70
     0
 43
0.0
 10
17.209775
 20
61.812401
 10
17.21938
 20
61.946876
 10
17.248196
 20
62.065982
 10
17.294302
 20
62.163956
 10
17.353855
 20
62.233114
 10
17.423013
 20
62.267693
 10
17.497934
 20
62.267693
 10
17.572856
 20
62.233114
 10
17.643935
 20
62.163956
 10
17.703488
 20
62.06406
 10
17.749593
 20
61.944955
 10
17.778409
 20
61.81048
 10
17.788015
 20
61.672164
 10
17.778409
 20
61.539611
 10
17.749593
 20
61.418584
 10
17.703488
 20
61.32061
 10
17.643935
 20
61.251451
 10
17.572856
 20
61.216872
 10
17.497934
 20
61.216872
 10
17.423013
 20
61.253372
 10
17.353855
 20
61.322531
 10
17.294302
 20
61.420505
 10
17.248196
 20
61.539611
 10
17.21938
 20
61.674085
 10
17.209775
 20
61.812401
 10
17.211696
 20
61.812401
  0
LWPOLYLINE
  5
2E18
100
AcDbEntity
  8
DRAWING
100
AcDbPolyline
 90
        3
 70
     0
 43
0.0
 10
13.150571
 20
60.686659
 10
13.150571
 20
64.893785
 10
13.152492
 20
64.893785
  0
LWPOLYLINE
  5
2E1D
100
AcDbEntity
  8
DRAWING
100
AcDbPolyline
 90
        3
 70
     0
 43
0.0
 10
47.933317
 20
56.512192
 10
47.933317
 20
52.305066
 10
47.935238
 20
52.305066
  0
LWPOLYLINE
  5
2E22
100
AcDbEntity
  8
DRAWING
100
AcDbPolyline
 90
        3
 70
     0
 43
0.0
 10
13.150571
 20
64.893785
 10
14.937159
 20
65.074364
 10
14.93908
 20
65.074364
  0
LWPOLYLINE
  5
2E27
100
AcDbEntity
  8
DRAWING
100
AcDbPolyline
 90
        3
 70
     0
 43
0.0
 10
47.933317
 20
56.512192
 10
13.150571
 20
64.893785
 10
13.152492
 20
64.893785
  0
LWPOLYLINE
  5
2E2C
100
AcDbEntity
  8
DRAWING
100
AcDbPolyline
 90
        3
 70
     0
 43
0.0
 10
49.717983
 20
56.692772
 10
47.933317
 20
56.512192
 10
47.935238
 20
56.512192
  0
LWPOLYLINE
  5
2EA6
100
AcDbEntity
  8
DRAWING
100
AcDbPolyline
 90
        3
 70
     0
 43
0.0
 10
49.717983
 20
56.692772
 10
14.937159
 20
65.074364
 10
14.93908
 20
65.074364
  0
LWPOLYLINE
  5
2EAB
100
AcDbEntity
  8
DRAWING
100
AcDbPolyline
 90
        3
 70
     0
 43
0.0
 10
49.717983
 20
52.485646
 10
49.717983
 20
56.692772
 10
49.719904
 20
56.692772
  0
LWPOLYLINE
  5
2EB0
100
AcDbEntity
  8
DRAWING
100
AcDbPolyline
 90
        3
 70
     0
 43
0.0
 10
47.933317
 20
52.305066
 10
13.150571
 20
60.686659
 10
13.152492
 20
60.686659
  0
LWPOLYLINE
  5
2EBF
100
AcDbEntity
  8
DRAWING
100
AcDbPolyline
 90
        3
 70
     0
 43
0.0
 10
47.933317
 20
52.305066
 10
49.717983
 20
52.485646
 10
49.719904
 20
52.485646
  0
LWPOLYLINE
  5
3264
100
AcDbEntity
  8
DRAWING
100
AcDbPolyline
 90
        5
 70
     0
 43
0.0
 10
22.974881
 20
65.116628
 10
22.919171
 20
65.130075
 10
22.878828
 20
65.17426
 10
22.86346
 20
65.237655
 10
22.865381
 20
65.237655
  0
LWPOLYLINE
  5
326B
100
AcDbEntity
  8
DRAWING
100
AcDbPolyline
 90
        4
 70
     0
 43
0.0
 10
22.86346
 20
65.237655
 10
22.878828
 20
65.304892
 10
22.919171
 20
65.35676
 10
22.974881
 20
65.379813
  0
LWPOLYLINE
  5
3271
100
AcDbEntity
  8
DRAWING
100
AcDbPolyline
 90
       13
 70
     0
 43
0.0
 10
64.89245
 20
48.243942
 10
64.721476
 20
48.553233
 10
64.514001
 20
48.847155
 10
64.279632
 20
49.119946
 10
64.020288
 20
49.362
 10
63.749419
 20
49.565632
 10
63.470865
 20
49.723159
 10
63.194232
 20
49.834581
 10
62.931046
 20
49.892213
 10
62.68515
 20
49.896055
 10
62.466149
 20
49.844186
 10
62.279806
 20
49.740449
 10
62.21449
 20
49.673436
  0
LWPOLYLINE
  5
3280
100
AcDbEntity
  8
DRAWING
100
AcDbPolyline
 90
        2
 70
     0
 43
0.0
 10
62.21449
 20
47.973072
 10
62.216411
 20
47.973072
  0
LWPOLYLINE
  5
3284
100
AcDbEntity
  8
DRAWING
100
AcDbPolyline
 90
        2
 70
     0
 43
0.0
 10
64.89245
 20
48.243942
 10
62.21449
 20
48.889622
  0
LWPOLYLINE
  5
329C
100
AcDbEntity
  8
DRAWING
100
AcDbPolyline
 90
       13
 70
     0
 43
0.0
 10
64.89245
 20
56.131822
 10
64.721476
 20
56.441112
 10
64.514001
 20
56.735035
 10
64.279632
 20
57.007826
 10
64.020288
 20
57.24988
 10
63.749419
 20
57.451591
 10
63.470865
 20
57.611039
 10
63.194232
 20
57.722461
 10
62.931046
 20
57.780093
 10
62.68515
 20
57.783935
 10
62.466149
 20
57.732066
 10
62.279806
 20
57.628329
 10
62.21449
 20
57.561316
  0
LWPOLYLINE
  5
32AB
100
AcDbEntity
  8
DRAWING
100
AcDbPolyline
 90
        2
 70
     0
 43
0.0
 10
62.21449
 20
55.859031
 10
62.216411
 20
55.859031
  0
LWPOLYLINE
  5
32AF
100
AcDbEntity
  8
DRAWING
100
AcDbPolyline
 90
        2
 70
     0
 43
0.0
 10
66.231431
 20
64.156097
 10
66.231431
 20
54.956743
  0
LWPOLYLINE
  5
32B3
100
AcDbEntity
  8
DRAWING
100
AcDbPolyline
 90
        3
 70
     0
 43
0.0
 10
66.231431
 20
54.693557
 10
66.231431
 20
48.380337
 10
66.233352
 20
48.380337
  0
LWPOLYLINE
  5
32B8
100
AcDbEntity
  8
DRAWING
100
AcDbPolyline
 90
        2
 70
     0
 43
0.0
 10
64.89245
 20
56.131822
 10
64.89245
 20
55.279382
  0
LWPOLYLINE
  5
32BC
100
AcDbEntity
  8
DRAWING
100
AcDbPolyline
 90
        3
 70
     0
 43
0.0
 10
64.89245
 20
55.016197
 10
64.89245
 20
48.243942
 10
64.894372
 20
48.243942
  0
LWPOLYLINE
  5
32C1
100
AcDbEntity
  8
DRAWING
100
AcDbPolyline
 90
       10
 70
     0
 43
0.0
 10
62.21449
 20
54.698909
 10
62.279806
 20
54.66413
 10
62.466149
 20
54.625709
 10
62.68515
 20
54.62763
 10
62.931046
 20
54.671815
 10
63.194232
 20
54.756341
 10
63.470865
 20
54.879289
 10
63.749419
 20
55.034895
 10
64.020288
 20
55.221238
 10
64.025167
 20
55.225177
  0
LWPOLYLINE
  5
32CD
100
AcDbEntity
  8
DRAWING
100
AcDbPolyline
 90
        6
 70
     0
 43
0.0
 10
64.27621
 20
55.427871
 10
64.279632
 20
55.430634
 10
64.514001
 20
55.655398
 10
64.721476
 20
55.891689
 10
64.89245
 20
56.131822
 10
64.894372
 20
56.131822
  0
LWPOLYLINE
  5
32D5
100
AcDbEntity
  8
DRAWING
100
AcDbPolyline
 90
        4
 70
     0
 43
0.0
 10
61.705409
 20
64.788126
 10
61.749593
 20
64.461546
 10
61.739988
 20
64.140728
 10
61.685374
 20
63.874485
  0
LWPOLYLINE
  5
32DB
100
AcDbEntity
  8
DRAWING
100
AcDbPolyline
 90
        2
 70
     0
 43
0.0
 10
59.027449
 20
64.515335
 10
59.02937
 20
64.515335
  0
LWPOLYLINE
  5
32DF
100
AcDbEntity
  8
DRAWING
100
AcDbPolyline
 90
        5
 70
     0
 43
0.0
 10
58.981113
 20
64.526507
 10
59.146555
 20
64.766994
 10
59.290634
 20
65.053233
 10
59.386687
 20
65.347155
 10
59.388608
 20
65.347155
  0
LWPOLYLINE
  5
32E6
100
AcDbEntity
  8
DRAWING
100
AcDbPolyline
 90
        2
 70
     0
 43
0.0
 10
59.386687
 20
65.347155
 10
59.892635
 20
64.306731
  0
LWPOLYLINE
  5
32EA
100
AcDbEntity
  8
DRAWING
100
AcDbPolyline
 90
        2
 70
     0
 43
0.0
 10
59.027449
 20
64.515335
 10
59.02937
 20
64.515335
  0
LWPOLYLINE
  5
32EE
100
AcDbEntity
  8
DRAWING
100
AcDbPolyline
 90
        4
 70
     0
 43
0.0
 10
57.356125
 20
65.835105
 10
57.40223
 20
65.508524
 10
57.392625
 20
65.187707
 10
57.338243
 20
64.922592
  0
LWPOLYLINE
  5
32F4
100
AcDbEntity
  8
DRAWING
100
AcDbPolyline
 90
        2
 70
     0
 43
0.0
 10
54.678165
 20
65.564235
 10
54.680086
 20
65.564235
  0
LWPOLYLINE
  5
32F8
100
AcDbEntity
  8
DRAWING
100
AcDbPolyline
 90
        3
 70
     0
 43
0.0
 10
56.850957
 20
65.040073
 10
57.356125
 20
65.835105
 10
57.358046
 20
65.835105
  0
LWPOLYLINE
  5
32FD
100
AcDbEntity
  8
DRAWING
100
AcDbPolyline
 90
        2
 70
     0
 43
0.0
 10
55.037403
 20
66.394134
 10
55.543309
 20
65.35552
  0
LWPOLYLINE
  5
3301
100
AcDbEntity
  8
DRAWING
100
AcDbPolyline
 90
        2
 70
     0
 43
0.0
 10
54.678165
 20
65.564235
 10
54.680086
 20
65.564235
  0
LWPOLYLINE
  5
3305
100
AcDbEntity
  8
DRAWING
100
AcDbPolyline
 90
        5
 70
     0
 43
0.0
 10
54.63461
 20
65.574736
 10
54.799192
 20
65.813973
 10
54.94135
 20
66.102132
 10
55.037403
 20
66.394134
 10
55.039324
 20
66.394134
  0
LWPOLYLINE
  5
330C
100
AcDbEntity
  8
DRAWING
100
AcDbPolyline
 90
        4
 70
     0
 43
0.0
 10
53.008762
 20
66.884005
 10
53.052946
 20
66.555503
 10
53.045262
 20
66.236607
 10
52.990789
 20
65.971051
  0
LWPOLYLINE
  5
3312
100
AcDbEntity
  8
DRAWING
100
AcDbPolyline
 90
        2
 70
     0
 43
0.0
 10
50.330802
 20
66.611214
 10
50.332723
 20
66.611214
  0
LWPOLYLINE
  5
3316
100
AcDbEntity
  8
DRAWING
100
AcDbPolyline
 90
        3
 70
     0
 43
0.0
 10
52.503801
 20
66.08846
 10
53.008762
 20
66.884005
 10
53.010683
 20
66.884005
  0
LWPOLYLINE
  5
331B
100
AcDbEntity
  8
DRAWING
100
AcDbPolyline
 90
        2
 70
     0
 43
0.0
 10
50.69004
 20
67.443034
 10
51.1962
 20
66.403059
  0
LWPOLYLINE
  5
331F
100
AcDbEntity
  8
DRAWING
100
AcDbPolyline
 90
        3
 70
     0
 43
0.0
 10
61.19861
 20
63.991848
 10
61.705409
 20
64.788126
 10
61.70733
 20
64.788126
  0
LWPOLYLINE
  5
3324
100
AcDbEntity
  8
DRAWING
100
AcDbPolyline
 90
       14
 70
     0
 43
0.0
 10
62.21449
 20
62.586789
 10
62.279806
 20
62.55201
 10
62.466149
 20
62.513589
 10
62.68515
 20
62.51551
 10
62.931046
 20
62.559694
 10
63.194232
 20
62.644221
 10
63.470865
 20
62.767169
 10
63.749419
 20
62.922775
 10
64.020288
 20
63.109118
 10
64.279632
 20
63.316593
 10
64.514001
 20
63.543278
 10
64.721476
 20
63.779569
 10
64.89245
 20
64.019701
 10
64.894372
 20
64.019701
  0
LWPOLYLINE
  5
3334
100
AcDbEntity
  8
DRAWING
100
AcDbPolyline
 90
        5
 70
     0
 43
0.0
 10
37.242505
 20
69.765211
 10
37.407819
 20
70.003809
 10
37.551899
 20
70.291968
 10
37.647952
 20
70.585891
 10
37.649873
 20
70.585891
  0
LWPOLYLINE
  5
333B
100
AcDbEntity
  8
DRAWING
100
AcDbPolyline
 90
        2
 70
     0
 43
0.0
 10
37.647952
 20
70.585891
 10
38.153163
 20
69.546145
  0
LWPOLYLINE
  5
333F
100
AcDbEntity
  8
DRAWING
100
AcDbPolyline
 90
        2
 70
     0
 43
0.0
 10
37.288713
 20
69.754071
 10
37.290634
 20
69.754071
  0
LWPOLYLINE
  5
3343
100
AcDbEntity
  8
DRAWING
100
AcDbPolyline
 90
        4
 70
     0
 43
0.0
 10
39.966673
 20
70.026862
 10
40.010858
 20
69.700281
 10
40.001252
 20
69.379464
 10
39.94687
 20
69.114349
  0
LWPOLYLINE
  5
3349
100
AcDbEntity
  8
DRAWING
100
AcDbPolyline
 90
        2
 70
     0
 43
0.0
 10
37.288713
 20
69.754071
 10
37.290634
 20
69.754071
  0
LWPOLYLINE
  5
334D
100
AcDbEntity
  8
DRAWING
100
AcDbPolyline
 90
        3
 70
     0
 43
0.0
 10
39.460986
 20
69.231493
 10
39.966673
 20
70.026862
 10
39.968594
 20
70.026862
  0
LWPOLYLINE
  5
3352
100
AcDbEntity
  8
DRAWING
100
AcDbPolyline
 90
        5
 70
     0
 43
0.0
 10
41.590873
 20
68.71799
 10
41.755182
 20
68.95683
 10
41.899261
 20
69.24499
 10
41.995315
 20
69.536991
 10
41.997236
 20
69.536991
  0
LWPOLYLINE
  5
3359
100
AcDbEntity
  8
DRAWING
100
AcDbPolyline
 90
        2
 70
     0
 43
0.0
 10
41.636076
 20
68.707092
 10
41.637997
 20
68.707092
  0
LWPOLYLINE
  5
335D
100
AcDbEntity
  8
DRAWING
100
AcDbPolyline
 90
        4
 70
     0
 43
0.0
 10
44.314036
 20
68.979883
 10
44.358221
 20
68.651381
 10
44.350536
 20
68.332485
 10
44.296021
 20
68.065018
  0
LWPOLYLINE
  5
3363
100
AcDbEntity
  8
DRAWING
100
AcDbPolyline
 90
        2
 70
     0
 43
0.0
 10
41.636076
 20
68.707092
 10
41.637997
 20
68.707092
  0
LWPOLYLINE
  5
3367
100
AcDbEntity
  8
DRAWING
100
AcDbPolyline
 90
        2
 70
     0
 43
0.0
 10
41.995315
 20
69.536991
 10
42.50038
 20
68.498383
  0
LWPOLYLINE
  5
336B
100
AcDbEntity
  8
DRAWING
100
AcDbPolyline
 90
        5
 70
     0
 43
0.0
 10
45.937103
 20
67.669364
 10
46.102545
 20
67.909852
 10
46.246624
 20
68.19609
 10
46.342677
 20
68.490012
 10
46.344599
 20
68.490012
  0
LWPOLYLINE
  5
3372
100
AcDbEntity
  8
DRAWING
100
AcDbPolyline
 90
        3
 70
     0
 43
0.0
 10
43.80729
 20
68.182848
 10
44.314036
 20
68.979883
 10
44.315957
 20
68.979883
  0
LWPOLYLINE
  5
3377
100
AcDbEntity
  8
DRAWING
100
AcDbPolyline
 90
        2
 70
     0
 43
0.0
 10
45.983439
 20
67.658192
 10
45.98536
 20
67.658192
  0
LWPOLYLINE
  5
337B
100
AcDbEntity
  8
DRAWING
100
AcDbPolyline
 90
        4
 70
     0
 43
0.0
 10
48.661399
 20
67.930983
 10
48.705584
 20
67.604403
 10
48.697899
 20
67.283585
 10
48.643426
 20
67.018029
  0
LWPOLYLINE
  5
3381
100
AcDbEntity
  8
DRAWING
100
AcDbPolyline
 90
        2
 70
     0
 43
0.0
 10
45.983439
 20
67.658192
 10
45.98536
 20
67.658192
  0
LWPOLYLINE
  5
3385
100
AcDbEntity
  8
DRAWING
100
AcDbPolyline
 90
        2
 70
     0
 43
0.0
 10
46.342677
 20
68.490012
 10
46.8493
 20
67.449927
  0
LWPOLYLINE
  5
3389
100
AcDbEntity
  8
DRAWING
100
AcDbPolyline
 90
        5
 70
     0
 43
0.0
 10
50.286056
 20
66.622002
 10
50.449908
 20
66.860952
 10
50.593987
 20
67.149111
 10
50.69004
 20
67.443034
 10
50.691961
 20
67.443034
  0
LWPOLYLINE
  5
3390
100
AcDbEntity
  8
DRAWING
100
AcDbPolyline
 90
        3
 70
     0
 43
0.0
 10
48.155976
 20
67.13555
 10
48.661399
 20
67.930983
 10
48.66332
 20
67.930983
  0
LWPOLYLINE
  5
3395
100
AcDbEntity
  8
DRAWING
100
AcDbPolyline
 90
        2
 70
     0
 43
0.0
 10
50.330802
 20
66.611214
 10
50.332723
 20
66.611214
  0
LINE
  5
3399
100
AcDbEntity
  8
DRAWING
100
AcDbLine
 10
30.113547
 20
72.401294
 30
0.0
 11
30.113547
 21
71.484363
 31
0.0
  0
LWPOLYLINE
  5
339A
100
AcDbEntity
  8
DRAWING
100
AcDbPolyline
 90
        5
 70
     0
 43
0.0
 10
30.111626
 20
72.401294
 10
30.242258
 20
72.090082
 10
30.328706
 20
71.782712
 10
30.367127
 20
71.490711
 10
30.364744
 20
71.423985
  0
LWPOLYLINE
  5
33A1
100
AcDbEntity
  8
DRAWING
100
AcDbPolyline
 90
        2
 70
     0
 43
0.0
 10
27.433666
 20
72.128503
 10
27.435587
 20
72.128503
  0
LWPOLYLINE
  5
33A5
100
AcDbEntity
  8
DRAWING
100
AcDbPolyline
 90
        4
 70
     0
 43
0.0
 10
35.61931
 20
71.07384
 10
35.663495
 20
70.74726
 10
35.653889
 20
70.426443
 10
35.599507
 20
70.161328
  0
LWPOLYLINE
  5
33AB
100
AcDbEntity
  8
DRAWING
100
AcDbPolyline
 90
        2
 70
     0
 43
0.0
 10
32.94135
 20
70.802971
 10
32.943271
 20
70.802971
  0
LWPOLYLINE
  5
33AF
100
AcDbEntity
  8
DRAWING
100
AcDbPolyline
 90
        2
 70
     0
 43
0.0
 10
33.300589
 20
71.632869
 10
33.805654
 20
70.594261
  0
LWPOLYLINE
  5
33B3
100
AcDbEntity
  8
DRAWING
100
AcDbPolyline
 90
        5
 70
     0
 43
0.0
 10
32.896148
 20
70.813869
 10
33.060456
 20
71.052709
 10
33.204536
 20
71.338947
 10
33.300589
 20
71.632869
 10
33.30251
 20
71.632869
  0
LWPOLYLINE
  5
33BA
100
AcDbEntity
  8
DRAWING
100
AcDbPolyline
 90
        2
 70
     0
 43
0.0
 10
32.94135
 20
70.802971
 10
32.943271
 20
70.802971
  0
LWPOLYLINE
  5
33BE
100
AcDbEntity
  8
DRAWING
100
AcDbPolyline
 90
        3
 70
     0
 43
0.0
 10
35.113161
 20
70.278583
 10
35.61931
 20
71.07384
 10
35.621231
 20
71.07384
  0
LINE
  5
33C3
100
AcDbEntity
  8
DRAWING
100
AcDbLine
 10
64.894372
 20
64.019701
 30
0.0
 11
30.111626
 21
72.401294
 31
0.0
  0
LINE
  5
33C4
100
AcDbEntity
  8
DRAWING
100
AcDbLine
 10
27.433666
 20
72.128503
 30
0.0
 11
62.21449
 21
63.746911
 31
0.0
  0
LWPOLYLINE
  5
33C5
100
AcDbEntity
  8
DRAWING
100
AcDbPolyline
 90
        2
 70
     0
 43
0.0
 10
26.094686
 20
71.994029
 10
26.094686
 20
62.385588
  0
LWPOLYLINE
  5
33C9
100
AcDbEntity
  8
DRAWING
100
AcDbPolyline
 90
        3
 70
     0
 43
0.0
 10
26.094686
 20
57.567518
 10
26.094686
 20
56.218269
 10
26.096607
 20
56.218269
  0
LWPOLYLINE
  5
33CE
100
AcDbEntity
  8
HATCH
100
AcDbPolyline
 90
        2
 70
     0
 43
0.0
 10
49.717983
 20
56.692772
 10
47.933317
 20
52.305066
  0
LWPOLYLINE
  5
33D2
100
AcDbEntity
  8
HATCH
100
AcDbPolyline
 90
        2
 70
     0
 43
0.0
 10
47.933317
 20
56.512192
 10
49.717983
 20
52.485646
  0
LWPOLYLINE
  5
33E4
100
AcDbEntity
  8
DRAWING
100
AcDbPolyline
 90
        5
 70
     0
 43
0.0
 10
57.083334
 20
56.416139
 10
57.142887
 20
56.212506
 10
57.196677
 20
56.070348
 10
57.254309
 20
55.939715
 10
57.298427
 20
55.857967
  0
LWPOLYLINE
  5
33EB
100
AcDbEntity
  8
DRAWING
100
AcDbPolyline
 90
        3
 70
     0
 43
0.0
 10
57.098053
 20
57.819456
 10
57.083334
 20
57.77625
 10
57.085255
 20
57.77625
  0
LWPOLYLINE
  5
33F0
100
AcDbEntity
  8
DRAWING
100
AcDbPolyline
 90
        5
 70
     0
 43
0.0
 10
48.386687
 20
58.512017
 10
48.448161
 20
58.308385
 10
48.50003
 20
58.166226
 10
48.559583
 20
58.035594
 10
48.603167
 20
57.952388
  0
LWPOLYLINE
  5
33F7
100
AcDbEntity
  8
DRAWING
100
AcDbPolyline
 90
        3
 70
     0
 43
0.0
 10
48.402205
 20
59.916258
 10
48.386687
 20
59.872129
 10
48.388608
 20
59.872129
  0
LWPOLYLINE
  5
33FC
100
AcDbEntity
  8
DRAWING
100
AcDbPolyline
 90
        5
 70
     0
 43
0.0
 10
39.691961
 20
60.607896
 10
39.751514
 20
60.404263
 10
39.805304
 20
60.262104
 10
39.864857
 20
60.131472
 10
39.908441
 20
60.048266
  0
LWPOLYLINE
  5
3403
100
AcDbEntity
  8
DRAWING
100
AcDbPolyline
 90
        3
 70
     0
 43
0.0
 10
39.706857
 20
62.011733
 10
39.691961
 20
61.968007
 10
39.693883
 20
61.968007
  0
LWPOLYLINE
  5
3408
100
AcDbEntity
  8
DRAWING
100
AcDbPolyline
 90
        3
 70
     0
 43
0.0
 10
31.011724
 20
64.106415
 10
30.997236
 20
64.063886
 10
30.999157
 20
64.063886
  0
LWPOLYLINE
  5
340D
100
AcDbEntity
  8
DRAWING
100
AcDbPolyline
 90
        5
 70
     0
 43
0.0
 10
30.997236
 20
62.703774
 10
31.056789
 20
62.500141
 10
31.110578
 20
62.357983
 10
31.16821
 20
62.227351
 10
31.212208
 20
62.143354
  0
LWPOLYLINE
  5
3414
100
AcDbEntity
  8
DRAWING
100
AcDbPolyline
 90
        2
 70
     0
 43
0.0
 10
22.974881
 20
65.379813
 10
26.094686
 20
64.628067
  0
LWPOLYLINE
  5
3418
100
AcDbEntity
  8
DRAWING
100
AcDbPolyline
 90
        3
 70
     0
 43
0.0
 10
62.21449
 20
55.924662
 10
69.351235
 20
54.204997
 10
69.353156
 20
54.204997
  0
LWPOLYLINE
  5
341D
100
AcDbEntity
  8
DRAWING
100
AcDbPolyline
 90
        2
 70
     0
 43
0.0
 10
22.974881
 20
65.116628
 10
26.094686
 20
64.364882
  0
LWPOLYLINE
  5
3421
100
AcDbEntity
  8
DRAWING
100
AcDbPolyline
 90
        3
 70
     0
 43
0.0
 10
62.21449
 20
55.661477
 10
69.351235
 20
53.941811
 10
69.353156
 20
53.941811
  0
LINE
  5
3426
100
AcDbEntity
  8
HIDDEN
100
AcDbLine
 10
62.21449
 20
55.661477
 30
0.0
 11
26.094686
 21
64.364882
 31
0.0
  0
LINE
  5
3427
100
AcDbEntity
  8
HIDDEN
100
AcDbLine
 10
26.094686
 20
64.628067
 30
0.0
 11
62.21449
 21
55.924662
 31
0.0
  0
LWPOLYLINE
  5
3755
100
AcDbEntity
  8
DRAWING
100
AcDbPolyline
 90
       15
 70
     0
 43
0.0
 10
54.645507
 20
57.382433
 10
54.743481
 20
57.378591
 10
54.839534
 20
57.336327
 10
54.931745
 20
57.255643
 10
55.014351
 20
57.1423
 10
55.083509
 20
57.000141
 10
55.135377
 20
56.838772
 10
55.166114
 20
56.663956
 10
55.177641
 20
56.485297
 10
55.166114
 20
56.312401
 10
55.135377
 20
56.152953
 10
55.083509
 20
56.016558
 10
55.014351
 20
55.908978
 10
54.931745
 20
55.834057
 10
54.839534
 20
55.797557
  0
LWPOLYLINE
  5
3766
100
AcDbEntity
  8
DRAWING
100
AcDbPolyline
 90
        3
 70
     0
 43
0.0
 10
54.854902
 20
56.487218
 10
54.68777
 20
57.053931
 10
54.689691
 20
57.053931
  0
LWPOLYLINE
  5
376B
100
AcDbEntity
  8
DRAWING
100
AcDbPolyline
 90
        3
 70
     0
 43
0.0
 10
54.240163
 20
57.007826
 10
54.409216
 20
56.441112
 10
54.411137
 20
56.441112
  0
LWPOLYLINE
  5
3770
100
AcDbEntity
  8
DRAWING
100
AcDbPolyline
 90
        5
 70
     0
 43
0.0
 10
54.225968
 20
56.487955
 10
54.214441
 20
56.591692
 10
54.183704
 20
56.683903
 10
54.135678
 20
56.753062
 10
54.079967
 20
56.78572
  0
LWPOLYLINE
  5
3777
100
AcDbEntity
  8
DRAWING
100
AcDbPolyline
 90
       13
 70
     0
 43
0.0
 10
54.954798
 20
56.462244
 10
54.943271
 20
56.640903
 10
54.912534
 20
56.81572
 10
54.860666
 20
56.977089
 10
54.791507
 20
57.119247
 10
54.708902
 20
57.23259
 10
54.616691
 20
57.313275
 10
54.520638
 20
57.355538
 10
54.422664
 20
57.35938
 10
54.330453
 20
57.32288
 10
54.249768
 20
57.24988
 10
54.18061
 20
57.140379
 10
54.17128
 20
57.115846
  0
LWPOLYLINE
  5
3786
100
AcDbEntity
  8
DRAWING
100
AcDbPolyline
 90
        3
 70
     0
 43
0.0
 10
54.079967
 20
56.78572
 10
52.956893
 20
56.67164
 10
52.958814
 20
56.67164
  0
LWPOLYLINE
  5
378B
100
AcDbEntity
  8
DRAWING
100
AcDbPolyline
 90
        3
 70
     0
 43
0.0
 10
54.079967
 20
56.259349
 10
52.956893
 20
56.145269
 10
52.958814
 20
56.145269
  0
LWPOLYLINE
  5
3790
100
AcDbEntity
  8
DRAWING
100
AcDbPolyline
 90
       18
 70
     0
 43
0.0
 10
53.102894
 20
56.373875
 10
53.091368
 20
56.477613
 10
53.060631
 20
56.569824
 10
53.012604
 20
56.638982
 10
52.956893
 20
56.67164
 10
52.903104
 20
56.665877
 10
52.855077
 20
56.619771
 10
52.82434
 20
56.541008
 10
52.812814
 20
56.443034
 10
52.82434
 20
56.341217
 10
52.855077
 20
56.247085
 10
52.903104
 20
56.179848
 10
52.956893
 20
56.145269
 10
53.012604
 20
56.152953
 10
53.060631
 20
56.199059
 10
53.091368
 20
56.275901
 10
53.102894
 20
56.373875
 10
53.104815
 20
56.373875
  0
LWPOLYLINE
  5
37A4
100
AcDbEntity
  8
DRAWING
100
AcDbPolyline
 90
        3
 70
     0
 43
0.0
 10
54.240163
 20
55.955084
 10
53.905898
 20
56.035768
 10
53.907819
 20
56.035768
  0
LWPOLYLINE
  5
37A9
100
AcDbEntity
  8
DRAWING
100
AcDbPolyline
 90
        6
 70
     0
 43
0.0
 10
54.079967
 20
56.259349
 10
54.135678
 20
56.267033
 10
54.183704
 20
56.313138
 10
54.214441
 20
56.389981
 10
54.225968
 20
56.487955
 10
54.227889
 20
56.487955
  0
LWPOLYLINE
  5
37B1
100
AcDbEntity
  8
DRAWING
100
AcDbPolyline
 90
        2
 70
     0
 43
0.0
 10
53.905898
 20
56.035768
 10
53.846941
 20
56.235678
  0
LWPOLYLINE
  5
37B5
100
AcDbEntity
  8
DRAWING
100
AcDbPolyline
 90
        3
 70
     0
 43
0.0
 10
54.68777
 20
56.001189
 10
54.240163
 20
55.955084
 10
54.242084
 20
55.955084
  0
LWPOLYLINE
  5
37BA
100
AcDbEntity
  8
DRAWING
100
AcDbPolyline
 90
        3
 70
     0
 43
0.0
 10
54.854902
 20
56.487218
 10
54.409216
 20
56.441112
 10
54.411137
 20
56.441112
  0
LWPOLYLINE
  5
37BF
100
AcDbEntity
  8
DRAWING
100
AcDbPolyline
 90
        3
 70
     0
 43
0.0
 10
54.68777
 20
56.001189
 10
54.854902
 20
56.487218
 10
54.856823
 20
56.487218
  0
LWPOLYLINE
  5
37C4
100
AcDbEntity
  8
DRAWING
100
AcDbPolyline
 90
        3
 70
     0
 43
0.0
 10
54.409216
 20
56.441112
 10
54.240163
 20
55.955084
 10
54.242084
 20
55.955084
  0
LWPOLYLINE
  5
37C9
100
AcDbEntity
  8
DRAWING
100
AcDbPolyline
 90
       12
 70
     0
 43
0.0
 10
54.289883
 20
55.960205
 10
54.330453
 20
55.903215
 10
54.422664
 20
55.822531
 10
54.520638
 20
55.778346
 10
54.616691
 20
55.774504
 10
54.708902
 20
55.811004
 10
54.791507
 20
55.885926
 10
54.860666
 20
55.993505
 10
54.912534
 20
56.131822
 10
54.943271
 20
56.289349
 10
54.954798
 20
56.462244
 10
54.956719
 20
56.462244
  0
LINE
  5
37D7
100
AcDbEntity
  8
DRAWING
100
AcDbLine
 10
54.616691
 20
55.774504
 30
0.0
 11
54.839534
 21
55.797557
 31
0.0
  0
LWPOLYLINE
  5
37D8
100
AcDbEntity
  8
DRAWING
100
AcDbPolyline
 90
        3
 70
     0
 43
0.0
 10
53.905898
 20
57.08851
 10
54.240163
 20
57.007826
 10
54.242084
 20
57.007826
  0
LWPOLYLINE
  5
37DD
100
AcDbEntity
  8
DRAWING
100
AcDbPolyline
 90
        3
 70
     0
 43
0.0
 10
54.353505
 20
57.134616
 10
53.905898
 20
57.08851
 10
53.907819
 20
57.08851
  0
LWPOLYLINE
  5
37E2
100
AcDbEntity
  8
DRAWING
100
AcDbPolyline
 90
        3
 70
     0
 43
0.0
 10
53.791707
 20
56.756439
 10
53.905898
 20
57.08851
 10
53.907819
 20
57.08851
  0
LWPOLYLINE
  5
37E7
100
AcDbEntity
  8
DRAWING
100
AcDbPolyline
 90
        3
 70
     0
 43
0.0
 10
54.68777
 20
57.053931
 10
54.240163
 20
57.007826
 10
54.242084
 20
57.007826
  0
LWPOLYLINE
  5
37EC
100
AcDbEntity
  8
DRAWING
100
AcDbPolyline
 90
        3
 70
     0
 43
0.0
 10
54.68777
 20
57.053931
 10
54.353505
 20
57.134616
 10
54.355426
 20
57.134616
  0
LINE
  5
37F1
100
AcDbEntity
  8
DRAWING
100
AcDbLine
 10
54.422664
 20
57.35938
 30
0.0
 11
54.645507
 21
57.382433
 31
0.0
  0
LWPOLYLINE
  5
37FA
100
AcDbEntity
  8
HIDDEN
100
AcDbPolyline
 90
        3
 70
     0
 43
0.0
 10
59.62682
 20
56.840693
 10
59.60953
 20
55.009921
 10
59.611451
 20
55.009921
  0
LWPOLYLINE
  5
37FF
100
AcDbEntity
  8
HIDDEN
100
AcDbPolyline
 90
        3
 70
     0
 43
0.0
 10
60.141665
 20
57.313275
 10
60.141665
 20
55.006079
 10
60.143586
 20
55.006079
  0
LWPOLYLINE
  5
381C
100
AcDbEntity
  8
HIDDEN
100
AcDbPolyline
 90
        5
 70
     0
 43
0.0
 10
60.020638
 20
57.076984
 10
59.909216
 20
56.955957
 10
59.792031
 20
56.867588
 10
59.690215
 20
56.825325
 10
59.62682
 20
56.840693
  0
LWPOLYLINE
  5
3823
100
AcDbEntity
  8
HIDDEN
100
AcDbPolyline
 90
        6
 70
     0
 43
0.0
 10
60.06098
 20
57.397801
 10
60.126296
 20
57.382433
 10
60.141665
 20
57.313275
 10
60.103243
 20
57.203774
 10
60.020638
 20
57.076984
 10
60.022559
 20
57.076984
  0
LWPOLYLINE
  5
382B
100
AcDbEntity
  8
DRAWING
100
AcDbPolyline
 90
       22
 70
     0
 43
0.0
 10
57.398388
 20
56.562139
 10
57.386862
 20
56.811877
 10
57.356125
 20
57.059694
 10
57.302335
 20
57.301748
 10
57.231256
 20
57.528433
 10
57.142887
 20
57.73975
 10
57.03915
 20
57.924172
 10
56.923886
 20
58.081699
 10
56.797096
 20
58.206568
 10
56.664543
 20
58.296858
 10
56.528147
 20
58.348727
 10
56.391752
 20
58.362174
 10
56.259199
 20
58.337201
 10
56.13433
 20
58.271884
 10
56.017145
 20
58.170068
 10
55.913407
 20
58.035594
 10
55.825039
 20
57.868461
 10
55.753959
 20
57.674434
 10
55.702091
 20
57.459275
 10
55.669433
 20
57.224906
 10
55.659827
 20
56.980931
 10
55.661132
 20
56.947002
  0
LWPOLYLINE
  5
3843
100
AcDbEntity
  8
DRAWING
100
AcDbPolyline
 90
       20
 70
     0
 43
0.0
 10
55.714059
 20
56.427523
 10
55.753959
 20
56.241322
 10
55.825039
 20
56.014637
 10
55.913407
 20
55.805241
 10
56.017145
 20
55.618898
 10
56.13433
 20
55.461371
 10
56.259199
 20
55.336502
 10
56.391752
 20
55.246212
 10
56.528147
 20
55.194343
 10
56.664543
 20
55.180896
 10
56.797096
 20
55.20587
 10
56.923886
 20
55.271186
 10
57.03915
 20
55.373002
 10
57.142887
 20
55.507476
 10
57.231256
 20
55.674609
 10
57.302335
 20
55.868636
 10
57.356125
 20
56.085716
 10
57.386862
 20
56.318165
 10
57.398388
 20
56.562139
 10
57.400309
 20
56.562139
  0
LWPOLYLINE
  5
3859
100
AcDbEntity
  8
DRAWING
100
AcDbPolyline
 90
        5
 70
     0
 43
0.0
 10
57.083334
 20
57.77625
 10
57.035308
 20
57.570697
 10
57.006492
 20
57.347854
 10
56.998807
 20
57.117326
 10
56.999886
 20
57.084168
  0
LWPOLYLINE
  5
3860
100
AcDbEntity
  8
DRAWING
100
AcDbPolyline
 90
        3
 70
     0
 43
0.0
 10
57.051539
 20
56.568755
 10
57.083334
 20
56.416139
 10
57.085255
 20
56.416139
  0
LWPOLYLINE
  5
3865
100
AcDbEntity
  8
DRAWING
100
AcDbPolyline
 90
        2
 70
     0
 43
0.0
 10
57.396402
 20
56.605171
 10
55.169959
 20
56.370068
  0
LWPOLYLINE
  5
3869
100
AcDbEntity
  8
DRAWING
100
AcDbPolyline
 90
        2
 70
     0
 43
0.0
 10
57.342877
 20
57.11931
 10
55.118461
 20
56.891401
  0
LINE
  5
386D
100
AcDbEntity
  8
HIDDEN
100
AcDbLine
 10
57.342877
 20
57.11931
 30
0.0
 11
60.06098
 21
57.397801
 31
0.0
  0
LINE
  5
386E
100
AcDbEntity
  8
HIDDEN
100
AcDbLine
 10
59.62682
 20
56.840693
 30
0.0
 11
57.396402
 21
56.605171
 31
0.0
  0
LWPOLYLINE
  5
3883
100
AcDbEntity
  8
HIDDEN
100
AcDbPolyline
 90
       11
 70
     0
 43
0.0
 10
60.141665
 20
55.006079
 10
60.124375
 20
54.992632
 10
60.082112
 20
54.983027
 10
60.020638
 20
54.973421
 10
59.943795
 20
54.967658
 10
59.86119
 20
54.967658
 10
59.780505
 20
54.969579
 10
59.707505
 20
54.975342
 10
59.651794
 20
54.984948
 10
59.619136
 20
54.998395
 10
59.60953
 20
55.009921
  0
LINE
  5
3C29
100
AcDbEntity
  8
HIDDEN
100
AcDbLine
 10
39.951504
 20
61.311067
 30
0.0
 11
42.669607
 21
61.589558
 31
0.0
  0
LINE
  5
3C2A
100
AcDbEntity
  8
HIDDEN
100
AcDbLine
 10
42.235447
 20
61.03245
 30
0.0
 11
40.00503
 21
60.796928
 31
0.0
  0
LINE
  5
3C2B
100
AcDbEntity
  8
DRAWING
100
AcDbLine
 10
28.334644
 20
63.647015
 30
0.0
 11
28.557487
 21
63.670068
 31
0.0
  0
LWPOLYLINE
  5
3C2C
100
AcDbEntity
  8
DRAWING
100
AcDbPolyline
 90
        3
 70
     0
 43
0.0
 10
28.59975
 20
63.341567
 10
28.265486
 20
63.422251
 10
28.267407
 20
63.422251
  0
LWPOLYLINE
  5
3C31
100
AcDbEntity
  8
DRAWING
100
AcDbPolyline
 90
        3
 70
     0
 43
0.0
 10
28.59975
 20
63.341567
 10
28.152143
 20
63.295461
 10
28.154064
 20
63.295461
  0
LWPOLYLINE
  5
3C36
100
AcDbEntity
  8
DRAWING
100
AcDbPolyline
 90
       12
 70
     0
 43
0.0
 10
28.201864
 20
62.247841
 10
28.242433
 20
62.190851
 10
28.334644
 20
62.110166
 10
28.432618
 20
62.065982
 10
28.528671
 20
62.062139
 10
28.620882
 20
62.09864
 10
28.703488
 20
62.173561
 10
28.772646
 20
62.28114
 10
28.824515
 20
62.419457
 10
28.855252
 20
62.576984
 10
28.866778
 20
62.74988
 10
28.868699
 20
62.74988
  0
LWPOLYLINE
  5
3C44
100
AcDbEntity
  8
DRAWING
100
AcDbPolyline
 90
        3
 70
     0
 43
0.0
 10
28.59975
 20
62.288825
 10
28.152143
 20
62.242719
 10
28.154064
 20
62.242719
  0
LWPOLYLINE
  5
3C49
100
AcDbEntity
  8
DRAWING
100
AcDbPolyline
 90
        3
 70
     0
 43
0.0
 10
28.766883
 20
62.774853
 10
28.321197
 20
62.728748
 10
28.323118
 20
62.728748
  0
LWPOLYLINE
  5
3C4E
100
AcDbEntity
  8
DRAWING
100
AcDbPolyline
 90
       13
 70
     0
 43
0.0
 10
28.866778
 20
62.74988
 10
28.855252
 20
62.928538
 10
28.824515
 20
63.103355
 10
28.772646
 20
63.264724
 10
28.703488
 20
63.406883
 10
28.620882
 20
63.520225
 10
28.528671
 20
63.60091
 10
28.432618
 20
63.643173
 10
28.334644
 20
63.647015
 10
28.242433
 20
63.610515
 10
28.161748
 20
63.537515
 10
28.09259
 20
63.428014
 10
28.083261
 20
63.403481
  0
LWPOLYLINE
  5
3C5D
100
AcDbEntity
  8
DRAWING
100
AcDbPolyline
 90
       18
 70
     0
 43
0.0
 10
27.014874
 20
62.661511
 10
27.003348
 20
62.765248
 10
26.972611
 20
62.857459
 10
26.924585
 20
62.926617
 10
26.868874
 20
62.959275
 10
26.815084
 20
62.953512
 10
26.767057
 20
62.907407
 10
26.736321
 20
62.828643
 10
26.724794
 20
62.730669
 10
26.736321
 20
62.628853
 10
26.767057
 20
62.534721
 10
26.815084
 20
62.467483
 10
26.868874
 20
62.432904
 10
26.924585
 20
62.440589
 10
26.972611
 20
62.486694
 10
27.003348
 20
62.563537
 10
27.014874
 20
62.661511
 10
27.016796
 20
62.661511
  0
LWPOLYLINE
  5
3C71
100
AcDbEntity
  8
DRAWING
100
AcDbPolyline
 90
        3
 70
     0
 43
0.0
 10
27.991947
 20
62.546984
 10
26.868874
 20
62.432904
 10
26.870795
 20
62.432904
  0
LWPOLYLINE
  5
3C76
100
AcDbEntity
  8
DRAWING
100
AcDbPolyline
 90
        3
 70
     0
 43
0.0
 10
27.991947
 20
63.073355
 10
26.868874
 20
62.959275
 10
26.870795
 20
62.959275
  0
LWPOLYLINE
  5
3C7B
100
AcDbEntity
  8
DRAWING
100
AcDbPolyline
 90
        3
 70
     0
 43
0.0
 10
27.703688
 20
63.044074
 10
27.817878
 20
63.376146
 10
27.819799
 20
63.376146
  0
LWPOLYLINE
  5
3C80
100
AcDbEntity
  8
DRAWING
100
AcDbPolyline
 90
        3
 70
     0
 43
0.0
 10
27.817878
 20
63.376146
 10
28.152143
 20
63.295461
 10
28.154064
 20
63.295461
  0
LWPOLYLINE
  5
3C85
100
AcDbEntity
  8
DRAWING
100
AcDbPolyline
 90
        3
 70
     0
 43
0.0
 10
28.265486
 20
63.422251
 10
27.817878
 20
63.376146
 10
27.819799
 20
63.376146
  0
LWPOLYLINE
  5
3C8A
100
AcDbEntity
  8
DRAWING
100
AcDbPolyline
 90
        3
 70
     0
 43
0.0
 10
28.321197
 20
62.728748
 10
28.152143
 20
62.242719
 10
28.154064
 20
62.242719
  0
LWPOLYLINE
  5
3C8F
100
AcDbEntity
  8
DRAWING
100
AcDbPolyline
 90
        2
 70
     0
 43
0.0
 10
27.817878
 20
62.323404
 10
27.758922
 20
62.523314
  0
LWPOLYLINE
  5
3C93
100
AcDbEntity
  8
DRAWING
100
AcDbPolyline
 90
        3
 70
     0
 43
0.0
 10
28.152143
 20
62.242719
 10
27.817878
 20
62.323404
 10
27.819799
 20
62.323404
  0
LWPOLYLINE
  5
3C98
100
AcDbEntity
  8
DRAWING
100
AcDbPolyline
 90
        6
 70
     0
 43
0.0
 10
27.991947
 20
62.546984
 10
28.047658
 20
62.554668
 10
28.095685
 20
62.600774
 10
28.126422
 20
62.677616
 10
28.137948
 20
62.77559
 10
28.139869
 20
62.77559
  0
LWPOLYLINE
  5
3CA0
100
AcDbEntity
  8
DRAWING
100
AcDbPolyline
 90
        5
 70
     0
 43
0.0
 10
28.137948
 20
62.77559
 10
28.126422
 20
62.879328
 10
28.095685
 20
62.971539
 10
28.047658
 20
63.040697
 10
27.991947
 20
63.073355
  0
LWPOLYLINE
  5
3CA7
100
AcDbEntity
  8
DRAWING
100
AcDbPolyline
 90
        3
 70
     0
 43
0.0
 10
28.152143
 20
63.295461
 10
28.321197
 20
62.728748
 10
28.323118
 20
62.728748
  0
LWPOLYLINE
  5
3CAC
100
AcDbEntity
  8
HIDDEN
100
AcDbPolyline
 90
        3
 70
     0
 43
0.0
 10
33.5388
 20
63.128329
 10
33.521511
 20
61.297557
 10
33.523432
 20
61.297557
  0
LWPOLYLINE
  5
3CB1
100
AcDbEntity
  8
HIDDEN
100
AcDbPolyline
 90
        3
 70
     0
 43
0.0
 10
34.053645
 20
63.60091
 10
34.053645
 20
61.293715
 10
34.055566
 20
61.293715
  0
LWPOLYLINE
  5
3CB6
100
AcDbEntity
  8
DRAWING
100
AcDbPolyline
 90
       13
 70
     0
 43
0.0
 10
37.563425
 20
60.654001
 10
37.551899
 20
60.83266
 10
37.521162
 20
61.007476
 10
37.469293
 20
61.168846
 10
37.400135
 20
61.311004
 10
37.317529
 20
61.424347
 10
37.225318
 20
61.505031
 10
37.129265
 20
61.547295
 10
37.031291
 20
61.551137
 10
36.93908
 20
61.514637
 10
36.858395
 20
61.441636
 10
36.789237
 20
61.332136
 10
36.779908
 20
61.307603
  0
LWPOLYLINE
  5
3CC5
100
AcDbEntity
  8
DRAWING
100
AcDbPolyline
 90
       15
 70
     0
 43
0.0
 10
37.254134
 20
61.57419
 10
37.352108
 20
61.570348
 10
37.448161
 20
61.528084
 10
37.540372
 20
61.4474
 10
37.622978
 20
61.334057
 10
37.692136
 20
61.191898
 10
37.744005
 20
61.030529
 10
37.774742
 20
60.855713
 10
37.786268
 20
60.677054
 10
37.774742
 20
60.504158
 10
37.744005
 20
60.34471
 10
37.692136
 20
60.208315
 10
37.622978
 20
60.100735
 10
37.540372
 20
60.025814
 10
37.448161
 20
59.989314
  0
LWPOLYLINE
  5
3CD6
100
AcDbEntity
  8
HIDDEN
100
AcDbPolyline
 90
       11
 70
     0
 43
0.0
 10
34.053645
 20
61.293715
 10
34.036355
 20
61.280267
 10
33.994092
 20
61.270662
 10
33.932618
 20
61.261057
 10
33.855776
 20
61.255293
 10
33.77317
 20
61.255293
 10
33.692485
 20
61.257214
 10
33.619485
 20
61.262978
 10
33.563774
 20
61.272583
 10
33.531116
 20
61.28603
 10
33.521511
 20
61.297557
  0
LWPOLYLINE
  5
3CE3
100
AcDbEntity
  8
DRAWING
100
AcDbPolyline
 90
        2
 70
     0
 43
0.0
 10
39.951504
 20
61.311067
 10
37.727088
 20
61.083158
  0
LWPOLYLINE
  5
3CE7
100
AcDbEntity
  8
DRAWING
100
AcDbPolyline
 90
        2
 70
     0
 43
0.0
 10
40.00503
 20
60.796928
 10
37.778586
 20
60.561825
  0
LWPOLYLINE
  5
3CEB
100
AcDbEntity
  8
DRAWING
100
AcDbPolyline
 90
        3
 70
     0
 43
0.0
 10
36.514525
 20
61.280267
 10
36.84879
 20
61.199583
 10
36.850711
 20
61.199583
  0
LWPOLYLINE
  5
3CF0
100
AcDbEntity
  8
DRAWING
100
AcDbPolyline
 90
        3
 70
     0
 43
0.0
 10
36.962133
 20
61.326373
 10
36.514525
 20
61.280267
 10
36.516446
 20
61.280267
  0
LWPOLYLINE
  5
3CF5
100
AcDbEntity
  8
DRAWING
100
AcDbPolyline
 90
        3
 70
     0
 43
0.0
 10
36.84879
 20
60.146841
 10
36.514525
 20
60.227525
 10
36.516446
 20
60.227525
  0
LWPOLYLINE
  5
3CFA
100
AcDbEntity
  8
DRAWING
100
AcDbPolyline
 90
        6
 70
     0
 43
0.0
 10
36.688594
 20
60.451106
 10
36.744305
 20
60.45879
 10
36.792332
 20
60.504895
 10
36.823069
 20
60.581738
 10
36.834595
 20
60.679712
 10
36.836516
 20
60.679712
  0
LWPOLYLINE
  5
3D02
100
AcDbEntity
  8
DRAWING
100
AcDbPolyline
 90
        5
 70
     0
 43
0.0
 10
36.834595
 20
60.679712
 10
36.823069
 20
60.783449
 10
36.792332
 20
60.87566
 10
36.744305
 20
60.944819
 10
36.688594
 20
60.977477
  0
LWPOLYLINE
  5
3D09
100
AcDbEntity
  8
DRAWING
100
AcDbPolyline
 90
        3
 70
     0
 43
0.0
 10
36.688594
 20
60.451106
 10
35.565521
 20
60.337026
 10
35.567442
 20
60.337026
  0
LWPOLYLINE
  5
3D0E
100
AcDbEntity
  8
DRAWING
100
AcDbPolyline
 90
        3
 70
     0
 43
0.0
 10
36.688594
 20
60.977477
 10
35.565521
 20
60.863397
 10
35.567442
 20
60.863397
  0
LWPOLYLINE
  5
3D13
100
AcDbEntity
  8
DRAWING
100
AcDbPolyline
 90
       18
 70
     0
 43
0.0
 10
35.711521
 20
60.565632
 10
35.699995
 20
60.66937
 10
35.669258
 20
60.761581
 10
35.621231
 20
60.830739
 10
35.565521
 20
60.863397
 10
35.511731
 20
60.857634
 10
35.463704
 20
60.811528
 10
35.432967
 20
60.732765
 10
35.421441
 20
60.63479
 10
35.432967
 20
60.532974
 10
35.463704
 20
60.438842
 10
35.511731
 20
60.371605
 10
35.565521
 20
60.337026
 10
35.621231
 20
60.34471
 10
35.669258
 20
60.390816
 10
35.699995
 20
60.467658
 10
35.711521
 20
60.565632
 10
35.713442
 20
60.565632
  0
LWPOLYLINE
  5
3D27
100
AcDbEntity
  8
DRAWING
100
AcDbPolyline
 90
        3
 70
     0
 43
0.0
 10
36.400335
 20
60.948196
 10
36.514525
 20
61.280267
 10
36.516446
 20
61.280267
  0
LWPOLYLINE
  5
3D2C
100
AcDbEntity
  8
DRAWING
100
AcDbPolyline
 90
        2
 70
     0
 43
0.0
 10
36.514525
 20
60.227525
 10
36.455569
 20
60.427435
  0
LWPOLYLINE
  5
3D30
100
AcDbEntity
  8
DRAWING
100
AcDbPolyline
 90
        3
 70
     0
 43
0.0
 10
37.296397
 20
61.245688
 10
36.962133
 20
61.326373
 10
36.964054
 20
61.326373
  0
LWPOLYLINE
  5
3D35
100
AcDbEntity
  8
DRAWING
100
AcDbPolyline
 90
        3
 70
     0
 43
0.0
 10
37.296397
 20
61.245688
 10
36.84879
 20
61.199583
 10
36.850711
 20
61.199583
  0
LWPOLYLINE
  5
3D3A
100
AcDbEntity
  8
DRAWING
100
AcDbPolyline
 90
       12
 70
     0
 43
0.0
 10
36.898511
 20
60.151962
 10
36.93908
 20
60.094972
 10
37.031291
 20
60.014287
 10
37.129265
 20
59.970103
 10
37.225318
 20
59.966261
 10
37.317529
 20
60.002761
 10
37.400135
 20
60.077683
 10
37.469293
 20
60.185262
 10
37.521162
 20
60.323578
 10
37.551899
 20
60.481105
 10
37.563425
 20
60.654001
 10
37.565346
 20
60.654001
  0
LWPOLYLINE
  5
3D48
100
AcDbEntity
  8
DRAWING
100
AcDbPolyline
 90
        3
 70
     0
 43
0.0
 10
37.017843
 20
60.632869
 10
36.84879
 20
60.146841
 10
36.850711
 20
60.146841
  0
LWPOLYLINE
  5
3D4D
100
AcDbEntity
  8
DRAWING
100
AcDbPolyline
 90
        3
 70
     0
 43
0.0
 10
37.296397
 20
60.192946
 10
37.46353
 20
60.678975
 10
37.465451
 20
60.678975
  0
LINE
  5
3D52
100
AcDbEntity
  8
DRAWING
100
AcDbLine
 10
37.225318
 20
59.966261
 30
0.0
 11
37.448161
 21
59.989314
 31
0.0
  0
LWPOLYLINE
  5
3D53
100
AcDbEntity
  8
DRAWING
100
AcDbPolyline
 90
        3
 70
     0
 43
0.0
 10
37.296397
 20
60.192946
 10
36.84879
 20
60.146841
 10
36.850711
 20
60.146841
  0
LWPOLYLINE
  5
3D58
100
AcDbEntity
  8
DRAWING
100
AcDbPolyline
 90
        3
 70
     0
 43
0.0
 10
37.46353
 20
60.678975
 10
37.017843
 20
60.632869
 10
37.019764
 20
60.632869
  0
LWPOLYLINE
  5
3D5D
100
AcDbEntity
  8
DRAWING
100
AcDbPolyline
 90
        3
 70
     0
 43
0.0
 10
36.84879
 20
61.199583
 10
37.017843
 20
60.632869
 10
37.019764
 20
60.632869
  0
LWPOLYLINE
  5
3D62
100
AcDbEntity
  8
DRAWING
100
AcDbPolyline
 90
        3
 70
     0
 43
0.0
 10
37.46353
 20
60.678975
 10
37.296397
 20
61.245688
 10
37.298318
 20
61.245688
  0
LWPOLYLINE
  5
3D67
100
AcDbEntity
  8
DRAWING
100
AcDbPolyline
 90
        3
 70
     0
 43
0.0
 10
39.660166
 20
60.760512
 10
39.691961
 20
60.607896
 10
39.693883
 20
60.607896
  0
LINE
  5
3D6C
100
AcDbEntity
  8
HIDDEN
100
AcDbLine
 10
31.254857
 20
63.406946
 30
0.0
 11
33.97296
 21
63.685437
 31
0.0
  0
LINE
  5
3D6D
100
AcDbEntity
  8
HIDDEN
100
AcDbLine
 10
33.5388
 20
63.128329
 30
0.0
 11
31.308383
 21
62.892806
 31
0.0
  0
LWPOLYLINE
  5
3D6E
100
AcDbEntity
  8
DRAWING
100
AcDbPolyline
 90
        2
 70
     0
 43
0.0
 10
31.254857
 20
63.406946
 10
29.030441
 20
63.179037
  0
LWPOLYLINE
  5
3D72
100
AcDbEntity
  8
DRAWING
100
AcDbPolyline
 90
        2
 70
     0
 43
0.0
 10
31.308383
 20
62.892806
 10
29.081939
 20
62.657704
  0
LWPOLYLINE
  5
3D76
100
AcDbEntity
  8
DRAWING
100
AcDbPolyline
 90
        3
 70
     0
 43
0.0
 10
28.59975
 20
62.288825
 10
28.766883
 20
62.774853
 10
28.768804
 20
62.774853
  0
LINE
  5
3D7B
100
AcDbEntity
  8
DRAWING
100
AcDbLine
 10
28.528671
 20
62.062139
 30
0.0
 11
28.751514
 21
62.085192
 31
0.0
  0
LWPOLYLINE
  5
3D7C
100
AcDbEntity
  8
DRAWING
100
AcDbPolyline
 90
        3
 70
     0
 43
0.0
 10
28.766883
 20
62.774853
 10
28.59975
 20
63.341567
 10
28.601672
 20
63.341567
  0
LWPOLYLINE
  5
3D81
100
AcDbEntity
  8
DRAWING
100
AcDbPolyline
 90
       15
 70
     0
 43
0.0
 10
28.557487
 20
63.670068
 10
28.655461
 20
63.666226
 10
28.751514
 20
63.623963
 10
28.843725
 20
63.543278
 10
28.926331
 20
63.429935
 10
28.995489
 20
63.287777
 10
29.047358
 20
63.126408
 10
29.078095
 20
62.951591
 10
29.089621
 20
62.772932
 10
29.078095
 20
62.600037
 10
29.047358
 20
62.440589
 10
28.995489
 20
62.304193
 10
28.926331
 20
62.196614
 10
28.843725
 20
62.121692
 10
28.751514
 20
62.085192
  0
LWPOLYLINE
  5
3D92
100
AcDbEntity
  8
DRAWING
100
AcDbPolyline
 90
        3
 70
     0
 43
0.0
 10
30.96352
 20
62.85639
 10
30.995315
 20
62.703774
 10
30.997236
 20
62.703774
  0
LWPOLYLINE
  5
3D97
100
AcDbEntity
  8
HIDDEN
100
AcDbPolyline
 90
        6
 70
     0
 43
0.0
 10
33.97296
 20
63.685437
 10
34.038276
 20
63.670068
 10
34.053645
 20
63.60091
 10
34.015224
 20
63.491409
 10
33.932618
 20
63.364619
 10
33.934539
 20
63.364619
  0
LWPOLYLINE
  5
3D9F
100
AcDbEntity
  8
HIDDEN
100
AcDbPolyline
 90
        5
 70
     0
 43
0.0
 10
33.932618
 20
63.364619
 10
33.821197
 20
63.243592
 10
33.704012
 20
63.155224
 10
33.602195
 20
63.11296
 10
33.5388
 20
63.128329
  0
LWPOLYLINE
  5
3DA6
100
AcDbEntity
  8
DRAWING
100
AcDbPolyline
 90
        2
 70
     0
 43
0.0
 10
36.126471
 20
62.146666
 10
36.128392
 20
62.146666
  0
LINE
  5
3DAA
100
AcDbEntity
  8
DRAWING
100
AcDbLine
 10
37.031291
 20
61.551137
 30
0.0
 11
37.254134
 21
61.57419
 31
0.0
  0
LWPOLYLINE
  5
3DAB
100
AcDbEntity
  8
HIDDEN
100
AcDbPolyline
 90
        6
 70
     0
 43
0.0
 10
42.669607
 20
61.589558
 10
42.734923
 20
61.57419
 10
42.750292
 20
61.505031
 10
42.711871
 20
61.395531
 10
42.629265
 20
61.268741
 10
42.631186
 20
61.268741
  0
LWPOLYLINE
  5
3DB3
100
AcDbEntity
  8
DRAWING
100
AcDbPolyline
 90
        2
 70
     0
 43
0.0
 10
48.64623
 20
59.215189
 10
46.421814
 20
58.98728
  0
LWPOLYLINE
  5
3DB7
100
AcDbEntity
  8
DRAWING
100
AcDbPolyline
 90
        2
 70
     0
 43
0.0
 10
48.699755
 20
58.701049
 10
46.473312
 20
58.465947
  0
LWPOLYLINE
  5
3DBB
100
AcDbEntity
  8
DRAWING
100
AcDbPolyline
 90
        3
 70
     0
 43
0.0
 10
45.38332
 20
58.355227
 10
44.260246
 20
58.241147
 10
44.262168
 20
58.241147
  0
LWPOLYLINE
  5
3DC0
100
AcDbEntity
  8
DRAWING
100
AcDbPolyline
 90
        3
 70
     0
 43
0.0
 10
45.38332
 20
58.881598
 10
44.260246
 20
58.767518
 10
44.262168
 20
58.767518
  0
LWPOLYLINE
  5
3DC5
100
AcDbEntity
  8
HIDDEN
100
AcDbPolyline
 90
        5
 70
     0
 43
0.0
 10
42.629265
 20
61.268741
 10
42.517843
 20
61.147714
 10
42.400659
 20
61.059345
 10
42.298842
 20
61.017082
 10
42.235447
 20
61.03245
  0
LWPOLYLINE
  5
3DCC
100
AcDbEntity
  8
HIDDEN
100
AcDbPolyline
 90
       11
 70
     0
 43
0.0
 10
42.750292
 20
59.197836
 10
42.733002
 20
59.184389
 10
42.690739
 20
59.174783
 10
42.629265
 20
59.165178
 10
42.552422
 20
59.159415
 10
42.469817
 20
59.159415
 10
42.389132
 20
59.161336
 10
42.316132
 20
59.167099
 10
42.260421
 20
59.176705
 10
42.227763
 20
59.190152
 10
42.218158
 20
59.201678
  0
LWPOLYLINE
  5
3DD9
100
AcDbEntity
  8
HIDDEN
100
AcDbPolyline
 90
        3
 70
     0
 43
0.0
 10
42.235447
 20
61.03245
 10
42.218158
 20
59.201678
 10
42.220079
 20
59.201678
  0
LWPOLYLINE
  5
3DDE
100
AcDbEntity
  8
HIDDEN
100
AcDbPolyline
 90
        3
 70
     0
 43
0.0
 10
42.750292
 20
61.505031
 10
42.750292
 20
59.197836
 10
42.752213
 20
59.197836
  0
LWPOLYLINE
  5
3DE3
100
AcDbEntity
  8
DRAWING
100
AcDbPolyline
 90
       18
 70
     0
 43
0.0
 10
44.406247
 20
58.469754
 10
44.394721
 20
58.573491
 10
44.363984
 20
58.665702
 10
44.315957
 20
58.73486
 10
44.260246
 20
58.767518
 10
44.206457
 20
58.761755
 10
44.15843
 20
58.71565
 10
44.127693
 20
58.636886
 10
44.116167
 20
58.538912
 10
44.127693
 20
58.437096
 10
44.15843
 20
58.342964
 10
44.206457
 20
58.275727
 10
44.260246
 20
58.241147
 10
44.315957
 20
58.248832
 10
44.363984
 20
58.294937
 10
44.394721
 20
58.37178
 10
44.406247
 20
58.469754
 10
44.408168
 20
58.469754
  0
LWPOLYLINE
  5
3DF7
100
AcDbEntity
  8
DRAWING
100
AcDbPolyline
 90
        2
 70
     0
 43
0.0
 10
44.823118
 20
60.050788
 10
44.825039
 20
60.050788
  0
LWPOLYLINE
  5
3DFB
100
AcDbEntity
  8
DRAWING
100
AcDbPolyline
 90
        3
 70
     0
 43
0.0
 10
45.991123
 20
59.14981
 10
45.543516
 20
59.103704
 10
45.545437
 20
59.103704
  0
LWPOLYLINE
  5
3E00
100
AcDbEntity
  8
DRAWING
100
AcDbPolyline
 90
        3
 70
     0
 43
0.0
 10
45.09506
 20
58.852317
 10
45.209251
 20
59.184389
 10
45.211172
 20
59.184389
  0
LWPOLYLINE
  5
3E05
100
AcDbEntity
  8
DRAWING
100
AcDbPolyline
 90
        3
 70
     0
 43
0.0
 10
45.209251
 20
59.184389
 10
45.543516
 20
59.103704
 10
45.545437
 20
59.103704
  0
LWPOLYLINE
  5
3E0A
100
AcDbEntity
  8
DRAWING
100
AcDbPolyline
 90
       13
 70
     0
 43
0.0
 10
46.258151
 20
58.558123
 10
46.246624
 20
58.736781
 10
46.215887
 20
58.911598
 10
46.164019
 20
59.072967
 10
46.09486
 20
59.215126
 10
46.012255
 20
59.328468
 10
45.920044
 20
59.409153
 10
45.823991
 20
59.451416
 10
45.726017
 20
59.455258
 10
45.633806
 20
59.418758
 10
45.553121
 20
59.345758
 10
45.483963
 20
59.236257
 10
45.474633
 20
59.211724
  0
LWPOLYLINE
  5
3E19
100
AcDbEntity
  8
DRAWING
100
AcDbPolyline
 90
        3
 70
     0
 43
0.0
 10
46.158256
 20
58.583096
 10
45.991123
 20
59.14981
 10
45.993044
 20
59.14981
  0
LWPOLYLINE
  5
3E1E
100
AcDbEntity
  8
DRAWING
100
AcDbPolyline
 90
       15
 70
     0
 43
0.0
 10
45.94886
 20
59.478311
 10
46.046834
 20
59.474469
 10
46.142887
 20
59.432206
 10
46.235098
 20
59.351521
 10
46.317704
 20
59.238178
 10
46.386862
 20
59.09602
 10
46.438731
 20
58.934651
 10
46.469468
 20
58.759834
 10
46.480994
 20
58.581175
 10
46.469468
 20
58.40828
 10
46.438731
 20
58.248832
 10
46.386862
 20
58.112436
 10
46.317704
 20
58.004857
 10
46.235098
 20
57.929935
 10
46.142887
 20
57.893435
  0
LWPOLYLINE
  5
3E2F
100
AcDbEntity
  8
DRAWING
100
AcDbPolyline
 90
       12
 70
     0
 43
0.0
 10
45.593236
 20
58.056084
 10
45.633806
 20
57.999094
 10
45.726017
 20
57.918409
 10
45.823991
 20
57.874225
 10
45.920044
 20
57.870382
 10
46.012255
 20
57.906883
 10
46.09486
 20
57.981804
 10
46.164019
 20
58.089384
 10
46.215887
 20
58.2277
 10
46.246624
 20
58.385227
 10
46.258151
 20
58.558123
 10
46.260072
 20
58.558123
  0
LWPOLYLINE
  5
3E3D
100
AcDbEntity
  8
DRAWING
100
AcDbPolyline
 90
        3
 70
     0
 43
0.0
 10
45.991123
 20
58.097068
 10
45.543516
 20
58.050962
 10
45.545437
 20
58.050962
  0
LWPOLYLINE
  5
3E42
100
AcDbEntity
  8
DRAWING
100
AcDbPolyline
 90
        3
 70
     0
 43
0.0
 10
46.158256
 20
58.583096
 10
45.712569
 20
58.536991
 10
45.71449
 20
58.536991
  0
LWPOLYLINE
  5
3E47
100
AcDbEntity
  8
DRAWING
100
AcDbPolyline
 90
        3
 70
     0
 43
0.0
 10
45.712569
 20
58.536991
 10
45.543516
 20
58.050962
 10
45.545437
 20
58.050962
  0
LWPOLYLINE
  5
3E4C
100
AcDbEntity
  8
DRAWING
100
AcDbPolyline
 90
        2
 70
     0
 43
0.0
 10
45.209251
 20
58.131647
 10
45.150294
 20
58.331557
  0
LWPOLYLINE
  5
3E50
100
AcDbEntity
  8
DRAWING
100
AcDbPolyline
 90
        3
 70
     0
 43
0.0
 10
45.543516
 20
58.050962
 10
45.209251
 20
58.131647
 10
45.211172
 20
58.131647
  0
LWPOLYLINE
  5
3E55
100
AcDbEntity
  8
DRAWING
100
AcDbPolyline
 90
        6
 70
     0
 43
0.0
 10
45.38332
 20
58.355227
 10
45.439031
 20
58.362911
 10
45.487057
 20
58.409017
 10
45.517794
 20
58.485859
 10
45.529321
 20
58.583834
 10
45.531242
 20
58.583834
  0
LWPOLYLINE
  5
3E5D
100
AcDbEntity
  8
DRAWING
100
AcDbPolyline
 90
        5
 70
     0
 43
0.0
 10
45.529321
 20
58.583834
 10
45.517794
 20
58.687571
 10
45.487057
 20
58.779782
 10
45.439031
 20
58.84894
 10
45.38332
 20
58.881598
  0
LWPOLYLINE
  5
3E64
100
AcDbEntity
  8
DRAWING
100
AcDbPolyline
 90
        3
 70
     0
 43
0.0
 10
45.543516
 20
59.103704
 10
45.712569
 20
58.536991
 10
45.71449
 20
58.536991
  0
LWPOLYLINE
  5
3E69
100
AcDbEntity
  8
DRAWING
100
AcDbPolyline
 90
        3
 70
     0
 43
0.0
 10
45.991123
 20
58.097068
 10
46.158256
 20
58.583096
 10
46.160177
 20
58.583096
  0
LINE
  5
3E6E
100
AcDbEntity
  8
DRAWING
100
AcDbLine
 10
45.920044
 20
57.870382
 30
0.0
 11
46.142887
 21
57.893435
 31
0.0
  0
LINE
  5
3E6F
100
AcDbEntity
  8
DRAWING
100
AcDbLine
 10
45.726017
 20
59.455258
 30
0.0
 11
45.94886
 21
59.478311
 31
0.0
  0
LWPOLYLINE
  5
3E70
100
AcDbEntity
  8
DRAWING
100
AcDbPolyline
 90
        3
 70
     0
 43
0.0
 10
45.991123
 20
59.14981
 10
45.656858
 20
59.230494
 10
45.658779
 20
59.230494
  0
LWPOLYLINE
  5
3E75
100
AcDbEntity
  8
DRAWING
100
AcDbPolyline
 90
        3
 70
     0
 43
0.0
 10
45.656858
 20
59.230494
 10
45.209251
 20
59.184389
 10
45.211172
 20
59.184389
  0
LWPOLYLINE
  5
3E7A
100
AcDbEntity
  8
DRAWING
100
AcDbPolyline
 90
        3
 70
     0
 43
0.0
 10
48.354892
 20
58.664633
 10
48.386687
 20
58.512017
 10
48.388608
 20
58.512017
  0
LINE
  5
3E7F
100
AcDbEntity
  8
HIDDEN
100
AcDbLine
 10
48.64623
 20
59.215189
 30
0.0
 11
51.364333
 21
59.49368
 31
0.0
  0
LINE
  5
3E80
100
AcDbEntity
  8
HIDDEN
100
AcDbLine
 10
50.930173
 20
58.936572
 30
0.0
 11
48.699755
 21
58.701049
 31
0.0
  0
LWPOLYLINE
  5
3E81
100
AcDbEntity
  8
HIDDEN
100
AcDbPolyline
 90
        5
 70
     0
 43
0.0
 10
51.323991
 20
59.172862
 10
51.212569
 20
59.051836
 10
51.095384
 20
58.963467
 10
50.993568
 20
58.921203
 10
50.930173
 20
58.936572
  0
LWPOLYLINE
  5
3E88
100
AcDbEntity
  8
HIDDEN
100
AcDbPolyline
 90
        3
 70
     0
 43
0.0
 10
51.445018
 20
59.409153
 10
51.445018
 20
57.101958
 10
51.446939
 20
57.101958
  0
LWPOLYLINE
  5
3E8D
100
AcDbEntity
  8
HIDDEN
100
AcDbPolyline
 90
       11
 70
     0
 43
0.0
 10
51.445018
 20
57.101958
 10
51.427728
 20
57.08851
 10
51.385465
 20
57.078905
 10
51.323991
 20
57.0693
 10
51.247148
 20
57.063537
 10
51.164543
 20
57.063537
 10
51.083858
 20
57.065458
 10
51.010858
 20
57.071221
 10
50.955147
 20
57.080826
 10
50.922489
 20
57.094274
 10
50.912884
 20
57.1058
  0
LWPOLYLINE
  5
3E9A
100
AcDbEntity
  8
HIDDEN
100
AcDbPolyline
 90
        3
 70
     0
 43
0.0
 10
50.930173
 20
58.936572
 10
50.912884
 20
57.1058
 10
50.914805
 20
57.1058
  0
LWPOLYLINE
  5
3E9F
100
AcDbEntity
  8
HIDDEN
100
AcDbPolyline
 90
        6
 70
     0
 43
0.0
 10
51.364333
 20
59.49368
 10
51.429649
 20
59.478311
 10
51.445018
 20
59.409153
 10
51.406596
 20
59.299652
 10
51.323991
 20
59.172862
 10
51.325912
 20
59.172862
  0
LINE
  5
3EA7
100
AcDbEntity
  8
DRAWING
100
AcDbLine
 10
39.198834
 20
42.9375
 30
0.0
 11
39.198834
 21
15.0625
 31
0.0
  0
LINE
  5
3EA8
100
AcDbEntity
  8
DRAWING
100
AcDbLine
 10
27.198834
 20
42.9375
 30
0.0
 11
27.198834
 21
29.35
 31
0.0
  0
LINE
  5
3EA9
100
AcDbEntity
  8
DRAWING
100
AcDbLine
 10
33.190199
 20
42.856478
 30
0.0
 11
33.190199
 21
29.35
 31
0.0
  0
LINE
  5
3EAA
100
AcDbEntity
  8
DRAWING
100
AcDbLine
 10
36.198834
 20
42.9375
 30
0.0
 11
36.198834
 21
15.0625
 31
0.0
  0
LINE
  5
3EAB
100
AcDbEntity
  8
DRAWING
100
AcDbLine
 10
30.198834
 20
42.9375
 30
0.0
 11
30.198834
 21
29.35
 31
0.0
  0
ARC
  5
3EAD
100
AcDbEntity
  8
DRAWING
100
AcDbCircle
 10
33.198834
 20
29.0
 30
0.0
 40
3.0
100
AcDbArc
 50
186.699765
 51
282.513325
  0
LWPOLYLINE
  5
3EB9
100
AcDbEntity
  8
HATCH
100
AcDbPolyline
 90
        6
 70
     0
 43
0.0
 10
24.924969
 20
42.9375
 10
31.630142
 20
42.9375
 10
31.19282
 20
44.9375
 10
35.017323
 20
40.9375
 10
34.636258
 20
42.9375
 10
41.748881
 20
42.9375
  0
LWPOLYLINE
  5
3EC1
100
AcDbEntity
  8
HATCH
100
AcDbPolyline
 90
        6
 70
     0
 43
0.0
 10
24.924969
 20
15.0625
 10
31.630142
 20
15.0625
 10
31.19282
 20
17.0625
 10
35.017323
 20
13.0625
 10
34.636258
 20
15.0625
 10
41.748881
 20
15.0625
  0
ARC
  5
3EC9
100
AcDbEntity
  8
DRAWING
100
AcDbCircle
 10
33.198834
 20
44.0
 30
0.0
 40
3.0
100
AcDbArc
 50
200.742381
 51
298.208767
  0
ARC
  5
3ECA
100
AcDbEntity
  8
DRAWING
100
AcDbCircle
 10
33.198834
 20
14.0
 30
0.0
 40
3.0
100
AcDbArc
 50
20.742381
 51
120.878892
  0
ARC
  5
3ECB
100
AcDbEntity
  8
DRAWING
100
AcDbCircle
 10
33.198834
 20
14.0
 30
0.0
 40
3.0
100
AcDbArc
 50
128.13052
 51
159.257619
  0
ARC
  5
3ECC
100
AcDbEntity
  8
DRAWING
100
AcDbCircle
 10
33.198834
 20
44.0
 30
0.0
 40
3.0
100
AcDbArc
 50
304.640084
 51
339.257619
  0
LINE
  5
3ECE
100
AcDbEntity
  8
DRAWING
100
AcDbLine
 10
27.198834
 20
33.0
 30
0.0
 11
23.198834
 21
33.0
 31
0.0
  0
LINE
  5
3ECF
100
AcDbEntity
  8
DRAWING
100
AcDbLine
 10
27.198834
 20
25.0
 30
0.0
 11
23.198834
 21
25.0
 31
0.0
  0
LINE
  5
3ED0
100
AcDbEntity
  8
DRAWING
100
AcDbLine
 10
23.198834
 20
33.0
 30
0.0
 11
23.198834
 21
25.0
 31
0.0
  0
LINE
  5
3ED1
100
AcDbEntity
  8
HATCH
100
AcDbLine
 10
23.198834
 20
25.0
 30
0.0
 11
27.198834
 21
33.0
 31
0.0
  0
LINE
  5
3ED3
100
AcDbEntity
  8
HATCH
100
AcDbLine
 10
23.198834
 20
33.0
 30
0.0
 11
27.198834
 21
25.0
 31
0.0
  0
LINE
  5
3EF6
100
AcDbEntity
  8
DRAWING
100
AcDbLine
 10
33.848834
 20
24.985085
 30
0.0
 11
34.548834
 21
24.985085
 31
0.0
  0
LINE
  5
3EF7
100
AcDbEntity
  8
DRAWING
100
AcDbLine
 10
20.855594
 20
29.35
 30
0.0
 11
20.855594
 21
28.65
 31
0.0
  0
LINE
  5
3EF9
100
AcDbEntity
  8
DRAWING
100
AcDbLine
 10
22.198834
 20
29.7
 30
0.0
 11
22.198834
 21
28.3
 31
0.0
  0
LWPOLYLINE
  5
3F1E
100
AcDbEntity
  8
DRAWING
100
AcDbPolyline
 90
        2
 70
     0
 43
0.0
 10
22.198834
 20
28.3
 10
23.198834
 20
28.3
 42
-0.414214
  0
LWPOLYLINE
  5
3F30
100
AcDbEntity
  8
DRAWING
100
AcDbPolyline
 90
        2
 70
     0
 43
0.0
 10
22.198834
 20
29.7
 10
23.198834
 20
29.7
 42
-0.414214
  0
LWPOLYLINE
  5
3F34
100
AcDbEntity
  8
DRAWING
100
AcDbPolyline
 90
        2
 70
     0
 43
0.0
 10
20.855594
 20
29.35
 10
22.198834
 20
29.35
 42
-0.414214
  0
LWPOLYLINE
  5
3F38
100
AcDbEntity
  8
DRAWING
100
AcDbPolyline
 90
        4
 70
     0
 43
0.0
 10
23.198834
 20
29.35
 10
33.198834
 20
29.35
 42
-0.414214
 10
34.548834
 20
28.0
 10
34.548834
 20
24.985085
  0
LWPOLYLINE
  5
3F3E
100
AcDbEntity
  8
DRAWING
100
AcDbPolyline
 90
        2
 70
     0
 43
0.0
 10
20.855594
 20
28.65
 10
22.198834
 20
28.65
 42
-0.414214
  0
LWPOLYLINE
  5
3F42
100
AcDbEntity
  8
DRAWING
100
AcDbPolyline
 90
        4
 70
     0
 43
0.0
 10
23.198834
 20
28.65
 10
33.198834
 20
28.65
 42
-0.414214
 10
33.848834
 20
28.0
 10
33.848834
 20
24.985085
  0
LWPOLYLINE
  5
3F54
100
AcDbEntity
  8
DRAWING
100
AcDbPolyline
 90
        2
 70
     0
 43
0.0
 10
22.198834
 20
28.7
 10
23.198834
 20
28.7
  0
LWPOLYLINE
  5
3F58
100
AcDbEntity
  8
DRAWING
100
AcDbPolyline
 90
        2
 70
     0
 43
0.0
 10
22.198834
 20
29.3
 10
23.198834
 20
29.3
  0
LINE
  5
3F5C
100
AcDbEntity
  8
DRAWING
100
AcDbLine
 10
33.190199
 20
28.65
 30
0.0
 11
33.190199
 21
14.981478
 31
0.0
  0
LINE
  5
3F5D
100
AcDbEntity
  8
DRAWING
100
AcDbLine
 10
30.198834
 20
28.65
 30
0.0
 11
30.198834
 21
15.0625
 31
0.0
  0
LINE
  5
3F5E
100
AcDbEntity
  8
DRAWING
100
AcDbLine
 10
27.198834
 20
28.65
 30
0.0
 11
27.198834
 21
15.0625
 31
0.0
  0
ARC
  5
3F5F
100
AcDbEntity
  8
DRAWING
100
AcDbCircle
 10
33.198834
 20
29.0
 30
0.0
 40
3.0
100
AcDbArc
 50
296.743684
 51
173.300235
  0
LINE
  5
3F61
100
AcDbEntity
  8
DRAWING
100
AcDbLine
 10
27.198834
 20
32.0
 30
0.0
 11
30.198834
 21
32.0
 31
0.0
  0
LINE
  5
3F62
100
AcDbEntity
  8
DRAWING
100
AcDbLine
 10
27.198834
 20
26.0
 30
0.0
 11
30.198834
 21
26.0
 31
0.0
  0
CIRCLE
  5
3F63
100
AcDbEntity
  8
DRAWING
100
AcDbCircle
 10
32.49448
 20
26.797585
 30
0.0
 40
0.35
  0
INSERT
  5
3F83
100
AcDbEntity
  8
HATCH
100
AcDbBlockReference
  2
*X0
 10
-7.50217
 20
-6.375
 30
0.0
1001
ACAD
1000
HATCH
1002
{
1070
    16
1000
ANSI33
1040
5.0
1040
0.0
1002
}
  0
INSERT
  5
40D0
100
AcDbEntity
  8
HATCH
100
AcDbBlockReference
  2
*X1
 10
-27.569052
 20
-6.375
 30
0.0
1001
ACAD
1000
HATCH
1002
{
1070
    16
1000
AR-CONC
1040
0.5
1040
0.0
1002
}
  0
TEXT
  5
41DC
100
AcDbEntity
  8
DIM_TEXT
100
AcDbText
 10
46.852287
 20
35.637121
 30
0.0
 40
1.125
  1
RASTRA WALL
 51
15.0
  7
INFO
 11
46.852287
 21
36.199621
 31
0.0
100
AcDbText
 73
     2
  0
TEXT
  5
41DD
100
AcDbEntity
  8
DIM_TEXT
100
AcDbText
 10
46.852287
 20
22.680445
 30
0.0
 40
1.125
  1
PER DESIGN
 51
15.0
  7
INFO
 11
46.852287
 21
23.242945
 31
0.0
100
AcDbText
 73
     2
  0
TEXT
  5
41DE
100
AcDbEntity
  8
DIM_TEXT
100
AcDbText
 10
46.852287
 20
24.680445
 30
0.0
 40
1.125
  1
ANCHOR BOLT
 51
15.0
  7
INFO
 11
46.852287
 21
25.242945
 31
0.0
100
AcDbText
 73
     2
  0
TEXT
  5
41DF
100
AcDbEntity
  8
DIM_TEXT
100
AcDbText
 10
46.852287
 20
18.686836
 30
0.0
 40
1.125
  1
LEDGER
 51
15.0
  7
INFO
 11
46.852287
 21
19.249336
 31
0.0
100
AcDbText
 73
     2
  0
TEXT
  5
41E0
100
AcDbEntity
  8
DIM_TEXT
100
AcDbText
 10
46.852287
 20
16.686836
 30
0.0
 40
1.125
  1
PER DESIGN
 51
15.0
  7
INFO
 11
46.852287
 21
17.249336
 31
0.0
100
AcDbText
 73
     2
  0
SOLID
  5
41E7
100
AcDbEntity
  8
DIM_TEXT
100
AcDbTrace
 10
29.700676
 20
30.991633
 30
0.0
 11
29.553806
 21
31.290866
 31
0.0
 12
28.729543
 22
30.700639
 32
0.0
 13
28.729543
 23
30.700639
 33
0.0
  0
LINE
  5
41E8
100
AcDbEntity
  8
DIM_TEXT
100
AcDbLine
 10
29.627241
 20
31.141249
 30
0.0
 11
44.06068
 21
38.225497
 31
0.0
  0
LINE
  5
41E9
100
AcDbEntity
  8
DIM_TEXT
100
AcDbLine
 10
44.06068
 20
38.225497
 30
0.0
 11
46.000162
 21
38.225497
 31
0.0
  0
SOLID
  5
41EA
100
AcDbEntity
  8
DIM_TEXT
100
AcDbTrace
 10
35.45617
 20
27.547762
 30
0.0
 11
35.553797
 21
27.866479
 31
0.0
 12
34.548834
 22
28.0
 32
0.0
 13
34.548834
 23
28.0
 33
0.0
  0
LINE
  5
41EB
100
AcDbEntity
  8
DIM_TEXT
100
AcDbLine
 10
35.504983
 20
27.70712
 30
0.0
 11
43.968324
 21
25.114702
 31
0.0
  0
LINE
  5
41EC
100
AcDbEntity
  8
DIM_TEXT
100
AcDbLine
 10
43.968324
 20
25.114702
 30
0.0
 11
46.04634
 21
25.114702
 31
0.0
  0
SOLID
  5
41ED
100
AcDbEntity
  8
DIM_TEXT
100
AcDbTrace
 10
26.105802
 20
24.547024
 30
0.0
 11
26.203688
 21
24.865661
 31
0.0
 12
25.198834
 22
25.0
 32
0.0
 13
25.198834
 23
25.0
 33
0.0
  0
LINE
  5
41EE
100
AcDbEntity
  8
DIM_TEXT
100
AcDbLine
 10
26.154745
 20
24.706343
 30
0.0
 11
44.06068
 21
19.20561
 31
0.0
  0
LINE
  5
41EF
100
AcDbEntity
  8
DIM_TEXT
100
AcDbLine
 10
44.06068
 20
19.20561
 30
0.0
 11
46.000162
 21
19.20561
 31
0.0
  0
LWPOLYLINE
  5
41F0
100
AcDbEntity
  8
DRAWING
100
AcDbPolyline
 90
       22
 70
     0
 43
0.0
 10
48.701741
 20
58.658018
 10
48.692136
 20
58.907756
 10
48.659478
 20
59.155573
 10
48.607609
 20
59.395706
 10
48.53653
 20
59.624312
 10
48.448161
 20
59.833708
 10
48.344424
 20
60.020051
 10
48.227239
 20
60.177578
 10
48.10237
 20
60.302447
 10
47.969817
 20
60.392737
 10
47.833421
 20
60.444605
 10
47.697026
 20
60.458053
 10
47.564473
 20
60.433079
 10
47.437683
 20
60.367763
 10
47.322419
 20
60.265947
 10
47.218682
 20
60.131472
 10
47.130313
 20
59.96434
 10
47.057312
 20
59.770313
 10
47.005444
 20
59.553233
 10
46.974707
 20
59.320784
 10
46.96318
 20
59.076809
 10
46.964745
 20
59.042907
  0
LWPOLYLINE
  5
4208
100
AcDbEntity
  8
DRAWING
100
AcDbPolyline
 90
       20
 70
     0
 43
0.0
 10
47.017412
 20
58.523401
 10
47.057312
 20
58.337201
 10
47.130313
 20
58.108594
 10
47.218682
 20
57.899198
 10
47.322419
 20
57.714776
 10
47.437683
 20
57.557249
 10
47.564473
 20
57.43238
 10
47.697026
 20
57.34209
 10
47.833421
 20
57.290222
 10
47.969817
 20
57.276774
 10
48.10237
 20
57.301748
 10
48.227239
 20
57.367064
 10
48.344424
 20
57.466959
 10
48.448161
 20
57.603355
 10
48.53653
 20
57.770487
 10
48.607609
 20
57.964515
 10
48.659478
 20
58.179673
 10
48.692136
 20
58.414043
 10
48.701741
 20
58.658018
 10
48.703662
 20
58.658018
  0
LWPOLYLINE
  5
421E
100
AcDbEntity
  8
DRAWING
100
AcDbPolyline
 90
        5
 70
     0
 43
0.0
 10
48.386687
 20
59.872129
 10
48.340582
 20
59.664654
 10
48.311766
 20
59.443732
 10
48.302161
 20
59.213205
 10
48.303507
 20
59.180074
  0
LWPOLYLINE
  5
4225
100
AcDbEntity
  8
DRAWING
100
AcDbPolyline
 90
        3
 70
     0
 43
0.0
 10
48.356138
 20
58.664765
 10
48.386687
 20
58.512017
 10
48.388608
 20
58.512017
  0
LWPOLYLINE
  5
422A
100
AcDbEntity
  8
DRAWING
100
AcDbPolyline
 90
       22
 70
     0
 43
0.0
 10
40.007016
 20
60.753896
 10
39.99741
 20
61.001713
 10
39.964752
 20
61.251451
 10
39.912884
 20
61.491584
 10
39.841804
 20
61.72019
 10
39.753435
 20
61.929586
 10
39.647777
 20
62.115929
 10
39.532513
 20
62.273456
 10
39.405723
 20
62.398325
 10
39.27317
 20
62.488615
 10
39.136775
 20
62.540484
 10
39.0023
 20
62.553931
 10
38.869747
 20
62.527036
 10
38.742957
 20
62.463641
 10
38.625772
 20
62.361825
 10
38.522035
 20
62.22543
 10
38.433666
 20
62.060218
 10
38.362587
 20
61.866191
 10
38.310718
 20
61.649111
 10
38.27806
 20
61.416663
 10
38.268455
 20
61.172688
 10
38.26976
 20
61.138759
  0
LWPOLYLINE
  5
4242
100
AcDbEntity
  8
DRAWING
100
AcDbPolyline
 90
       20
 70
     0
 43
0.0
 10
38.322687
 20
60.61928
 10
38.362587
 20
60.433079
 10
38.433666
 20
60.204473
 10
38.522035
 20
59.995077
 10
38.625772
 20
59.808734
 10
38.742957
 20
59.651207
 10
38.869747
 20
59.526338
 10
39.0023
 20
59.437969
 10
39.136775
 20
59.384179
 10
39.27317
 20
59.370732
 10
39.405723
 20
59.397627
 10
39.532513
 20
59.461022
 10
39.647777
 20
59.562838
 10
39.753435
 20
59.699233
 10
39.841804
 20
59.866366
 10
39.912884
 20
60.060393
 10
39.964752
 20
60.275552
 10
39.99741
 20
60.508
 10
40.007016
 20
60.753896
 10
40.008937
 20
60.753896
  0
LWPOLYLINE
  5
4258
100
AcDbEntity
  8
DRAWING
100
AcDbPolyline
 90
        5
 70
     0
 43
0.0
 10
39.691961
 20
61.968007
 10
39.645856
 20
61.760533
 10
39.61704
 20
61.539611
 10
39.607435
 20
61.309083
 10
39.608781
 20
61.275952
  0
LWPOLYLINE
  5
425F
100
AcDbEntity
  8
DRAWING
100
AcDbPolyline
 90
        3
 70
     0
 43
0.0
 10
39.661161
 20
60.760617
 10
39.691961
 20
60.607896
 10
39.693883
 20
60.607896
  0
LWPOLYLINE
  5
4264
100
AcDbEntity
  8
DRAWING
100
AcDbPolyline
 90
       22
 70
     0
 43
0.0
 10
31.31229
 20
62.847854
 10
31.300763
 20
63.097592
 10
31.270026
 20
63.345409
 10
31.216237
 20
63.587462
 10
31.145157
 20
63.816069
 10
31.056789
 20
64.025465
 10
30.953051
 20
64.211808
 10
30.837787
 20
64.369335
 10
30.710997
 20
64.494204
 10
30.578444
 20
64.582572
 10
30.442049
 20
64.636362
 10
30.305653
 20
64.64981
 10
30.1731
 20
64.622915
 10
30.048231
 20
64.55952
 10
29.931046
 20
64.457703
 10
29.827309
 20
64.321308
 10
29.73894
 20
64.154176
 10
29.667861
 20
63.960148
 10
29.615992
 20
63.74499
 10
29.583334
 20
63.512541
 10
29.571808
 20
63.266645
 10
29.573296
 20
63.234656
  0
LWPOLYLINE
  5
427C
100
AcDbEntity
  8
DRAWING
100
AcDbPolyline
 90
       20
 70
     0
 43
0.0
 10
29.627606
 20
62.715324
 10
29.667861
 20
62.528957
 10
29.73894
 20
62.300351
 10
29.827309
 20
62.090955
 10
29.931046
 20
61.904612
 10
30.048231
 20
61.747085
 10
30.1731
 20
61.622216
 10
30.305653
 20
61.531926
 10
30.442049
 20
61.480058
 10
30.578444
 20
61.46661
 10
30.710997
 20
61.493505
 10
30.837787
 20
61.5569
 10
30.953051
 20
61.658716
 10
31.056789
 20
61.795112
 10
31.145157
 20
61.960323
 10
31.216237
 20
62.15435
 10
31.270026
 20
62.37143
 10
31.300763
 20
62.603879
 10
31.31229
 20
62.847854
 10
31.314211
 20
62.847854
  0
LWPOLYLINE
  5
4292
100
AcDbEntity
  8
DRAWING
100
AcDbPolyline
 90
        5
 70
     0
 43
0.0
 10
30.997236
 20
64.063886
 10
30.949209
 20
63.856411
 10
30.920393
 20
63.635489
 10
30.910788
 20
63.403041
 10
30.912067
 20
63.371824
  0
LWPOLYLINE
  5
4299
100
AcDbEntity
  8
DRAWING
100
AcDbPolyline
 90
        3
 70
     0
 43
0.0
 10
30.965138
 20
62.856561
 10
30.997236
 20
62.703774
 10
30.999157
 20
62.703774
  0
ENDSEC
  0
SECTION
  2
OBJECTS
  0
DICTIONARY
  5
42A9
100
AcDbDictionary
  3
ACAD_GROUP
350
42AA
  3
ACAD_MLINESTYLE
350
42B7
  3
ACDBVARIABLEDICTIONARY
350
42CA
  0
DICTIONARY
  5
42AA
102
{ACAD_REACTORS
330
42A9
102
}
100
AcDbDictionary
  0
DICTIONARY
  5
42B7
102
{ACAD_REACTORS
330
42A9
102
}
100
AcDbDictionary
  3
STANDARD
350
42B8
  0
DICTIONARY
  5
42CA
102
{ACAD_REACTORS
330
42A9
102
}
100
AcDbDictionary
  3
DIMADEC
350
42CB
  0
MLINESTYLE
  5
42B8
102
{ACAD_REACTORS
330
42B7
102
}
100
AcDbMlineStyle
  2
STANDARD
 70
     0
  3

 62
   256
 51
90.0
 52
90.0
 71
     2
 49
0.5
 62
   256
  6
BYLAYER
 49
-0.5
 62
   256
  6
BYLAYER
  0
DICTIONARYVAR
  5
42CB
102
{ACAD_REACTORS
330
42CA
102
}
100
DictionaryVariables
280
     0
  1
0
  0
ENDSEC
  0
EOF
