  0
SECTION
  2
HEADER
  9
$ACADVER
  1
AC1014
  9
$ACADMAINTVER
 70
     8
  9
$DWGCODEPAGE
  3
ANSI_1252
  9
$INSBASE
 10
0.0
 20
0.0
 30
0.0
  9
$EXTMIN
 10
3.080218
 20
5.735502
 30
0.0
  9
$EXTMAX
 10
78.190627
 20
83.524878
 30
0.0
  9
$LIMMIN
 10
0.0
 20
0.0
  9
$LIMMAX
 10
85.0
 20
110.0
  9
$ORTHOMODE
 70
     1
  9
$REGENMODE
 70
     1
  9
$FILLMODE
 70
     1
  9
$QTEXTMODE
 70
     0
  9
$MIRRTEXT
 70
     1
  9
$DRAGMODE
 70
     2
  9
$LTSCALE
 40
3.0
  9
$OSMODE
 70
    37
  9
$ATTMODE
 70
     1
  9
$TEXTSIZE
 40
0.2
  9
$TRACEWID
 40
0.05
  9
$TEXTSTYLE
  7
STANDARD
  9
$CLAYER
  8
0
  9
$CELTYPE
  6
BYLAYER
  9
$CECOLOR
 62
   256
  9
$CELTSCALE
 40
1.0
  9
$DELOBJ
 70
     1
  9
$DISPSILH
 70
     0
  9
$DIMSCALE
 40
1.0
  9
$DIMASZ
 40
0.18
  9
$DIMEXO
 40
0.0625
  9
$DIMDLI
 40
0.38
  9
$DIMRND
 40
0.0
  9
$DIMDLE
 40
0.0
  9
$DIMEXE
 40
0.18
  9
$DIMTP
 40
0.0
  9
$DIMTM
 40
0.0
  9
$DIMTXT
 40
0.18
  9
$DIMCEN
 40
0.09
  9
$DIMTSZ
 40
0.0
  9
$DIMTOL
 70
     0
  9
$DIMLIM
 70
     0
  9
$DIMTIH
 70
     1
  9
$DIMTOH
 70
     1
  9
$DIMSE1
 70
     0
  9
$DIMSE2
 70
     0
  9
$DIMTAD
 70
     0
  9
$DIMZIN
 70
     0
  9
$DIMBLK
  1

  9
$DIMASO
 70
     1
  9
$DIMSHO
 70
     1
  9
$DIMPOST
  1

  9
$DIMAPOST
  1

  9
$DIMALT
 70
     0
  9
$DIMALTD
 70
     2
  9
$DIMALTF
 40
25.4
  9
$DIMLFAC
 40
1.0
  9
$DIMTOFL
 70
     0
  9
$DIMTVP
 40
0.0
  9
$DIMTIX
 70
     0
  9
$DIMSOXD
 70
     0
  9
$DIMSAH
 70
     0
  9
$DIMBLK1
  1

  9
$DIMBLK2
  1

  9
$DIMSTYLE
  2
STANDARD
  9
$DIMCLRD
 70
     0
  9
$DIMCLRE
 70
     0
  9
$DIMCLRT
 70
     0
  9
$DIMTFAC
 40
1.0
  9
$DIMGAP
 40
0.09
  9
$DIMJUST
 70
     0
  9
$DIMSD1
 70
     0
  9
$DIMSD2
 70
     0
  9
$DIMTOLJ
 70
     1
  9
$DIMTZIN
 70
     0
  9
$DIMALTZ
 70
     0
  9
$DIMALTTZ
 70
     0
  9
$DIMFIT
 70
     5
  9
$DIMUPT
 70
     0
  9
$DIMUNIT
 70
     4
  9
$DIMDEC
 70
     4
  9
$DIMTDEC
 70
     4
  9
$DIMALTU
 70
     4
  9
$DIMALTTD
 70
     2
  9
$DIMTXSTY
  7
STANDARD
  9
$DIMAUNIT
 70
     2
  9
$LUNITS
 70
     4
  9
$LUPREC
 70
     4
  9
$SKETCHINC
 40
0.1
  9
$FILLETRAD
 40
0.0
  9
$AUNITS
 70
     2
  9
$AUPREC
 70
     0
  9
$MENU
  1
acad
  9
$ELEVATION
 40
0.0
  9
$PELEVATION
 40
0.0
  9
$THICKNESS
 40
0.0
  9
$LIMCHECK
 70
     0
  9
$BLIPMODE
 70
     1
  9
$CHAMFERA
 40
0.0
  9
$CHAMFERB
 40
0.0
  9
$CHAMFERC
 40
0.0
  9
$CHAMFERD
 40
0.0
  9
$SKPOLY
 70
     0
  9
$TDCREATE
 40
2451166.798591203
  9
$TDUPDATE
 40
2452248.728751851
  9
$TDINDWG
 40
0.0094625000
  9
$TDUSRTIMER
 40
0.0094625000
  9
$USRTIMER
 70
     1
  9
$ANGBASE
 50
0.0
  9
$ANGDIR
 70
     0
  9
$PDMODE
 70
     0
  9
$PDSIZE
 40
0.0
  9
$PLINEWID
 40
0.0
  9
$COORDS
 70
     1
  9
$SPLFRAME
 70
     0
  9
$SPLINETYPE
 70
     6
  9
$SPLINESEGS
 70
     8
  9
$ATTDIA
 70
     0
  9
$ATTREQ
 70
     1
  9
$HANDLING
 70
     1
  9
$HANDSEED
  5
7D9
  9
$SURFTAB1
 70
     6
  9
$SURFTAB2
 70
     6
  9
$SURFTYPE
 70
     6
  9
$SURFU
 70
     6
  9
$SURFV
 70
     6
  9
$UCSNAME
  2

  9
$UCSORG
 10
0.0
 20
0.0
 30
0.0
  9
$UCSXDIR
 10
1.0
 20
0.0
 30
0.0
  9
$UCSYDIR
 10
0.0
 20
1.0
 30
0.0
  9
$PUCSNAME
  2

  9
$PUCSORG
 10
0.0
 20
0.0
 30
0.0
  9
$PUCSXDIR
 10
1.0
 20
0.0
 30
0.0
  9
$PUCSYDIR
 10
0.0
 20
1.0
 30
0.0
  9
$USERI1
 70
     0
  9
$USERI2
 70
     0
  9
$USERI3
 70
     0
  9
$USERI4
 70
     0
  9
$USERI5
 70
     0
  9
$USERR1
 40
0.0
  9
$USERR2
 40
0.0
  9
$USERR3
 40
0.0
  9
$USERR4
 40
0.0
  9
$USERR5
 40
0.0
  9
$WORLDVIEW
 70
     1
  9
$SHADEDGE
 70
     3
  9
$SHADEDIF
 70
    70
  9
$TILEMODE
 70
     1
  9
$MAXACTVP
 70
    16
  9
$PINSBASE
 10
0.0
 20
0.0
 30
0.0
  9
$PLIMCHECK
 70
     0
  9
$PEXTMIN
 10
1.000000E+20
 20
1.000000E+20
 30
1.000000E+20
  9
$PEXTMAX
 10
-1.000000E+20
 20
-1.000000E+20
 30
-1.000000E+20
  9
$PLIMMIN
 10
0.0
 20
0.0
  9
$PLIMMAX
 10
12.0
 20
9.0
  9
$UNITMODE
 70
     0
  9
$VISRETAIN
 70
     0
  9
$PLINEGEN
 70
     0
  9
$PSLTSCALE
 70
     1
  9
$TREEDEPTH
 70
  3020
  9
$PICKSTYLE
 70
     1
  9
$CMLSTYLE
  2
STANDARD
  9
$CMLJUST
 70
     0
  9
$CMLSCALE
 40
1.0
  9
$PROXYGRAPHICS
 70
     1
  9
$MEASUREMENT
 70
     0
  0
ENDSEC
  0
SECTION
  2
CLASSES
  0
CLASS
  1
DICTIONARYVAR
  2
AcDbDictionaryVar
  3
"AutoCAD"
 90
        0
280
     0
281
     0
  0
CLASS
  1
LWPOLYLINE
  2
AcDbPolyline
  3
"AutoCAD"
 90
        0
280
     0
281
     1
  0
ENDSEC
  0
SECTION
  2
TABLES
  0
TABLE
  2
VPORT
  5
8
100
AcDbSymbolTable
 70
     1
  0
VPORT
  5
7D3
100
AcDbSymbolTableRecord
100
AcDbViewportTableRecord
  2
*ACTIVE
 70
     0
 10
0.0
 20
0.0
 11
1.0
 21
1.0
 12
42.196838
 22
44.488889
 13
0.0
 23
0.0
 14
1.0
 24
1.0
 15
1.0
 25
1.0
 16
0.0
 26
0.0
 36
1.0
 17
0.0
 27
0.0
 37
0.0
 40
82.377778
 41
1.474388
 42
50.0
 43
0.0
 44
0.0
 50
0.0
 51
0.0
 71
     0
 72
   100
 73
     1
 74
     1
 75
     0
 76
     0
 77
     0
 78
     0
  0
ENDTAB
  0
TABLE
  2
LTYPE
  5
5
100
AcDbSymbolTable
 70
     1
  0
LTYPE
  5
11
100
AcDbSymbolTableRecord
100
AcDbLinetypeTableRecord
  2
BYBLOCK
 70
     0
  3

 72
    65
 73
     0
 40
0.0
  0
LTYPE
  5
12
100
AcDbSymbolTableRecord
100
AcDbLinetypeTableRecord
  2
BYLAYER
 70
     0
  3

 72
    65
 73
     0
 40
0.0
  0
LTYPE
  5
13
100
AcDbSymbolTableRecord
100
AcDbLinetypeTableRecord
  2
CONTINUOUS
 70
     0
  3
Solid line
 72
    65
 73
     0
 40
0.0
  0
ENDTAB
  0
TABLE
  2
LAYER
  5
2
100
AcDbSymbolTable
 70
     5
  0
LAYER
  5
E
100
AcDbSymbolTableRecord
100
AcDbLayerTableRecord
  2
0
 70
     0
 62
     7
  6
CONTINUOUS
  0
LAYER
  5
27
100
AcDbSymbolTableRecord
100
AcDbLayerTableRecord
  2
DRAWING
 70
     0
 62
     7
  6
CONTINUOUS
  0
LAYER
  5
28
100
AcDbSymbolTableRecord
100
AcDbLayerTableRecord
  2
HATCH
 70
     0
 62
     3
  6
CONTINUOUS
  0
LAYER
  5
29
100
AcDbSymbolTableRecord
100
AcDbLayerTableRecord
  2
DIM_TEXT
 70
     0
 62
     6
  6
CONTINUOUS
  0
LAYER
  5
2A
100
AcDbSymbolTableRecord
100
AcDbLayerTableRecord
  2
TITLE
 70
     0
 62
     7
  6
CONTINUOUS
  0
ENDTAB
  0
TABLE
  2
STYLE
  5
3
100
AcDbSymbolTable
 70
     3
  0
STYLE
  5
F
100
AcDbSymbolTableRecord
100
AcDbTextStyleTableRecord
  2
STANDARD
 70
     0
 40
0.0
 41
1.0
 50
0.0
 71
     0
 42
0.2
  3
txt
  4

  0
STYLE
  5
21
100
AcDbSymbolTableRecord
100
AcDbTextStyleTableRecord
  2
INFO
 70
     0
 40
0.0
 41
1.0
 50
15.0
 71
     0
 42
1.08
  3
C:\ACADWIN\FONTS\ROMANS.SHX
  4

  0
STYLE
  5
22
100
AcDbSymbolTableRecord
100
AcDbTextStyleTableRecord
  2
TITLE
 70
     0
 40
0.0
 41
1.0
 50
0.0
 71
     0
 42
2.8
  3
C:\ACADWIN\FONTS\ROMANC.SHX
  4

  0
ENDTAB
  0
TABLE
  2
VIEW
  5
6
100
AcDbSymbolTable
 70
     0
  0
ENDTAB
  0
TABLE
  2
UCS
  5
7
100
AcDbSymbolTable
 70
     0
  0
ENDTAB
  0
TABLE
  2
APPID
  5
9
100
AcDbSymbolTable
 70
     2
  0
APPID
  5
10
100
AcDbSymbolTableRecord
100
AcDbRegAppTableRecord
  2
ACAD
 70
     0
  0
APPID
  5
26
100
AcDbSymbolTableRecord
100
AcDbRegAppTableRecord
  2
ZIMM
 70
     0
  0
ENDTAB
  0
TABLE
  2
DIMSTYLE
  5
A
100
AcDbSymbolTable
 70
     1
  0
DIMSTYLE
105
7D0
100
AcDbSymbolTableRecord
100
AcDbDimStyleTableRecord
  2
STANDARD
 70
     0
  3

  4

  5

  6

  7

 40
1.0
 41
0.18
 42
0.0625
 43
0.38
 44
0.18
 45
0.0
 46
0.0
 47
0.0
 48
0.0
140
0.18
141
0.09
142
0.0
143
25.4
144
1.0
145
0.0
146
1.0
147
0.09
 71
     0
 72
     0
 73
     1
 74
     1
 75
     0
 76
     0
 77
     0
 78
     0
170
     0
171
     2
172
     0
173
     0
174
     0
175
     0
176
     0
177
     0
178
     0
270
     2
271
     4
272
     4
273
     2
274
     2
340
F
275
     0
280
     0
281
     0
282
     0
283
     1
284
     0
285
     0
286
     0
287
     3
288
     0
  0
ENDTAB
  0
TABLE
  2
BLOCK_RECORD
  5
1
100
AcDbSymbolTable
 70
     5
  0
BLOCK_RECORD
  5
17
100
AcDbSymbolTableRecord
100
AcDbBlockTableRecord
  2
*MODEL_SPACE
  0
BLOCK_RECORD
  5
14
100
AcDbSymbolTableRecord
100
AcDbBlockTableRecord
  2
*PAPER_SPACE
  0
BLOCK_RECORD
  5
1C
100
AcDbSymbolTableRecord
100
AcDbBlockTableRecord
  2
*X0
  0
BLOCK_RECORD
  5
1D
100
AcDbSymbolTableRecord
100
AcDbBlockTableRecord
  2
*X1
  0
BLOCK_RECORD
  5
1E
100
AcDbSymbolTableRecord
100
AcDbBlockTableRecord
  2
*X2
  0
BLOCK_RECORD
  5
1F
100
AcDbSymbolTableRecord
100
AcDbBlockTableRecord
  2
*X3
  0
BLOCK_RECORD
  5
20
100
AcDbSymbolTableRecord
100
AcDbBlockTableRecord
  2
*X4
  0
ENDTAB
  0
ENDSEC
  0
SECTION
  2
BLOCKS
  0
BLOCK
  5
2D
100
AcDbEntity
  8
0
100
AcDbBlockBegin
  2
*MODEL_SPACE
 70
     0
 10
0.0
 20
0.0
 30
0.0
  3
*MODEL_SPACE
  1

  0
ENDBLK
  5
2E
100
AcDbEntity
  8
0
100
AcDbBlockEnd
  0
BLOCK
  5
2B
100
AcDbEntity
 67
     1
  8
0
100
AcDbBlockBegin
  2
*PAPER_SPACE
 70
     0
 10
0.0
 20
0.0
 30
0.0
  3
*PAPER_SPACE
  1

  0
ENDBLK
  5
2C
100
AcDbEntity
 67
     1
  8
0
100
AcDbBlockEnd
  0
BLOCK
  5
31
100
AcDbEntity
  8
0
100
AcDbBlockBegin
  2
*X0
 70
     1
 10
0.0
 20
0.0
 30
0.0
  3
*X0
  1

  0
LINE
  5
32
100
AcDbEntity
  8
0
 62
     0
100
AcDbLine
 10
85.226483
 20
57.962641
 30
0.0
 11
83.726483
 21
59.462641
 31
0.0
  0
LINE
  5
33
100
AcDbEntity
  8
0
 62
     0
100
AcDbLine
 10
83.635492
 20
57.962641
 30
0.0
 11
82.135492
 21
59.462641
 31
0.0
  0
LINE
  5
34
100
AcDbEntity
  8
0
 62
     0
100
AcDbLine
 10
82.044502
 20
57.962641
 30
0.0
 11
80.544502
 21
59.462641
 31
0.0
  0
LINE
  5
35
100
AcDbEntity
  8
0
 62
     0
100
AcDbLine
 10
80.453512
 20
57.962641
 30
0.0
 11
78.953512
 21
59.462641
 31
0.0
  0
LINE
  5
36
100
AcDbEntity
  8
0
 62
     0
100
AcDbLine
 10
78.862522
 20
57.962641
 30
0.0
 11
77.362522
 21
59.462641
 31
0.0
  0
LINE
  5
37
100
AcDbEntity
  8
0
 62
     0
100
AcDbLine
 10
77.271531
 20
57.962641
 30
0.0
 11
75.771531
 21
59.462641
 31
0.0
  0
LINE
  5
38
100
AcDbEntity
  8
0
 62
     0
100
AcDbLine
 10
75.680541
 20
57.962641
 30
0.0
 11
75.026797
 21
58.616385
 31
0.0
  0
LINE
  5
39
100
AcDbEntity
  8
0
 62
     0
100
AcDbLine
 10
86.817473
 20
57.962641
 30
0.0
 11
85.317473
 21
59.462641
 31
0.0
  0
LINE
  5
3A
100
AcDbEntity
  8
0
 62
     0
100
AcDbLine
 10
88.408463
 20
57.962641
 30
0.0
 11
86.908463
 21
59.462641
 31
0.0
  0
LINE
  5
3B
100
AcDbEntity
  8
0
 62
     0
100
AcDbLine
 10
89.999453
 20
57.962641
 30
0.0
 11
88.499453
 21
59.462641
 31
0.0
  0
LINE
  5
3C
100
AcDbEntity
  8
0
 62
     0
100
AcDbLine
 10
91.590444
 20
57.962641
 30
0.0
 11
90.090444
 21
59.462641
 31
0.0
  0
LINE
  5
3D
100
AcDbEntity
  8
0
 62
     0
100
AcDbLine
 10
93.181434
 20
57.962641
 30
0.0
 11
91.681434
 21
59.462641
 31
0.0
  0
LINE
  5
3E
100
AcDbEntity
  8
0
 62
     0
100
AcDbLine
 10
94.772424
 20
57.962641
 30
0.0
 11
93.272424
 21
59.462641
 31
0.0
  0
LINE
  5
3F
100
AcDbEntity
  8
0
 62
     0
100
AcDbLine
 10
96.217798
 20
58.108257
 30
0.0
 11
94.863414
 21
59.462641
 31
0.0
  0
LINE
  5
40
100
AcDbEntity
  8
0
 62
     0
100
AcDbLine
 10
85.756813
 20
57.962641
 30
0.0
 11
84.256813
 21
59.462641
 31
0.0
  0
LINE
  5
41
100
AcDbEntity
  8
0
 62
     0
100
AcDbLine
 10
84.165822
 20
57.962641
 30
0.0
 11
82.665822
 21
59.462641
 31
0.0
  0
LINE
  5
42
100
AcDbEntity
  8
0
 62
     0
100
AcDbLine
 10
82.574832
 20
57.962641
 30
0.0
 11
81.074832
 21
59.462641
 31
0.0
  0
LINE
  5
43
100
AcDbEntity
  8
0
 62
     0
100
AcDbLine
 10
80.983842
 20
57.962641
 30
0.0
 11
79.483842
 21
59.462641
 31
0.0
  0
LINE
  5
44
100
AcDbEntity
  8
0
 62
     0
100
AcDbLine
 10
79.392852
 20
57.962641
 30
0.0
 11
77.892852
 21
59.462641
 31
0.0
  0
LINE
  5
45
100
AcDbEntity
  8
0
 62
     0
100
AcDbLine
 10
77.801861
 20
57.962641
 30
0.0
 11
76.301861
 21
59.462641
 31
0.0
  0
LINE
  5
46
100
AcDbEntity
  8
0
 62
     0
100
AcDbLine
 10
76.210871
 20
57.962641
 30
0.0
 11
75.026797
 21
59.146715
 31
0.0
  0
LINE
  5
47
100
AcDbEntity
  8
0
 62
     0
100
AcDbLine
 10
87.347803
 20
57.962641
 30
0.0
 11
85.847803
 21
59.462641
 31
0.0
  0
LINE
  5
48
100
AcDbEntity
  8
0
 62
     0
100
AcDbLine
 10
88.938793
 20
57.962641
 30
0.0
 11
87.438793
 21
59.462641
 31
0.0
  0
LINE
  5
49
100
AcDbEntity
  8
0
 62
     0
100
AcDbLine
 10
90.529783
 20
57.962641
 30
0.0
 11
89.029783
 21
59.462641
 31
0.0
  0
LINE
  5
4A
100
AcDbEntity
  8
0
 62
     0
100
AcDbLine
 10
92.120774
 20
57.962641
 30
0.0
 11
90.620774
 21
59.462641
 31
0.0
  0
LINE
  5
4B
100
AcDbEntity
  8
0
 62
     0
100
AcDbLine
 10
93.711764
 20
57.962641
 30
0.0
 11
92.211764
 21
59.462641
 31
0.0
  0
LINE
  5
4C
100
AcDbEntity
  8
0
 62
     0
100
AcDbLine
 10
95.302754
 20
57.962641
 30
0.0
 11
93.802754
 21
59.462641
 31
0.0
  0
LINE
  5
4D
100
AcDbEntity
  8
0
 62
     0
100
AcDbLine
 10
96.223752
 20
58.632633
 30
0.0
 11
95.393745
 21
59.462641
 31
0.0
  0
ENDBLK
  5
4E
100
AcDbEntity
  8
0
100
AcDbBlockEnd
  0
BLOCK
  5
4F
100
AcDbEntity
  8
0
100
AcDbBlockBegin
  2
*X1
 70
     1
 10
0.0
 20
0.0
 30
0.0
  3
*X1
  1

  0
LINE
  5
50
100
AcDbEntity
  8
0
 62
     0
100
AcDbLine
 10
88.734287
 20
63.470448
 30
0.0
 11
87.984287
 21
64.220448
 31
0.0
  0
LINE
  5
51
100
AcDbEntity
  8
0
 62
     0
100
AcDbLine
 10
88.203957
 20
63.470448
 30
0.0
 11
87.453957
 21
64.220448
 31
0.0
  0
LINE
  5
52
100
AcDbEntity
  8
0
 62
     0
100
AcDbLine
 10
87.673627
 20
63.470448
 30
0.0
 11
86.923627
 21
64.220448
 31
0.0
  0
LINE
  5
53
100
AcDbEntity
  8
0
 62
     0
100
AcDbLine
 10
87.143296
 20
63.470448
 30
0.0
 11
86.393296
 21
64.220448
 31
0.0
  0
LINE
  5
54
100
AcDbEntity
  8
0
 62
     0
100
AcDbLine
 10
86.612966
 20
63.470448
 30
0.0
 11
85.862966
 21
64.220448
 31
0.0
  0
LINE
  5
55
100
AcDbEntity
  8
0
 62
     0
100
AcDbLine
 10
86.082636
 20
63.470448
 30
0.0
 11
85.332636
 21
64.220448
 31
0.0
  0
LINE
  5
56
100
AcDbEntity
  8
0
 62
     0
100
AcDbLine
 10
85.552306
 20
63.470448
 30
0.0
 11
84.802306
 21
64.220448
 31
0.0
  0
LINE
  5
57
100
AcDbEntity
  8
0
 62
     0
100
AcDbLine
 10
85.021976
 20
63.470448
 30
0.0
 11
84.271976
 21
64.220448
 31
0.0
  0
LINE
  5
58
100
AcDbEntity
  8
0
 62
     0
100
AcDbLine
 10
84.491646
 20
63.470448
 30
0.0
 11
83.741646
 21
64.220448
 31
0.0
  0
LINE
  5
59
100
AcDbEntity
  8
0
 62
     0
100
AcDbLine
 10
83.961316
 20
63.470448
 30
0.0
 11
83.211316
 21
64.220448
 31
0.0
  0
LINE
  5
5A
100
AcDbEntity
  8
0
 62
     0
100
AcDbLine
 10
83.430986
 20
63.470448
 30
0.0
 11
82.680986
 21
64.220448
 31
0.0
  0
LINE
  5
5B
100
AcDbEntity
  8
0
 62
     0
100
AcDbLine
 10
82.900656
 20
63.470448
 30
0.0
 11
82.150656
 21
64.220448
 31
0.0
  0
LINE
  5
5C
100
AcDbEntity
  8
0
 62
     0
100
AcDbLine
 10
82.370326
 20
63.470448
 30
0.0
 11
81.620326
 21
64.220448
 31
0.0
  0
LINE
  5
5D
100
AcDbEntity
  8
0
 62
     0
100
AcDbLine
 10
81.839996
 20
63.470448
 30
0.0
 11
81.089996
 21
64.220448
 31
0.0
  0
LINE
  5
5E
100
AcDbEntity
  8
0
 62
     0
100
AcDbLine
 10
81.309666
 20
63.470448
 30
0.0
 11
80.559666
 21
64.220448
 31
0.0
  0
LINE
  5
5F
100
AcDbEntity
  8
0
 62
     0
100
AcDbLine
 10
80.779335
 20
63.470448
 30
0.0
 11
80.029335
 21
64.220448
 31
0.0
  0
LINE
  5
60
100
AcDbEntity
  8
0
 62
     0
100
AcDbLine
 10
80.249005
 20
63.470448
 30
0.0
 11
79.499005
 21
64.220448
 31
0.0
  0
LINE
  5
61
100
AcDbEntity
  8
0
 62
     0
100
AcDbLine
 10
79.718675
 20
63.470448
 30
0.0
 11
78.968675
 21
64.220448
 31
0.0
  0
LINE
  5
62
100
AcDbEntity
  8
0
 62
     0
100
AcDbLine
 10
79.188345
 20
63.470448
 30
0.0
 11
78.438345
 21
64.220448
 31
0.0
  0
LINE
  5
63
100
AcDbEntity
  8
0
 62
     0
100
AcDbLine
 10
78.658015
 20
63.470448
 30
0.0
 11
77.908015
 21
64.220448
 31
0.0
  0
LINE
  5
64
100
AcDbEntity
  8
0
 62
     0
100
AcDbLine
 10
78.127685
 20
63.470448
 30
0.0
 11
77.377685
 21
64.220448
 31
0.0
  0
LINE
  5
65
100
AcDbEntity
  8
0
 62
     0
100
AcDbLine
 10
77.597355
 20
63.470448
 30
0.0
 11
76.847355
 21
64.220448
 31
0.0
  0
LINE
  5
66
100
AcDbEntity
  8
0
 62
     0
100
AcDbLine
 10
77.067025
 20
63.470448
 30
0.0
 11
76.317025
 21
64.220448
 31
0.0
  0
LINE
  5
67
100
AcDbEntity
  8
0
 62
     0
100
AcDbLine
 10
76.536695
 20
63.470448
 30
0.0
 11
75.786695
 21
64.220448
 31
0.0
  0
LINE
  5
68
100
AcDbEntity
  8
0
 62
     0
100
AcDbLine
 10
76.006365
 20
63.470448
 30
0.0
 11
75.256365
 21
64.220448
 31
0.0
  0
LINE
  5
69
100
AcDbEntity
  8
0
 62
     0
100
AcDbLine
 10
75.476035
 20
63.470448
 30
0.0
 11
75.026797
 21
63.919685
 31
0.0
  0
LINE
  5
6A
100
AcDbEntity
  8
0
 62
     0
100
AcDbLine
 10
89.264617
 20
63.470448
 30
0.0
 11
88.514617
 21
64.220448
 31
0.0
  0
LINE
  5
6B
100
AcDbEntity
  8
0
 62
     0
100
AcDbLine
 10
89.794947
 20
63.470448
 30
0.0
 11
89.044947
 21
64.220448
 31
0.0
  0
LINE
  5
6C
100
AcDbEntity
  8
0
 62
     0
100
AcDbLine
 10
90.325277
 20
63.470448
 30
0.0
 11
89.575277
 21
64.220448
 31
0.0
  0
LINE
  5
6D
100
AcDbEntity
  8
0
 62
     0
100
AcDbLine
 10
90.855607
 20
63.470448
 30
0.0
 11
90.105607
 21
64.220448
 31
0.0
  0
LINE
  5
6E
100
AcDbEntity
  8
0
 62
     0
100
AcDbLine
 10
91.385937
 20
63.470448
 30
0.0
 11
90.635937
 21
64.220448
 31
0.0
  0
LINE
  5
6F
100
AcDbEntity
  8
0
 62
     0
100
AcDbLine
 10
91.916267
 20
63.470448
 30
0.0
 11
91.166267
 21
64.220448
 31
0.0
  0
LINE
  5
70
100
AcDbEntity
  8
0
 62
     0
100
AcDbLine
 10
92.446597
 20
63.470448
 30
0.0
 11
91.696597
 21
64.220448
 31
0.0
  0
LINE
  5
71
100
AcDbEntity
  8
0
 62
     0
100
AcDbLine
 10
92.976927
 20
63.470448
 30
0.0
 11
92.226927
 21
64.220448
 31
0.0
  0
LINE
  5
72
100
AcDbEntity
  8
0
 62
     0
100
AcDbLine
 10
93.507258
 20
63.470448
 30
0.0
 11
92.757258
 21
64.220448
 31
0.0
  0
LINE
  5
73
100
AcDbEntity
  8
0
 62
     0
100
AcDbLine
 10
94.037588
 20
63.470448
 30
0.0
 11
93.287588
 21
64.220448
 31
0.0
  0
LINE
  5
74
100
AcDbEntity
  8
0
 62
     0
100
AcDbLine
 10
94.567918
 20
63.470448
 30
0.0
 11
93.817918
 21
64.220448
 31
0.0
  0
LINE
  5
75
100
AcDbEntity
  8
0
 62
     0
100
AcDbLine
 10
95.098248
 20
63.470448
 30
0.0
 11
94.348248
 21
64.220448
 31
0.0
  0
LINE
  5
76
100
AcDbEntity
  8
0
 62
     0
100
AcDbLine
 10
95.628578
 20
63.470448
 30
0.0
 11
94.878578
 21
64.220448
 31
0.0
  0
LINE
  5
77
100
AcDbEntity
  8
0
 62
     0
100
AcDbLine
 10
96.158908
 20
63.470448
 30
0.0
 11
95.408908
 21
64.220448
 31
0.0
  0
LINE
  5
78
100
AcDbEntity
  8
0
 62
     0
100
AcDbLine
 10
96.689238
 20
63.470448
 30
0.0
 11
95.939238
 21
64.220448
 31
0.0
  0
LINE
  5
79
100
AcDbEntity
  8
0
 62
     0
100
AcDbLine
 10
97.219568
 20
63.470448
 30
0.0
 11
96.469568
 21
64.220448
 31
0.0
  0
LINE
  5
7A
100
AcDbEntity
  8
0
 62
     0
100
AcDbLine
 10
97.749898
 20
63.470448
 30
0.0
 11
96.999898
 21
64.220448
 31
0.0
  0
LINE
  5
7B
100
AcDbEntity
  8
0
 62
     0
100
AcDbLine
 10
98.280228
 20
63.470448
 30
0.0
 11
97.530228
 21
64.220448
 31
0.0
  0
LINE
  5
7C
100
AcDbEntity
  8
0
 62
     0
100
AcDbLine
 10
98.810558
 20
63.470448
 30
0.0
 11
98.060558
 21
64.220448
 31
0.0
  0
LINE
  5
7D
100
AcDbEntity
  8
0
 62
     0
100
AcDbLine
 10
99.340888
 20
63.470448
 30
0.0
 11
98.590888
 21
64.220448
 31
0.0
  0
LINE
  5
7E
100
AcDbEntity
  8
0
 62
     0
100
AcDbLine
 10
99.871219
 20
63.470448
 30
0.0
 11
99.121219
 21
64.220448
 31
0.0
  0
LINE
  5
7F
100
AcDbEntity
  8
0
 62
     0
100
AcDbLine
 10
100.401549
 20
63.470448
 30
0.0
 11
99.651549
 21
64.220448
 31
0.0
  0
LINE
  5
80
100
AcDbEntity
  8
0
 62
     0
100
AcDbLine
 10
100.931879
 20
63.470448
 30
0.0
 11
100.181879
 21
64.220448
 31
0.0
  0
LINE
  5
81
100
AcDbEntity
  8
0
 62
     0
100
AcDbLine
 10
101.462209
 20
63.470448
 30
0.0
 11
100.712209
 21
64.220448
 31
0.0
  0
LINE
  5
82
100
AcDbEntity
  8
0
 62
     0
100
AcDbLine
 10
101.992539
 20
63.470448
 30
0.0
 11
101.242539
 21
64.220448
 31
0.0
  0
LINE
  5
83
100
AcDbEntity
  8
0
 62
     0
100
AcDbLine
 10
101.942714
 20
64.050603
 30
0.0
 11
101.772869
 21
64.220448
 31
0.0
  0
ENDBLK
  5
84
100
AcDbEntity
  8
0
100
AcDbBlockEnd
  0
BLOCK
  5
85
100
AcDbEntity
  8
0
100
AcDbBlockBegin
  2
*X2
 70
     1
 10
0.0
 20
0.0
 30
0.0
  3
*X2
  1

  0
LINE
  5
86
100
AcDbEntity
  8
0
 62
     0
100
AcDbLine
 10
84.918485
 20
59.462641
 30
0.0
 11
88.926292
 21
63.470448
 31
0.0
  0
LINE
  5
87
100
AcDbEntity
  8
0
 62
     0
100
AcDbLine
 10
82.797164
 20
59.462641
 30
0.0
 11
86.804972
 21
63.470448
 31
0.0
  0
LINE
  5
88
100
AcDbEntity
  8
0
 62
     0
100
AcDbLine
 10
80.675844
 20
59.462641
 30
0.0
 11
84.683651
 21
63.470448
 31
0.0
  0
LINE
  5
89
100
AcDbEntity
  8
0
 62
     0
100
AcDbLine
 10
78.554524
 20
59.462641
 30
0.0
 11
82.562331
 21
63.470448
 31
0.0
  0
LINE
  5
8A
100
AcDbEntity
  8
0
 62
     0
100
AcDbLine
 10
76.433203
 20
59.462641
 30
0.0
 11
80.441011
 21
63.470448
 31
0.0
  0
LINE
  5
8B
100
AcDbEntity
  8
0
 62
     0
100
AcDbLine
 10
75.026797
 20
60.177555
 30
0.0
 11
78.31969
 21
63.470448
 31
0.0
  0
LINE
  5
8C
100
AcDbEntity
  8
0
 62
     0
100
AcDbLine
 10
75.026797
 20
62.298875
 30
0.0
 11
76.19837
 21
63.470448
 31
0.0
  0
LINE
  5
8D
100
AcDbEntity
  8
0
 62
     0
100
AcDbLine
 10
87.039805
 20
59.462641
 30
0.0
 11
91.047612
 21
63.470448
 31
0.0
  0
LINE
  5
8E
100
AcDbEntity
  8
0
 62
     0
100
AcDbLine
 10
89.161125
 20
59.462641
 30
0.0
 11
93.168933
 21
63.470448
 31
0.0
  0
LINE
  5
8F
100
AcDbEntity
  8
0
 62
     0
100
AcDbLine
 10
91.282446
 20
59.462641
 30
0.0
 11
95.290253
 21
63.470448
 31
0.0
  0
LINE
  5
90
100
AcDbEntity
  8
0
 62
     0
100
AcDbLine
 10
93.403766
 20
59.462641
 30
0.0
 11
97.411573
 21
63.470448
 31
0.0
  0
LINE
  5
91
100
AcDbEntity
  8
0
 62
     0
100
AcDbLine
 10
95.525086
 20
59.462641
 30
0.0
 11
99.532894
 21
63.470448
 31
0.0
  0
LINE
  5
92
100
AcDbEntity
  8
0
 62
     0
100
AcDbLine
 10
97.646407
 20
59.462641
 30
0.0
 11
99.636575
 21
61.452809
 31
0.0
  0
LINE
  5
93
100
AcDbEntity
  8
0
 62
     0
100
AcDbLine
 10
84.49926
 20
59.750523
 30
0.0
 11
84.852814
 21
60.104076
 31
0.0
  0
LINE
  5
94
100
AcDbEntity
  8
0
 62
     0
100
AcDbLine
 10
85.206367
 20
60.45763
 30
0.0
 11
85.559921
 21
60.811183
 31
0.0
  0
LINE
  5
95
100
AcDbEntity
  8
0
 62
     0
100
AcDbLine
 10
85.913474
 20
61.164737
 30
0.0
 11
86.267027
 21
61.51829
 31
0.0
  0
LINE
  5
96
100
AcDbEntity
  8
0
 62
     0
100
AcDbLine
 10
86.620581
 20
61.871843
 30
0.0
 11
86.974134
 21
62.225397
 31
0.0
  0
LINE
  5
97
100
AcDbEntity
  8
0
 62
     0
100
AcDbLine
 10
87.327687
 20
62.57895
 30
0.0
 11
87.681241
 21
62.932504
 31
0.0
  0
LINE
  5
98
100
AcDbEntity
  8
0
 62
     0
100
AcDbLine
 10
88.034794
 20
63.286057
 30
0.0
 11
88.219185
 21
63.470448
 31
0.0
  0
LINE
  5
99
100
AcDbEntity
  8
0
 62
     0
100
AcDbLine
 10
82.090058
 20
59.462641
 30
0.0
 11
82.37794
 21
59.750523
 31
0.0
  0
LINE
  5
9A
100
AcDbEntity
  8
0
 62
     0
100
AcDbLine
 10
82.731493
 20
60.104076
 30
0.0
 11
83.085047
 21
60.45763
 31
0.0
  0
LINE
  5
9B
100
AcDbEntity
  8
0
 62
     0
100
AcDbLine
 10
83.4386
 20
60.811183
 30
0.0
 11
83.792154
 21
61.164737
 31
0.0
  0
LINE
  5
9C
100
AcDbEntity
  8
0
 62
     0
100
AcDbLine
 10
84.145707
 20
61.51829
 30
0.0
 11
84.49926
 21
61.871843
 31
0.0
  0
LINE
  5
9D
100
AcDbEntity
  8
0
 62
     0
100
AcDbLine
 10
84.852814
 20
62.225397
 30
0.0
 11
85.206367
 21
62.57895
 31
0.0
  0
LINE
  5
9E
100
AcDbEntity
  8
0
 62
     0
100
AcDbLine
 10
85.559921
 20
62.932504
 30
0.0
 11
85.913474
 21
63.286057
 31
0.0
  0
LINE
  5
9F
100
AcDbEntity
  8
0
 62
     0
100
AcDbLine
 10
80.25662
 20
59.750523
 30
0.0
 11
80.610173
 21
60.104076
 31
0.0
  0
LINE
  5
A0
100
AcDbEntity
  8
0
 62
     0
100
AcDbLine
 10
80.963726
 20
60.45763
 30
0.0
 11
81.31728
 21
60.811183
 31
0.0
  0
LINE
  5
A1
100
AcDbEntity
  8
0
 62
     0
100
AcDbLine
 10
81.670833
 20
61.164737
 30
0.0
 11
82.024387
 21
61.51829
 31
0.0
  0
LINE
  5
A2
100
AcDbEntity
  8
0
 62
     0
100
AcDbLine
 10
82.37794
 20
61.871843
 30
0.0
 11
82.731493
 21
62.225397
 31
0.0
  0
LINE
  5
A3
100
AcDbEntity
  8
0
 62
     0
100
AcDbLine
 10
83.085047
 20
62.57895
 30
0.0
 11
83.4386
 21
62.932504
 31
0.0
  0
LINE
  5
A4
100
AcDbEntity
  8
0
 62
     0
100
AcDbLine
 10
83.792154
 20
63.286057
 30
0.0
 11
83.976545
 21
63.470448
 31
0.0
  0
LINE
  5
A5
100
AcDbEntity
  8
0
 62
     0
100
AcDbLine
 10
77.847417
 20
59.462641
 30
0.0
 11
78.135299
 21
59.750523
 31
0.0
  0
LINE
  5
A6
100
AcDbEntity
  8
0
 62
     0
100
AcDbLine
 10
78.488853
 20
60.104076
 30
0.0
 11
78.842406
 21
60.45763
 31
0.0
  0
LINE
  5
A7
100
AcDbEntity
  8
0
 62
     0
100
AcDbLine
 10
79.195959
 20
60.811183
 30
0.0
 11
79.549513
 21
61.164737
 31
0.0
  0
LINE
  5
A8
100
AcDbEntity
  8
0
 62
     0
100
AcDbLine
 10
79.903066
 20
61.51829
 30
0.0
 11
80.25662
 21
61.871843
 31
0.0
  0
LINE
  5
A9
100
AcDbEntity
  8
0
 62
     0
100
AcDbLine
 10
80.610173
 20
62.225397
 30
0.0
 11
80.963726
 21
62.57895
 31
0.0
  0
LINE
  5
AA
100
AcDbEntity
  8
0
 62
     0
100
AcDbLine
 10
81.31728
 20
62.932504
 30
0.0
 11
81.670833
 21
63.286057
 31
0.0
  0
LINE
  5
AB
100
AcDbEntity
  8
0
 62
     0
100
AcDbLine
 10
76.013979
 20
59.750523
 30
0.0
 11
76.367532
 21
60.104076
 31
0.0
  0
LINE
  5
AC
100
AcDbEntity
  8
0
 62
     0
100
AcDbLine
 10
76.721086
 20
60.45763
 30
0.0
 11
77.074639
 21
60.811183
 31
0.0
  0
LINE
  5
AD
100
AcDbEntity
  8
0
 62
     0
100
AcDbLine
 10
77.428193
 20
61.164737
 30
0.0
 11
77.781746
 21
61.51829
 31
0.0
  0
LINE
  5
AE
100
AcDbEntity
  8
0
 62
     0
100
AcDbLine
 10
78.135299
 20
61.871843
 30
0.0
 11
78.488853
 21
62.225397
 31
0.0
  0
LINE
  5
AF
100
AcDbEntity
  8
0
 62
     0
100
AcDbLine
 10
78.842406
 20
62.57895
 30
0.0
 11
79.195959
 21
62.932504
 31
0.0
  0
LINE
  5
B0
100
AcDbEntity
  8
0
 62
     0
100
AcDbLine
 10
79.549513
 20
63.286057
 30
0.0
 11
79.733904
 21
63.470448
 31
0.0
  0
LINE
  5
B1
100
AcDbEntity
  8
0
 62
     0
100
AcDbLine
 10
75.026797
 20
60.884661
 30
0.0
 11
75.306872
 21
61.164737
 31
0.0
  0
LINE
  5
B2
100
AcDbEntity
  8
0
 62
     0
100
AcDbLine
 10
75.660426
 20
61.51829
 30
0.0
 11
76.013979
 21
61.871843
 31
0.0
  0
LINE
  5
B3
100
AcDbEntity
  8
0
 62
     0
100
AcDbLine
 10
76.367532
 20
62.225397
 30
0.0
 11
76.721086
 21
62.57895
 31
0.0
  0
LINE
  5
B4
100
AcDbEntity
  8
0
 62
     0
100
AcDbLine
 10
77.074639
 20
62.932504
 30
0.0
 11
77.428193
 21
63.286057
 31
0.0
  0
LINE
  5
B5
100
AcDbEntity
  8
0
 62
     0
100
AcDbLine
 10
75.306872
 20
63.286057
 30
0.0
 11
75.491263
 21
63.470448
 31
0.0
  0
LINE
  5
B6
100
AcDbEntity
  8
0
 62
     0
100
AcDbLine
 10
86.332698
 20
59.462641
 30
0.0
 11
86.620581
 21
59.750523
 31
0.0
  0
LINE
  5
B7
100
AcDbEntity
  8
0
 62
     0
100
AcDbLine
 10
86.974134
 20
60.104076
 30
0.0
 11
87.327687
 21
60.45763
 31
0.0
  0
LINE
  5
B8
100
AcDbEntity
  8
0
 62
     0
100
AcDbLine
 10
87.681241
 20
60.811183
 30
0.0
 11
88.034794
 21
61.164737
 31
0.0
  0
LINE
  5
B9
100
AcDbEntity
  8
0
 62
     0
100
AcDbLine
 10
88.388348
 20
61.51829
 30
0.0
 11
88.741901
 21
61.871843
 31
0.0
  0
LINE
  5
BA
100
AcDbEntity
  8
0
 62
     0
100
AcDbLine
 10
89.095454
 20
62.225397
 30
0.0
 11
89.449008
 21
62.57895
 31
0.0
  0
LINE
  5
BB
100
AcDbEntity
  8
0
 62
     0
100
AcDbLine
 10
89.802561
 20
62.932504
 30
0.0
 11
90.156115
 21
63.286057
 31
0.0
  0
LINE
  5
BC
100
AcDbEntity
  8
0
 62
     0
100
AcDbLine
 10
88.741901
 20
59.750523
 30
0.0
 11
89.095454
 21
60.104076
 31
0.0
  0
LINE
  5
BD
100
AcDbEntity
  8
0
 62
     0
100
AcDbLine
 10
89.449008
 20
60.45763
 30
0.0
 11
89.802561
 21
60.811183
 31
0.0
  0
LINE
  5
BE
100
AcDbEntity
  8
0
 62
     0
100
AcDbLine
 10
90.156115
 20
61.164737
 30
0.0
 11
90.509668
 21
61.51829
 31
0.0
  0
LINE
  5
BF
100
AcDbEntity
  8
0
 62
     0
100
AcDbLine
 10
90.863221
 20
61.871843
 30
0.0
 11
91.216775
 21
62.225397
 31
0.0
  0
LINE
  5
C0
100
AcDbEntity
  8
0
 62
     0
100
AcDbLine
 10
91.570328
 20
62.57895
 30
0.0
 11
91.923882
 21
62.932504
 31
0.0
  0
LINE
  5
C1
100
AcDbEntity
  8
0
 62
     0
100
AcDbLine
 10
92.277435
 20
63.286057
 30
0.0
 11
92.461826
 21
63.470448
 31
0.0
  0
LINE
  5
C2
100
AcDbEntity
  8
0
 62
     0
100
AcDbLine
 10
90.575339
 20
59.462641
 30
0.0
 11
90.863221
 21
59.750523
 31
0.0
  0
LINE
  5
C3
100
AcDbEntity
  8
0
 62
     0
100
AcDbLine
 10
91.216775
 20
60.104076
 30
0.0
 11
91.570328
 21
60.45763
 31
0.0
  0
LINE
  5
C4
100
AcDbEntity
  8
0
 62
     0
100
AcDbLine
 10
91.923882
 20
60.811183
 30
0.0
 11
92.277435
 21
61.164737
 31
0.0
  0
LINE
  5
C5
100
AcDbEntity
  8
0
 62
     0
100
AcDbLine
 10
92.630988
 20
61.51829
 30
0.0
 11
92.984542
 21
61.871843
 31
0.0
  0
LINE
  5
C6
100
AcDbEntity
  8
0
 62
     0
100
AcDbLine
 10
93.338095
 20
62.225397
 30
0.0
 11
93.691649
 21
62.57895
 31
0.0
  0
LINE
  5
C7
100
AcDbEntity
  8
0
 62
     0
100
AcDbLine
 10
94.045202
 20
62.932504
 30
0.0
 11
94.398755
 21
63.286057
 31
0.0
  0
LINE
  5
C8
100
AcDbEntity
  8
0
 62
     0
100
AcDbLine
 10
92.984542
 20
59.750523
 30
0.0
 11
93.338095
 21
60.104076
 31
0.0
  0
LINE
  5
C9
100
AcDbEntity
  8
0
 62
     0
100
AcDbLine
 10
93.691649
 20
60.45763
 30
0.0
 11
94.045202
 21
60.811183
 31
0.0
  0
LINE
  5
CA
100
AcDbEntity
  8
0
 62
     0
100
AcDbLine
 10
94.398755
 20
61.164737
 30
0.0
 11
94.752309
 21
61.51829
 31
0.0
  0
LINE
  5
CB
100
AcDbEntity
  8
0
 62
     0
100
AcDbLine
 10
95.105862
 20
61.871843
 30
0.0
 11
95.459415
 21
62.225397
 31
0.0
  0
LINE
  5
CC
100
AcDbEntity
  8
0
 62
     0
100
AcDbLine
 10
95.812969
 20
62.57895
 30
0.0
 11
96.166522
 21
62.932504
 31
0.0
  0
LINE
  5
CD
100
AcDbEntity
  8
0
 62
     0
100
AcDbLine
 10
96.520076
 20
63.286057
 30
0.0
 11
96.704467
 21
63.470448
 31
0.0
  0
LINE
  5
CE
100
AcDbEntity
  8
0
 62
     0
100
AcDbLine
 10
94.81798
 20
59.462641
 30
0.0
 11
95.105862
 21
59.750523
 31
0.0
  0
LINE
  5
CF
100
AcDbEntity
  8
0
 62
     0
100
AcDbLine
 10
95.459415
 20
60.104076
 30
0.0
 11
95.812969
 21
60.45763
 31
0.0
  0
LINE
  5
D0
100
AcDbEntity
  8
0
 62
     0
100
AcDbLine
 10
96.166522
 20
60.811183
 30
0.0
 11
96.520076
 21
61.164737
 31
0.0
  0
LINE
  5
D1
100
AcDbEntity
  8
0
 62
     0
100
AcDbLine
 10
96.873629
 20
61.51829
 30
0.0
 11
97.227182
 21
61.871843
 31
0.0
  0
LINE
  5
D2
100
AcDbEntity
  8
0
 62
     0
100
AcDbLine
 10
97.580736
 20
62.225397
 30
0.0
 11
97.934289
 21
62.57895
 31
0.0
  0
LINE
  5
D3
100
AcDbEntity
  8
0
 62
     0
100
AcDbLine
 10
98.287843
 20
62.932504
 30
0.0
 11
98.641396
 21
63.286057
 31
0.0
  0
LINE
  5
D4
100
AcDbEntity
  8
0
 62
     0
100
AcDbLine
 10
97.227182
 20
59.750523
 30
0.0
 11
97.580736
 21
60.104076
 31
0.0
  0
LINE
  5
D5
100
AcDbEntity
  8
0
 62
     0
100
AcDbLine
 10
97.934289
 20
60.45763
 30
0.0
 11
98.287843
 21
60.811183
 31
0.0
  0
LINE
  5
D6
100
AcDbEntity
  8
0
 62
     0
100
AcDbLine
 10
98.641396
 20
61.164737
 30
0.0
 11
98.994949
 21
61.51829
 31
0.0
  0
LINE
  5
D7
100
AcDbEntity
  8
0
 62
     0
100
AcDbLine
 10
99.348503
 20
61.871843
 30
0.0
 11
99.564826
 21
62.088166
 31
0.0
  0
LINE
  5
D8
100
AcDbEntity
  8
0
 62
     0
100
AcDbLine
 10
83.504271
 20
59.462641
 30
0.0
 11
83.792154
 21
59.750523
 31
0.0
  0
LINE
  5
D9
100
AcDbEntity
  8
0
 62
     0
100
AcDbLine
 10
84.145707
 20
60.104076
 30
0.0
 11
84.49926
 21
60.45763
 31
0.0
  0
LINE
  5
DA
100
AcDbEntity
  8
0
 62
     0
100
AcDbLine
 10
84.852814
 20
60.811183
 30
0.0
 11
85.206367
 21
61.164737
 31
0.0
  0
LINE
  5
DB
100
AcDbEntity
  8
0
 62
     0
100
AcDbLine
 10
85.559921
 20
61.51829
 30
0.0
 11
85.913474
 21
61.871843
 31
0.0
  0
LINE
  5
DC
100
AcDbEntity
  8
0
 62
     0
100
AcDbLine
 10
86.267027
 20
62.225397
 30
0.0
 11
86.620581
 21
62.57895
 31
0.0
  0
LINE
  5
DD
100
AcDbEntity
  8
0
 62
     0
100
AcDbLine
 10
86.974134
 20
62.932504
 30
0.0
 11
87.327687
 21
63.286057
 31
0.0
  0
LINE
  5
DE
100
AcDbEntity
  8
0
 62
     0
100
AcDbLine
 10
81.670833
 20
59.750523
 30
0.0
 11
82.024387
 21
60.104076
 31
0.0
  0
LINE
  5
DF
100
AcDbEntity
  8
0
 62
     0
100
AcDbLine
 10
82.37794
 20
60.45763
 30
0.0
 11
82.731493
 21
60.811183
 31
0.0
  0
LINE
  5
E0
100
AcDbEntity
  8
0
 62
     0
100
AcDbLine
 10
83.085047
 20
61.164737
 30
0.0
 11
83.4386
 21
61.51829
 31
0.0
  0
LINE
  5
E1
100
AcDbEntity
  8
0
 62
     0
100
AcDbLine
 10
83.792154
 20
61.871843
 30
0.0
 11
84.145707
 21
62.225397
 31
0.0
  0
LINE
  5
E2
100
AcDbEntity
  8
0
 62
     0
100
AcDbLine
 10
84.49926
 20
62.57895
 30
0.0
 11
84.852814
 21
62.932504
 31
0.0
  0
LINE
  5
E3
100
AcDbEntity
  8
0
 62
     0
100
AcDbLine
 10
85.206367
 20
63.286057
 30
0.0
 11
85.390758
 21
63.470448
 31
0.0
  0
LINE
  5
E4
100
AcDbEntity
  8
0
 62
     0
100
AcDbLine
 10
79.26163
 20
59.462641
 30
0.0
 11
79.549513
 21
59.750523
 31
0.0
  0
LINE
  5
E5
100
AcDbEntity
  8
0
 62
     0
100
AcDbLine
 10
79.903066
 20
60.104076
 30
0.0
 11
80.25662
 21
60.45763
 31
0.0
  0
LINE
  5
E6
100
AcDbEntity
  8
0
 62
     0
100
AcDbLine
 10
80.610173
 20
60.811183
 30
0.0
 11
80.963726
 21
61.164737
 31
0.0
  0
LINE
  5
E7
100
AcDbEntity
  8
0
 62
     0
100
AcDbLine
 10
81.31728
 20
61.51829
 30
0.0
 11
81.670833
 21
61.871843
 31
0.0
  0
LINE
  5
E8
100
AcDbEntity
  8
0
 62
     0
100
AcDbLine
 10
82.024387
 20
62.225397
 30
0.0
 11
82.37794
 21
62.57895
 31
0.0
  0
LINE
  5
E9
100
AcDbEntity
  8
0
 62
     0
100
AcDbLine
 10
82.731493
 20
62.932504
 30
0.0
 11
83.085047
 21
63.286057
 31
0.0
  0
LINE
  5
EA
100
AcDbEntity
  8
0
 62
     0
100
AcDbLine
 10
77.428193
 20
59.750523
 30
0.0
 11
77.781746
 21
60.104076
 31
0.0
  0
LINE
  5
EB
100
AcDbEntity
  8
0
 62
     0
100
AcDbLine
 10
78.135299
 20
60.45763
 30
0.0
 11
78.488853
 21
60.811183
 31
0.0
  0
LINE
  5
EC
100
AcDbEntity
  8
0
 62
     0
100
AcDbLine
 10
78.842406
 20
61.164737
 30
0.0
 11
79.195959
 21
61.51829
 31
0.0
  0
LINE
  5
ED
100
AcDbEntity
  8
0
 62
     0
100
AcDbLine
 10
79.549513
 20
61.871843
 30
0.0
 11
79.903066
 21
62.225397
 31
0.0
  0
LINE
  5
EE
100
AcDbEntity
  8
0
 62
     0
100
AcDbLine
 10
80.25662
 20
62.57895
 30
0.0
 11
80.610173
 21
62.932504
 31
0.0
  0
LINE
  5
EF
100
AcDbEntity
  8
0
 62
     0
100
AcDbLine
 10
80.963726
 20
63.286057
 30
0.0
 11
81.148117
 21
63.470448
 31
0.0
  0
LINE
  5
F0
100
AcDbEntity
  8
0
 62
     0
100
AcDbLine
 10
75.026797
 20
59.470448
 30
0.0
 11
75.306872
 21
59.750523
 31
0.0
  0
LINE
  5
F1
100
AcDbEntity
  8
0
 62
     0
100
AcDbLine
 10
75.660426
 20
60.104076
 30
0.0
 11
76.013979
 21
60.45763
 31
0.0
  0
LINE
  5
F2
100
AcDbEntity
  8
0
 62
     0
100
AcDbLine
 10
76.367532
 20
60.811183
 30
0.0
 11
76.721086
 21
61.164737
 31
0.0
  0
LINE
  5
F3
100
AcDbEntity
  8
0
 62
     0
100
AcDbLine
 10
77.074639
 20
61.51829
 30
0.0
 11
77.428193
 21
61.871843
 31
0.0
  0
LINE
  5
F4
100
AcDbEntity
  8
0
 62
     0
100
AcDbLine
 10
77.781746
 20
62.225397
 30
0.0
 11
78.135299
 21
62.57895
 31
0.0
  0
LINE
  5
F5
100
AcDbEntity
  8
0
 62
     0
100
AcDbLine
 10
78.488853
 20
62.932504
 30
0.0
 11
78.842406
 21
63.286057
 31
0.0
  0
LINE
  5
F6
100
AcDbEntity
  8
0
 62
     0
100
AcDbLine
 10
75.306872
 20
61.871843
 30
0.0
 11
75.660426
 21
62.225397
 31
0.0
  0
LINE
  5
F7
100
AcDbEntity
  8
0
 62
     0
100
AcDbLine
 10
76.013979
 20
62.57895
 30
0.0
 11
76.367532
 21
62.932504
 31
0.0
  0
LINE
  5
F8
100
AcDbEntity
  8
0
 62
     0
100
AcDbLine
 10
76.721086
 20
63.286057
 30
0.0
 11
76.905477
 21
63.470448
 31
0.0
  0
LINE
  5
F9
100
AcDbEntity
  8
0
 62
     0
100
AcDbLine
 10
85.913474
 20
59.750523
 30
0.0
 11
86.267027
 21
60.104076
 31
0.0
  0
LINE
  5
FA
100
AcDbEntity
  8
0
 62
     0
100
AcDbLine
 10
86.620581
 20
60.45763
 30
0.0
 11
86.974134
 21
60.811183
 31
0.0
  0
LINE
  5
FB
100
AcDbEntity
  8
0
 62
     0
100
AcDbLine
 10
87.327687
 20
61.164737
 30
0.0
 11
87.681241
 21
61.51829
 31
0.0
  0
LINE
  5
FC
100
AcDbEntity
  8
0
 62
     0
100
AcDbLine
 10
88.034794
 20
61.871843
 30
0.0
 11
88.388348
 21
62.225397
 31
0.0
  0
LINE
  5
FD
100
AcDbEntity
  8
0
 62
     0
100
AcDbLine
 10
88.741901
 20
62.57895
 30
0.0
 11
89.095454
 21
62.932504
 31
0.0
  0
LINE
  5
FE
100
AcDbEntity
  8
0
 62
     0
100
AcDbLine
 10
89.449008
 20
63.286057
 30
0.0
 11
89.633399
 21
63.470448
 31
0.0
  0
LINE
  5
FF
100
AcDbEntity
  8
0
 62
     0
100
AcDbLine
 10
87.746912
 20
59.462641
 30
0.0
 11
88.034794
 21
59.750523
 31
0.0
  0
LINE
  5
100
100
AcDbEntity
  8
0
 62
     0
100
AcDbLine
 10
88.388348
 20
60.104076
 30
0.0
 11
88.741901
 21
60.45763
 31
0.0
  0
LINE
  5
101
100
AcDbEntity
  8
0
 62
     0
100
AcDbLine
 10
89.095454
 20
60.811183
 30
0.0
 11
89.449008
 21
61.164737
 31
0.0
  0
LINE
  5
102
100
AcDbEntity
  8
0
 62
     0
100
AcDbLine
 10
89.802561
 20
61.51829
 30
0.0
 11
90.156115
 21
61.871843
 31
0.0
  0
LINE
  5
103
100
AcDbEntity
  8
0
 62
     0
100
AcDbLine
 10
90.509668
 20
62.225397
 30
0.0
 11
90.863221
 21
62.57895
 31
0.0
  0
LINE
  5
104
100
AcDbEntity
  8
0
 62
     0
100
AcDbLine
 10
91.216775
 20
62.932504
 30
0.0
 11
91.570328
 21
63.286057
 31
0.0
  0
LINE
  5
105
100
AcDbEntity
  8
0
 62
     0
100
AcDbLine
 10
90.156115
 20
59.750523
 30
0.0
 11
90.509668
 21
60.104076
 31
0.0
  0
LINE
  5
106
100
AcDbEntity
  8
0
 62
     0
100
AcDbLine
 10
90.863221
 20
60.45763
 30
0.0
 11
91.216775
 21
60.811183
 31
0.0
  0
LINE
  5
107
100
AcDbEntity
  8
0
 62
     0
100
AcDbLine
 10
91.570328
 20
61.164737
 30
0.0
 11
91.923882
 21
61.51829
 31
0.0
  0
LINE
  5
108
100
AcDbEntity
  8
0
 62
     0
100
AcDbLine
 10
92.277435
 20
61.871843
 30
0.0
 11
92.630988
 21
62.225397
 31
0.0
  0
LINE
  5
109
100
AcDbEntity
  8
0
 62
     0
100
AcDbLine
 10
92.984542
 20
62.57895
 30
0.0
 11
93.338095
 21
62.932504
 31
0.0
  0
LINE
  5
10A
100
AcDbEntity
  8
0
 62
     0
100
AcDbLine
 10
93.691649
 20
63.286057
 30
0.0
 11
93.876039
 21
63.470448
 31
0.0
  0
LINE
  5
10B
100
AcDbEntity
  8
0
 62
     0
100
AcDbLine
 10
91.989552
 20
59.462641
 30
0.0
 11
92.277435
 21
59.750523
 31
0.0
  0
LINE
  5
10C
100
AcDbEntity
  8
0
 62
     0
100
AcDbLine
 10
92.630988
 20
60.104076
 30
0.0
 11
92.984542
 21
60.45763
 31
0.0
  0
LINE
  5
10D
100
AcDbEntity
  8
0
 62
     0
100
AcDbLine
 10
93.338095
 20
60.811183
 30
0.0
 11
93.691649
 21
61.164737
 31
0.0
  0
LINE
  5
10E
100
AcDbEntity
  8
0
 62
     0
100
AcDbLine
 10
94.045202
 20
61.51829
 30
0.0
 11
94.398755
 21
61.871843
 31
0.0
  0
LINE
  5
10F
100
AcDbEntity
  8
0
 62
     0
100
AcDbLine
 10
94.752309
 20
62.225397
 30
0.0
 11
95.105862
 21
62.57895
 31
0.0
  0
LINE
  5
110
100
AcDbEntity
  8
0
 62
     0
100
AcDbLine
 10
95.459415
 20
62.932504
 30
0.0
 11
95.812969
 21
63.286057
 31
0.0
  0
LINE
  5
111
100
AcDbEntity
  8
0
 62
     0
100
AcDbLine
 10
94.398755
 20
59.750523
 30
0.0
 11
94.752309
 21
60.104076
 31
0.0
  0
LINE
  5
112
100
AcDbEntity
  8
0
 62
     0
100
AcDbLine
 10
95.105862
 20
60.45763
 30
0.0
 11
95.459415
 21
60.811183
 31
0.0
  0
LINE
  5
113
100
AcDbEntity
  8
0
 62
     0
100
AcDbLine
 10
95.812969
 20
61.164737
 30
0.0
 11
96.166522
 21
61.51829
 31
0.0
  0
LINE
  5
114
100
AcDbEntity
  8
0
 62
     0
100
AcDbLine
 10
96.520076
 20
61.871843
 30
0.0
 11
96.873629
 21
62.225397
 31
0.0
  0
LINE
  5
115
100
AcDbEntity
  8
0
 62
     0
100
AcDbLine
 10
97.227182
 20
62.57895
 30
0.0
 11
97.580736
 21
62.932504
 31
0.0
  0
LINE
  5
116
100
AcDbEntity
  8
0
 62
     0
100
AcDbLine
 10
97.934289
 20
63.286057
 30
0.0
 11
98.11868
 21
63.470448
 31
0.0
  0
LINE
  5
117
100
AcDbEntity
  8
0
 62
     0
100
AcDbLine
 10
96.232193
 20
59.462641
 30
0.0
 11
96.520076
 21
59.750523
 31
0.0
  0
LINE
  5
118
100
AcDbEntity
  8
0
 62
     0
100
AcDbLine
 10
96.873629
 20
60.104076
 30
0.0
 11
97.227182
 21
60.45763
 31
0.0
  0
LINE
  5
119
100
AcDbEntity
  8
0
 62
     0
100
AcDbLine
 10
97.580736
 20
60.811183
 30
0.0
 11
97.934289
 21
61.164737
 31
0.0
  0
LINE
  5
11A
100
AcDbEntity
  8
0
 62
     0
100
AcDbLine
 10
98.287843
 20
61.51829
 30
0.0
 11
98.641396
 21
61.871843
 31
0.0
  0
LINE
  5
11B
100
AcDbEntity
  8
0
 62
     0
100
AcDbLine
 10
98.994949
 20
62.225397
 30
0.0
 11
99.348503
 21
62.57895
 31
0.0
  0
LINE
  5
11C
100
AcDbEntity
  8
0
 62
     0
100
AcDbLine
 10
98.956396
 20
60.065523
 30
0.0
 11
98.994949
 21
60.104076
 31
0.0
  0
LINE
  5
11D
100
AcDbEntity
  8
0
 62
     0
100
AcDbLine
 10
99.348503
 20
60.45763
 30
0.0
 11
99.702056
 21
60.811183
 31
0.0
  0
ENDBLK
  5
11E
100
AcDbEntity
  8
0
100
AcDbBlockEnd
  0
BLOCK
  5
11F
100
AcDbEntity
  8
0
100
AcDbBlockBegin
  2
*X3
 70
     1
 10
0.0
 20
0.0
 30
0.0
  3
*X3
  1

  0
LINE
  5
120
100
AcDbEntity
  8
0
 62
     0
100
AcDbLine
 10
63.026797
 20
48.884661
 30
0.0
 11
66.026797
 21
51.884661
 31
0.0
  0
LINE
  5
121
100
AcDbEntity
  8
0
 62
     0
100
AcDbLine
 10
73.291352
 20
59.149216
 30
0.0
 11
75.026797
 21
60.884661
 31
0.0
  0
LINE
  5
122
100
AcDbEntity
  8
0
 62
     0
100
AcDbLine
 10
72.104776
 20
57.962641
 30
0.0
 11
73.291352
 21
59.149216
 31
0.0
  0
LINE
  5
123
100
AcDbEntity
  8
0
 62
     0
100
AcDbLine
 10
63.026797
 20
50.652428
 30
0.0
 11
66.026797
 21
53.652428
 31
0.0
  0
LINE
  5
124
100
AcDbEntity
  8
0
 62
     0
100
AcDbLine
 10
73.337009
 20
60.962641
 30
0.0
 11
75.026797
 21
62.652428
 31
0.0
  0
LINE
  5
125
100
AcDbEntity
  8
0
 62
     0
100
AcDbLine
 10
72.026797
 20
59.652428
 30
0.0
 11
73.337009
 21
60.962641
 31
0.0
  0
LINE
  5
126
100
AcDbEntity
  8
0
 62
     0
100
AcDbLine
 10
63.026797
 20
52.420195
 30
0.0
 11
66.026797
 21
55.420195
 31
0.0
  0
LINE
  5
127
100
AcDbEntity
  8
0
 62
     0
100
AcDbLine
 10
72.026797
 20
61.420195
 30
0.0
 11
75.026797
 21
64.420195
 31
0.0
  0
LINE
  5
128
100
AcDbEntity
  8
0
 62
     0
100
AcDbLine
 10
63.026797
 20
54.187962
 30
0.0
 11
66.026797
 21
57.187962
 31
0.0
  0
LINE
  5
129
100
AcDbEntity
  8
0
 62
     0
100
AcDbLine
 10
72.026797
 20
63.187962
 30
0.0
 11
75.026797
 21
66.187962
 31
0.0
  0
LINE
  5
12A
100
AcDbEntity
  8
0
 62
     0
100
AcDbLine
 10
63.026797
 20
55.955729
 30
0.0
 11
66.026797
 21
58.955729
 31
0.0
  0
LINE
  5
12B
100
AcDbEntity
  8
0
 62
     0
100
AcDbLine
 10
72.026797
 20
64.955729
 30
0.0
 11
75.026797
 21
67.955729
 31
0.0
  0
LINE
  5
12C
100
AcDbEntity
  8
0
 62
     0
100
AcDbLine
 10
63.026797
 20
57.723496
 30
0.0
 11
66.026797
 21
60.723496
 31
0.0
  0
LINE
  5
12D
100
AcDbEntity
  8
0
 62
     0
100
AcDbLine
 10
72.026797
 20
66.723496
 30
0.0
 11
75.026797
 21
69.723496
 31
0.0
  0
LINE
  5
12E
100
AcDbEntity
  8
0
 62
     0
100
AcDbLine
 10
63.026797
 20
59.491263
 30
0.0
 11
64.498174
 21
60.962641
 31
0.0
  0
LINE
  5
12F
100
AcDbEntity
  8
0
 62
     0
100
AcDbLine
 10
72.026797
 20
68.491263
 30
0.0
 11
75.026797
 21
71.491263
 31
0.0
  0
LINE
  5
130
100
AcDbEntity
  8
0
 62
     0
100
AcDbLine
 10
64.498174
 20
60.962641
 30
0.0
 11
66.026797
 21
62.491263
 31
0.0
  0
LINE
  5
131
100
AcDbEntity
  8
0
 62
     0
100
AcDbLine
 10
63.026797
 20
61.25903
 30
0.0
 11
66.026797
 21
64.25903
 31
0.0
  0
LINE
  5
132
100
AcDbEntity
  8
0
 62
     0
100
AcDbLine
 10
72.026797
 20
70.25903
 30
0.0
 11
75.026797
 21
73.25903
 31
0.0
  0
LINE
  5
133
100
AcDbEntity
  8
0
 62
     0
100
AcDbLine
 10
63.026797
 20
63.026797
 30
0.0
 11
66.026797
 21
66.026797
 31
0.0
  0
LINE
  5
134
100
AcDbEntity
  8
0
 62
     0
100
AcDbLine
 10
72.026797
 20
72.026797
 30
0.0
 11
75.026797
 21
75.026797
 31
0.0
  0
LINE
  5
135
100
AcDbEntity
  8
0
 62
     0
100
AcDbLine
 10
63.026797
 20
64.794564
 30
0.0
 11
66.026797
 21
67.794564
 31
0.0
  0
LINE
  5
136
100
AcDbEntity
  8
0
 62
     0
100
AcDbLine
 10
72.026797
 20
73.794564
 30
0.0
 11
74.194874
 21
75.962641
 31
0.0
  0
LINE
  5
137
100
AcDbEntity
  8
0
 62
     0
100
AcDbLine
 10
63.026797
 20
66.562331
 30
0.0
 11
66.026797
 21
69.562331
 31
0.0
  0
LINE
  5
138
100
AcDbEntity
  8
0
 62
     0
100
AcDbLine
 10
72.026797
 20
75.562331
 30
0.0
 11
72.427107
 21
75.962641
 31
0.0
  0
LINE
  5
139
100
AcDbEntity
  8
0
 62
     0
100
AcDbLine
 10
63.026797
 20
68.330098
 30
0.0
 11
66.026797
 21
71.330098
 31
0.0
  0
LINE
  5
13A
100
AcDbEntity
  8
0
 62
     0
100
AcDbLine
 10
63.026797
 20
70.097865
 30
0.0
 11
66.026797
 21
73.097865
 31
0.0
  0
LINE
  5
13B
100
AcDbEntity
  8
0
 62
     0
100
AcDbLine
 10
63.026797
 20
71.865632
 30
0.0
 11
66.026797
 21
74.865632
 31
0.0
  0
LINE
  5
13C
100
AcDbEntity
  8
0
 62
     0
100
AcDbLine
 10
63.026797
 20
73.633399
 30
0.0
 11
65.356039
 21
75.962641
 31
0.0
  0
LINE
  5
13D
100
AcDbEntity
  8
0
 62
     0
100
AcDbLine
 10
63.026797
 20
75.401166
 30
0.0
 11
63.588272
 21
75.962641
 31
0.0
  0
LINE
  5
13E
100
AcDbEntity
  8
0
 62
     0
100
AcDbLine
 10
63.026797
 20
47.116895
 30
0.0
 11
66.026797
 21
50.116895
 31
0.0
  0
LINE
  5
13F
100
AcDbEntity
  8
0
 62
     0
100
AcDbLine
 10
74.690213
 20
58.78031
 30
0.0
 11
75.026797
 21
59.116895
 31
0.0
  0
LINE
  5
140
100
AcDbEntity
  8
0
 62
     0
100
AcDbLine
 10
73.872543
 20
57.962641
 30
0.0
 11
74.690213
 21
58.78031
 31
0.0
  0
LINE
  5
141
100
AcDbEntity
  8
0
 62
     0
100
AcDbLine
 10
63.026797
 20
45.349128
 30
0.0
 11
63.64031
 21
45.962641
 31
0.0
  0
LINE
  5
142
100
AcDbEntity
  8
0
 62
     0
100
AcDbLine
 10
63.64031
 20
45.962641
 30
0.0
 11
66.026797
 21
48.349128
 31
0.0
  0
LINE
  5
143
100
AcDbEntity
  8
0
 62
     0
100
AcDbLine
 10
63.026797
 20
43.581361
 30
0.0
 11
65.408077
 21
45.962641
 31
0.0
  0
LINE
  5
144
100
AcDbEntity
  8
0
 62
     0
100
AcDbLine
 10
65.408077
 20
45.962641
 30
0.0
 11
66.026797
 21
46.581361
 31
0.0
  0
LINE
  5
145
100
AcDbEntity
  8
0
 62
     0
100
AcDbLine
 10
63.026797
 20
41.813594
 30
0.0
 11
66.026797
 21
44.813594
 31
0.0
  0
LINE
  5
146
100
AcDbEntity
  8
0
 62
     0
100
AcDbLine
 10
63.026797
 20
40.045827
 30
0.0
 11
66.026797
 21
43.045827
 31
0.0
  0
LINE
  5
147
100
AcDbEntity
  8
0
 62
     0
100
AcDbLine
 10
63.026797
 20
38.27806
 30
0.0
 11
66.026797
 21
41.27806
 31
0.0
  0
LINE
  5
148
100
AcDbEntity
  8
0
 62
     0
100
AcDbLine
 10
72.026797
 20
47.27806
 30
0.0
 11
72.711378
 21
47.962641
 31
0.0
  0
LINE
  5
149
100
AcDbEntity
  8
0
 62
     0
100
AcDbLine
 10
63.026797
 20
36.510293
 30
0.0
 11
66.026797
 21
39.510293
 31
0.0
  0
LINE
  5
14A
100
AcDbEntity
  8
0
 62
     0
100
AcDbLine
 10
72.479145
 20
45.962641
 30
0.0
 11
74.479145
 21
47.962641
 31
0.0
  0
LINE
  5
14B
100
AcDbEntity
  8
0
 62
     0
100
AcDbLine
 10
72.026797
 20
45.510293
 30
0.0
 11
72.479145
 21
45.962641
 31
0.0
  0
LINE
  5
14C
100
AcDbEntity
  8
0
 62
     0
100
AcDbLine
 10
63.026797
 20
34.742526
 30
0.0
 11
66.026797
 21
37.742526
 31
0.0
  0
LINE
  5
14D
100
AcDbEntity
  8
0
 62
     0
100
AcDbLine
 10
74.246912
 20
45.962641
 30
0.0
 11
75.026797
 21
46.742526
 31
0.0
  0
LINE
  5
14E
100
AcDbEntity
  8
0
 62
     0
100
AcDbLine
 10
72.026797
 20
43.742526
 30
0.0
 11
74.246912
 21
45.962641
 31
0.0
  0
LINE
  5
14F
100
AcDbEntity
  8
0
 62
     0
100
AcDbLine
 10
63.026797
 20
32.974759
 30
0.0
 11
66.026797
 21
35.974759
 31
0.0
  0
LINE
  5
150
100
AcDbEntity
  8
0
 62
     0
100
AcDbLine
 10
72.026797
 20
41.974759
 30
0.0
 11
75.026797
 21
44.974759
 31
0.0
  0
LINE
  5
151
100
AcDbEntity
  8
0
 62
     0
100
AcDbLine
 10
63.026797
 20
31.206992
 30
0.0
 11
66.026797
 21
34.206992
 31
0.0
  0
LINE
  5
152
100
AcDbEntity
  8
0
 62
     0
100
AcDbLine
 10
72.026797
 20
40.206992
 30
0.0
 11
75.026797
 21
43.206992
 31
0.0
  0
LINE
  5
153
100
AcDbEntity
  8
0
 62
     0
100
AcDbLine
 10
64.550213
 20
30.962641
 30
0.0
 11
66.026797
 21
32.439225
 31
0.0
  0
LINE
  5
154
100
AcDbEntity
  8
0
 62
     0
100
AcDbLine
 10
72.026797
 20
38.439225
 30
0.0
 11
75.026797
 21
41.439225
 31
0.0
  0
LINE
  5
155
100
AcDbEntity
  8
0
 62
     0
100
AcDbLine
 10
72.026797
 20
36.671458
 30
0.0
 11
75.026797
 21
39.671458
 31
0.0
  0
LINE
  5
156
100
AcDbEntity
  8
0
 62
     0
100
AcDbLine
 10
72.026797
 20
34.903691
 30
0.0
 11
75.026797
 21
37.903691
 31
0.0
  0
LINE
  5
157
100
AcDbEntity
  8
0
 62
     0
100
AcDbLine
 10
72.026797
 20
33.135924
 30
0.0
 11
75.026797
 21
36.135924
 31
0.0
  0
LINE
  5
158
100
AcDbEntity
  8
0
 62
     0
100
AcDbLine
 10
72.026797
 20
31.368157
 30
0.0
 11
75.026797
 21
34.368157
 31
0.0
  0
LINE
  5
159
100
AcDbEntity
  8
0
 62
     0
100
AcDbLine
 10
73.389047
 20
30.962641
 30
0.0
 11
75.026797
 21
32.60039
 31
0.0
  0
LINE
  5
15A
100
AcDbEntity
  8
0
 62
     0
100
AcDbLine
 10
63.026797
 20
48.000778
 30
0.0
 11
63.418639
 21
48.39262
 31
0.0
  0
LINE
  5
15B
100
AcDbEntity
  8
0
 62
     0
100
AcDbLine
 10
63.63961
 20
48.613591
 30
0.0
 11
64.081552
 21
49.055533
 31
0.0
  0
LINE
  5
15C
100
AcDbEntity
  8
0
 62
     0
100
AcDbLine
 10
64.302523
 20
49.276504
 30
0.0
 11
64.744465
 21
49.718446
 31
0.0
  0
LINE
  5
15D
100
AcDbEntity
  8
0
 62
     0
100
AcDbLine
 10
64.965436
 20
49.939416
 30
0.0
 11
65.407377
 21
50.381358
 31
0.0
  0
LINE
  5
15E
100
AcDbEntity
  8
0
 62
     0
100
AcDbLine
 10
65.628348
 20
50.602329
 30
0.0
 11
66.026797
 21
51.000778
 31
0.0
  0
LINE
  5
15F
100
AcDbEntity
  8
0
 62
     0
100
AcDbLine
 10
73.990782
 20
58.964763
 30
0.0
 11
74.025241
 21
58.999222
 31
0.0
  0
LINE
  5
160
100
AcDbEntity
  8
0
 62
     0
100
AcDbLine
 10
74.246212
 20
59.220193
 30
0.0
 11
74.688154
 21
59.662135
 31
0.0
  0
LINE
  5
161
100
AcDbEntity
  8
0
 62
     0
100
AcDbLine
 10
74.909125
 20
59.883106
 30
0.0
 11
75.026797
 21
60.000778
 31
0.0
  0
LINE
  5
162
100
AcDbEntity
  8
0
 62
     0
100
AcDbLine
 10
72.98866
 20
57.962641
 30
0.0
 11
73.362329
 21
58.336309
 31
0.0
  0
LINE
  5
163
100
AcDbEntity
  8
0
 62
     0
100
AcDbLine
 10
73.583299
 20
58.55728
 30
0.0
 11
73.990782
 21
58.964763
 31
0.0
  0
LINE
  5
164
100
AcDbEntity
  8
0
 62
     0
100
AcDbLine
 10
63.026797
 20
49.768545
 30
0.0
 11
63.197669
 21
49.939416
 31
0.0
  0
LINE
  5
165
100
AcDbEntity
  8
0
 62
     0
100
AcDbLine
 10
63.418639
 20
50.160387
 30
0.0
 11
63.860581
 21
50.602329
 31
0.0
  0
LINE
  5
166
100
AcDbEntity
  8
0
 62
     0
100
AcDbLine
 10
64.081552
 20
50.8233
 30
0.0
 11
64.523494
 21
51.265242
 31
0.0
  0
LINE
  5
167
100
AcDbEntity
  8
0
 62
     0
100
AcDbLine
 10
64.744465
 20
51.486213
 30
0.0
 11
65.186406
 21
51.928154
 31
0.0
  0
LINE
  5
168
100
AcDbEntity
  8
0
 62
     0
100
AcDbLine
 10
65.407377
 20
52.149125
 30
0.0
 11
65.849319
 21
52.591067
 31
0.0
  0
LINE
  5
169
100
AcDbEntity
  8
0
 62
     0
100
AcDbLine
 10
74.220893
 20
60.962641
 30
0.0
 11
74.467183
 21
61.208931
 31
0.0
  0
LINE
  5
16A
100
AcDbEntity
  8
0
 62
     0
100
AcDbLine
 10
74.688154
 20
61.429902
 30
0.0
 11
75.026797
 21
61.768545
 31
0.0
  0
LINE
  5
16B
100
AcDbEntity
  8
0
 62
     0
100
AcDbLine
 10
72.036503
 20
58.778251
 30
0.0
 11
72.478445
 21
59.220193
 31
0.0
  0
LINE
  5
16C
100
AcDbEntity
  8
0
 62
     0
100
AcDbLine
 10
72.699416
 20
59.441164
 30
0.0
 11
73.141358
 21
59.883106
 31
0.0
  0
LINE
  5
16D
100
AcDbEntity
  8
0
 62
     0
100
AcDbLine
 10
73.362329
 20
60.104076
 30
0.0
 11
73.80427
 21
60.546018
 31
0.0
  0
LINE
  5
16E
100
AcDbEntity
  8
0
 62
     0
100
AcDbLine
 10
74.025241
 20
60.766989
 30
0.0
 11
74.220893
 21
60.962641
 31
0.0
  0
LINE
  5
16F
100
AcDbEntity
  8
0
 62
     0
100
AcDbLine
 10
63.197669
 20
51.707183
 30
0.0
 11
63.63961
 21
52.149125
 31
0.0
  0
LINE
  5
170
100
AcDbEntity
  8
0
 62
     0
100
AcDbLine
 10
63.860581
 20
52.370096
 30
0.0
 11
64.302523
 21
52.812038
 31
0.0
  0
LINE
  5
171
100
AcDbEntity
  8
0
 62
     0
100
AcDbLine
 10
64.523494
 20
53.033009
 30
0.0
 11
64.965436
 21
53.47495
 31
0.0
  0
LINE
  5
172
100
AcDbEntity
  8
0
 62
     0
100
AcDbLine
 10
65.186406
 20
53.695921
 30
0.0
 11
65.628348
 21
54.137863
 31
0.0
  0
LINE
  5
173
100
AcDbEntity
  8
0
 62
     0
100
AcDbLine
 10
65.849319
 20
54.358834
 30
0.0
 11
66.026797
 21
54.536312
 31
0.0
  0
LINE
  5
174
100
AcDbEntity
  8
0
 62
     0
100
AcDbLine
 10
72.478445
 20
60.98796
 30
0.0
 11
72.920387
 21
61.429902
 31
0.0
  0
LINE
  5
175
100
AcDbEntity
  8
0
 62
     0
100
AcDbLine
 10
73.141358
 20
61.650872
 30
0.0
 11
73.583299
 21
62.092814
 31
0.0
  0
LINE
  5
176
100
AcDbEntity
  8
0
 62
     0
100
AcDbLine
 10
73.80427
 20
62.313785
 30
0.0
 11
74.246212
 21
62.755727
 31
0.0
  0
LINE
  5
177
100
AcDbEntity
  8
0
 62
     0
100
AcDbLine
 10
74.467183
 20
62.976698
 30
0.0
 11
74.909125
 21
63.418639
 31
0.0
  0
LINE
  5
178
100
AcDbEntity
  8
0
 62
     0
100
AcDbLine
 10
72.026797
 20
60.536312
 30
0.0
 11
72.257474
 21
60.766989
 31
0.0
  0
LINE
  5
179
100
AcDbEntity
  8
0
 62
     0
100
AcDbLine
 10
63.026797
 20
53.304079
 30
0.0
 11
63.418639
 21
53.695921
 31
0.0
  0
LINE
  5
17A
100
AcDbEntity
  8
0
 62
     0
100
AcDbLine
 10
63.63961
 20
53.916892
 30
0.0
 11
64.081552
 21
54.358834
 31
0.0
  0
LINE
  5
17B
100
AcDbEntity
  8
0
 62
     0
100
AcDbLine
 10
64.302523
 20
54.579805
 30
0.0
 11
64.744465
 21
55.021746
 31
0.0
  0
LINE
  5
17C
100
AcDbEntity
  8
0
 62
     0
100
AcDbLine
 10
64.965436
 20
55.242717
 30
0.0
 11
65.407377
 21
55.684659
 31
0.0
  0
LINE
  5
17D
100
AcDbEntity
  8
0
 62
     0
100
AcDbLine
 10
65.628348
 20
55.90563
 30
0.0
 11
66.026797
 21
56.304079
 31
0.0
  0
LINE
  5
17E
100
AcDbEntity
  8
0
 62
     0
100
AcDbLine
 10
72.026797
 20
62.304079
 30
0.0
 11
72.036503
 21
62.313785
 31
0.0
  0
LINE
  5
17F
100
AcDbEntity
  8
0
 62
     0
100
AcDbLine
 10
72.257474
 20
62.534756
 30
0.0
 11
72.699416
 21
62.976698
 31
0.0
  0
LINE
  5
180
100
AcDbEntity
  8
0
 62
     0
100
AcDbLine
 10
72.920387
 20
63.197669
 30
0.0
 11
73.362329
 21
63.63961
 31
0.0
  0
LINE
  5
181
100
AcDbEntity
  8
0
 62
     0
100
AcDbLine
 10
73.583299
 20
63.860581
 30
0.0
 11
74.025241
 21
64.302523
 31
0.0
  0
LINE
  5
182
100
AcDbEntity
  8
0
 62
     0
100
AcDbLine
 10
74.246212
 20
64.523494
 30
0.0
 11
74.688154
 21
64.965436
 31
0.0
  0
LINE
  5
183
100
AcDbEntity
  8
0
 62
     0
100
AcDbLine
 10
74.909125
 20
65.186406
 30
0.0
 11
75.026797
 21
65.304079
 31
0.0
  0
LINE
  5
184
100
AcDbEntity
  8
0
 62
     0
100
AcDbLine
 10
63.026797
 20
55.071846
 30
0.0
 11
63.197669
 21
55.242717
 31
0.0
  0
LINE
  5
185
100
AcDbEntity
  8
0
 62
     0
100
AcDbLine
 10
63.418639
 20
55.463688
 30
0.0
 11
63.860581
 21
55.90563
 31
0.0
  0
LINE
  5
186
100
AcDbEntity
  8
0
 62
     0
100
AcDbLine
 10
64.081552
 20
56.126601
 30
0.0
 11
64.523494
 21
56.568542
 31
0.0
  0
LINE
  5
187
100
AcDbEntity
  8
0
 62
     0
100
AcDbLine
 10
64.744465
 20
56.789513
 30
0.0
 11
65.186406
 21
57.231455
 31
0.0
  0
LINE
  5
188
100
AcDbEntity
  8
0
 62
     0
100
AcDbLine
 10
65.407377
 20
57.452426
 30
0.0
 11
65.849319
 21
57.894368
 31
0.0
  0
LINE
  5
189
100
AcDbEntity
  8
0
 62
     0
100
AcDbLine
 10
72.036503
 20
64.081552
 30
0.0
 11
72.478445
 21
64.523494
 31
0.0
  0
LINE
  5
18A
100
AcDbEntity
  8
0
 62
     0
100
AcDbLine
 10
72.699416
 20
64.744465
 30
0.0
 11
73.141358
 21
65.186406
 31
0.0
  0
LINE
  5
18B
100
AcDbEntity
  8
0
 62
     0
100
AcDbLine
 10
73.362329
 20
65.407377
 30
0.0
 11
73.80427
 21
65.849319
 31
0.0
  0
LINE
  5
18C
100
AcDbEntity
  8
0
 62
     0
100
AcDbLine
 10
74.025241
 20
66.07029
 30
0.0
 11
74.467183
 21
66.512232
 31
0.0
  0
LINE
  5
18D
100
AcDbEntity
  8
0
 62
     0
100
AcDbLine
 10
74.688154
 20
66.733202
 30
0.0
 11
75.026797
 21
67.071846
 31
0.0
  0
LINE
  5
18E
100
AcDbEntity
  8
0
 62
     0
100
AcDbLine
 10
63.197669
 20
57.010484
 30
0.0
 11
63.63961
 21
57.452426
 31
0.0
  0
LINE
  5
18F
100
AcDbEntity
  8
0
 62
     0
100
AcDbLine
 10
63.860581
 20
57.673397
 30
0.0
 11
64.302523
 21
58.115339
 31
0.0
  0
LINE
  5
190
100
AcDbEntity
  8
0
 62
     0
100
AcDbLine
 10
64.523494
 20
58.336309
 30
0.0
 11
64.965436
 21
58.778251
 31
0.0
  0
LINE
  5
191
100
AcDbEntity
  8
0
 62
     0
100
AcDbLine
 10
65.186406
 20
58.999222
 30
0.0
 11
65.628348
 21
59.441164
 31
0.0
  0
LINE
  5
192
100
AcDbEntity
  8
0
 62
     0
100
AcDbLine
 10
65.849319
 20
59.662135
 30
0.0
 11
66.026797
 21
59.839613
 31
0.0
  0
LINE
  5
193
100
AcDbEntity
  8
0
 62
     0
100
AcDbLine
 10
72.026797
 20
65.839613
 30
0.0
 11
72.257474
 21
66.07029
 31
0.0
  0
LINE
  5
194
100
AcDbEntity
  8
0
 62
     0
100
AcDbLine
 10
72.478445
 20
66.291261
 30
0.0
 11
72.920387
 21
66.733202
 31
0.0
  0
LINE
  5
195
100
AcDbEntity
  8
0
 62
     0
100
AcDbLine
 10
73.141358
 20
66.954173
 30
0.0
 11
73.583299
 21
67.396115
 31
0.0
  0
LINE
  5
196
100
AcDbEntity
  8
0
 62
     0
100
AcDbLine
 10
73.80427
 20
67.617086
 30
0.0
 11
74.246212
 21
68.059028
 31
0.0
  0
LINE
  5
197
100
AcDbEntity
  8
0
 62
     0
100
AcDbLine
 10
74.467183
 20
68.279999
 30
0.0
 11
74.909125
 21
68.72194
 31
0.0
  0
LINE
  5
198
100
AcDbEntity
  8
0
 62
     0
100
AcDbLine
 10
63.026797
 20
58.60738
 30
0.0
 11
63.418639
 21
58.999222
 31
0.0
  0
LINE
  5
199
100
AcDbEntity
  8
0
 62
     0
100
AcDbLine
 10
63.63961
 20
59.220193
 30
0.0
 11
64.081552
 21
59.662135
 31
0.0
  0
LINE
  5
19A
100
AcDbEntity
  8
0
 62
     0
100
AcDbLine
 10
64.302523
 20
59.883106
 30
0.0
 11
64.744465
 21
60.325047
 31
0.0
  0
LINE
  5
19B
100
AcDbEntity
  8
0
 62
     0
100
AcDbLine
 10
64.965436
 20
60.546018
 30
0.0
 11
65.382058
 21
60.962641
 31
0.0
  0
LINE
  5
19C
100
AcDbEntity
  8
0
 62
     0
100
AcDbLine
 10
72.026797
 20
67.60738
 30
0.0
 11
72.036503
 21
67.617086
 31
0.0
  0
LINE
  5
19D
100
AcDbEntity
  8
0
 62
     0
100
AcDbLine
 10
72.257474
 20
67.838057
 30
0.0
 11
72.699416
 21
68.279999
 31
0.0
  0
LINE
  5
19E
100
AcDbEntity
  8
0
 62
     0
100
AcDbLine
 10
72.920387
 20
68.500969
 30
0.0
 11
73.362329
 21
68.942911
 31
0.0
  0
LINE
  5
19F
100
AcDbEntity
  8
0
 62
     0
100
AcDbLine
 10
73.583299
 20
69.163882
 30
0.0
 11
74.025241
 21
69.605824
 31
0.0
  0
LINE
  5
1A0
100
AcDbEntity
  8
0
 62
     0
100
AcDbLine
 10
74.246212
 20
69.826795
 30
0.0
 11
74.688154
 21
70.268736
 31
0.0
  0
LINE
  5
1A1
100
AcDbEntity
  8
0
 62
     0
100
AcDbLine
 10
74.909125
 20
70.489707
 30
0.0
 11
75.026797
 21
70.60738
 31
0.0
  0
LINE
  5
1A2
100
AcDbEntity
  8
0
 62
     0
100
AcDbLine
 10
65.382058
 20
60.962641
 30
0.0
 11
65.407377
 21
60.98796
 31
0.0
  0
LINE
  5
1A3
100
AcDbEntity
  8
0
 62
     0
100
AcDbLine
 10
65.628348
 20
61.208931
 30
0.0
 11
66.026797
 21
61.60738
 31
0.0
  0
LINE
  5
1A4
100
AcDbEntity
  8
0
 62
     0
100
AcDbLine
 10
63.026797
 20
60.375147
 30
0.0
 11
63.197669
 21
60.546018
 31
0.0
  0
LINE
  5
1A5
100
AcDbEntity
  8
0
 62
     0
100
AcDbLine
 10
63.418639
 20
60.766989
 30
0.0
 11
63.614291
 21
60.962641
 31
0.0
  0
LINE
  5
1A6
100
AcDbEntity
  8
0
 62
     0
100
AcDbLine
 10
72.036503
 20
69.384853
 30
0.0
 11
72.478445
 21
69.826795
 31
0.0
  0
LINE
  5
1A7
100
AcDbEntity
  8
0
 62
     0
100
AcDbLine
 10
72.699416
 20
70.047766
 30
0.0
 11
73.141358
 21
70.489707
 31
0.0
  0
LINE
  5
1A8
100
AcDbEntity
  8
0
 62
     0
100
AcDbLine
 10
73.362329
 20
70.710678
 30
0.0
 11
73.80427
 21
71.15262
 31
0.0
  0
LINE
  5
1A9
100
AcDbEntity
  8
0
 62
     0
100
AcDbLine
 10
74.025241
 20
71.373591
 30
0.0
 11
74.467183
 21
71.815532
 31
0.0
  0
LINE
  5
1AA
100
AcDbEntity
  8
0
 62
     0
100
AcDbLine
 10
74.688154
 20
72.036503
 30
0.0
 11
75.026797
 21
72.375147
 31
0.0
  0
LINE
  5
1AB
100
AcDbEntity
  8
0
 62
     0
100
AcDbLine
 10
63.614291
 20
60.962641
 30
0.0
 11
63.860581
 21
61.208931
 31
0.0
  0
LINE
  5
1AC
100
AcDbEntity
  8
0
 62
     0
100
AcDbLine
 10
64.081552
 20
61.429902
 30
0.0
 11
64.523494
 21
61.871843
 31
0.0
  0
LINE
  5
1AD
100
AcDbEntity
  8
0
 62
     0
100
AcDbLine
 10
64.744465
 20
62.092814
 30
0.0
 11
65.186406
 21
62.534756
 31
0.0
  0
LINE
  5
1AE
100
AcDbEntity
  8
0
 62
     0
100
AcDbLine
 10
65.407377
 20
62.755727
 30
0.0
 11
65.849319
 21
63.197669
 31
0.0
  0
LINE
  5
1AF
100
AcDbEntity
  8
0
 62
     0
100
AcDbLine
 10
63.197669
 20
62.313785
 30
0.0
 11
63.63961
 21
62.755727
 31
0.0
  0
LINE
  5
1B0
100
AcDbEntity
  8
0
 62
     0
100
AcDbLine
 10
63.860581
 20
62.976698
 30
0.0
 11
64.302523
 21
63.418639
 31
0.0
  0
LINE
  5
1B1
100
AcDbEntity
  8
0
 62
     0
100
AcDbLine
 10
64.523494
 20
63.63961
 30
0.0
 11
64.965436
 21
64.081552
 31
0.0
  0
LINE
  5
1B2
100
AcDbEntity
  8
0
 62
     0
100
AcDbLine
 10
65.186406
 20
64.302523
 30
0.0
 11
65.628348
 21
64.744465
 31
0.0
  0
LINE
  5
1B3
100
AcDbEntity
  8
0
 62
     0
100
AcDbLine
 10
65.849319
 20
64.965436
 30
0.0
 11
66.026797
 21
65.142914
 31
0.0
  0
LINE
  5
1B4
100
AcDbEntity
  8
0
 62
     0
100
AcDbLine
 10
72.026797
 20
71.142914
 30
0.0
 11
72.257474
 21
71.373591
 31
0.0
  0
LINE
  5
1B5
100
AcDbEntity
  8
0
 62
     0
100
AcDbLine
 10
72.478445
 20
71.594562
 30
0.0
 11
72.920387
 21
72.036503
 31
0.0
  0
LINE
  5
1B6
100
AcDbEntity
  8
0
 62
     0
100
AcDbLine
 10
73.141358
 20
72.257474
 30
0.0
 11
73.583299
 21
72.699416
 31
0.0
  0
LINE
  5
1B7
100
AcDbEntity
  8
0
 62
     0
100
AcDbLine
 10
73.80427
 20
72.920387
 30
0.0
 11
74.246212
 21
73.362329
 31
0.0
  0
LINE
  5
1B8
100
AcDbEntity
  8
0
 62
     0
100
AcDbLine
 10
74.467183
 20
73.583299
 30
0.0
 11
74.909125
 21
74.025241
 31
0.0
  0
LINE
  5
1B9
100
AcDbEntity
  8
0
 62
     0
100
AcDbLine
 10
63.026797
 20
63.910681
 30
0.0
 11
63.418639
 21
64.302523
 31
0.0
  0
LINE
  5
1BA
100
AcDbEntity
  8
0
 62
     0
100
AcDbLine
 10
63.63961
 20
64.523494
 30
0.0
 11
64.081552
 21
64.965436
 31
0.0
  0
LINE
  5
1BB
100
AcDbEntity
  8
0
 62
     0
100
AcDbLine
 10
64.302523
 20
65.186406
 30
0.0
 11
64.744465
 21
65.628348
 31
0.0
  0
LINE
  5
1BC
100
AcDbEntity
  8
0
 62
     0
100
AcDbLine
 10
64.965436
 20
65.849319
 30
0.0
 11
65.407377
 21
66.291261
 31
0.0
  0
LINE
  5
1BD
100
AcDbEntity
  8
0
 62
     0
100
AcDbLine
 10
65.628348
 20
66.512232
 30
0.0
 11
66.026797
 21
66.910681
 31
0.0
  0
LINE
  5
1BE
100
AcDbEntity
  8
0
 62
     0
100
AcDbLine
 10
72.026797
 20
72.910681
 30
0.0
 11
72.036503
 21
72.920387
 31
0.0
  0
LINE
  5
1BF
100
AcDbEntity
  8
0
 62
     0
100
AcDbLine
 10
72.257474
 20
73.141358
 30
0.0
 11
72.699416
 21
73.583299
 31
0.0
  0
LINE
  5
1C0
100
AcDbEntity
  8
0
 62
     0
100
AcDbLine
 10
72.920387
 20
73.80427
 30
0.0
 11
73.362329
 21
74.246212
 31
0.0
  0
LINE
  5
1C1
100
AcDbEntity
  8
0
 62
     0
100
AcDbLine
 10
73.583299
 20
74.467183
 30
0.0
 11
74.025241
 21
74.909125
 31
0.0
  0
LINE
  5
1C2
100
AcDbEntity
  8
0
 62
     0
100
AcDbLine
 10
74.246212
 20
75.130096
 30
0.0
 11
74.688154
 21
75.572037
 31
0.0
  0
LINE
  5
1C3
100
AcDbEntity
  8
0
 62
     0
100
AcDbLine
 10
74.909125
 20
75.793008
 30
0.0
 11
75.026797
 21
75.910681
 31
0.0
  0
LINE
  5
1C4
100
AcDbEntity
  8
0
 62
     0
100
AcDbLine
 10
63.026797
 20
65.678448
 30
0.0
 11
63.197669
 21
65.849319
 31
0.0
  0
LINE
  5
1C5
100
AcDbEntity
  8
0
 62
     0
100
AcDbLine
 10
63.418639
 20
66.07029
 30
0.0
 11
63.860581
 21
66.512232
 31
0.0
  0
LINE
  5
1C6
100
AcDbEntity
  8
0
 62
     0
100
AcDbLine
 10
64.081552
 20
66.733202
 30
0.0
 11
64.523494
 21
67.175144
 31
0.0
  0
LINE
  5
1C7
100
AcDbEntity
  8
0
 62
     0
100
AcDbLine
 10
64.744465
 20
67.396115
 30
0.0
 11
65.186406
 21
67.838057
 31
0.0
  0
LINE
  5
1C8
100
AcDbEntity
  8
0
 62
     0
100
AcDbLine
 10
65.407377
 20
68.059028
 30
0.0
 11
65.849319
 21
68.500969
 31
0.0
  0
LINE
  5
1C9
100
AcDbEntity
  8
0
 62
     0
100
AcDbLine
 10
72.036503
 20
74.688154
 30
0.0
 11
72.478445
 21
75.130096
 31
0.0
  0
LINE
  5
1CA
100
AcDbEntity
  8
0
 62
     0
100
AcDbLine
 10
72.699416
 20
75.351066
 30
0.0
 11
73.141358
 21
75.793008
 31
0.0
  0
LINE
  5
1CB
100
AcDbEntity
  8
0
 62
     0
100
AcDbLine
 10
63.197669
 20
67.617086
 30
0.0
 11
63.63961
 21
68.059028
 31
0.0
  0
LINE
  5
1CC
100
AcDbEntity
  8
0
 62
     0
100
AcDbLine
 10
63.860581
 20
68.279999
 30
0.0
 11
64.302523
 21
68.72194
 31
0.0
  0
LINE
  5
1CD
100
AcDbEntity
  8
0
 62
     0
100
AcDbLine
 10
64.523494
 20
68.942911
 30
0.0
 11
64.965436
 21
69.384853
 31
0.0
  0
LINE
  5
1CE
100
AcDbEntity
  8
0
 62
     0
100
AcDbLine
 10
65.186406
 20
69.605824
 30
0.0
 11
65.628348
 21
70.047766
 31
0.0
  0
LINE
  5
1CF
100
AcDbEntity
  8
0
 62
     0
100
AcDbLine
 10
65.849319
 20
70.268736
 30
0.0
 11
66.026797
 21
70.446214
 31
0.0
  0
LINE
  5
1D0
100
AcDbEntity
  8
0
 62
     0
100
AcDbLine
 10
63.026797
 20
69.213981
 30
0.0
 11
63.418639
 21
69.605824
 31
0.0
  0
LINE
  5
1D1
100
AcDbEntity
  8
0
 62
     0
100
AcDbLine
 10
63.63961
 20
69.826795
 30
0.0
 11
64.081552
 21
70.268736
 31
0.0
  0
LINE
  5
1D2
100
AcDbEntity
  8
0
 62
     0
100
AcDbLine
 10
64.302523
 20
70.489707
 30
0.0
 11
64.744465
 21
70.931649
 31
0.0
  0
LINE
  5
1D3
100
AcDbEntity
  8
0
 62
     0
100
AcDbLine
 10
64.965436
 20
71.15262
 30
0.0
 11
65.407377
 21
71.594562
 31
0.0
  0
LINE
  5
1D4
100
AcDbEntity
  8
0
 62
     0
100
AcDbLine
 10
65.628348
 20
71.815532
 30
0.0
 11
66.026797
 21
72.213981
 31
0.0
  0
LINE
  5
1D5
100
AcDbEntity
  8
0
 62
     0
100
AcDbLine
 10
63.026797
 20
70.981748
 30
0.0
 11
63.197669
 21
71.15262
 31
0.0
  0
LINE
  5
1D6
100
AcDbEntity
  8
0
 62
     0
100
AcDbLine
 10
63.418639
 20
71.373591
 30
0.0
 11
63.860581
 21
71.815532
 31
0.0
  0
LINE
  5
1D7
100
AcDbEntity
  8
0
 62
     0
100
AcDbLine
 10
64.081552
 20
72.036503
 30
0.0
 11
64.523494
 21
72.478445
 31
0.0
  0
LINE
  5
1D8
100
AcDbEntity
  8
0
 62
     0
100
AcDbLine
 10
64.744465
 20
72.699416
 30
0.0
 11
65.186406
 21
73.141358
 31
0.0
  0
LINE
  5
1D9
100
AcDbEntity
  8
0
 62
     0
100
AcDbLine
 10
65.407377
 20
73.362329
 30
0.0
 11
65.849319
 21
73.80427
 31
0.0
  0
LINE
  5
1DA
100
AcDbEntity
  8
0
 62
     0
100
AcDbLine
 10
63.197669
 20
72.920387
 30
0.0
 11
63.63961
 21
73.362329
 31
0.0
  0
LINE
  5
1DB
100
AcDbEntity
  8
0
 62
     0
100
AcDbLine
 10
63.860581
 20
73.583299
 30
0.0
 11
64.302523
 21
74.025241
 31
0.0
  0
LINE
  5
1DC
100
AcDbEntity
  8
0
 62
     0
100
AcDbLine
 10
64.523494
 20
74.246212
 30
0.0
 11
64.965436
 21
74.688154
 31
0.0
  0
LINE
  5
1DD
100
AcDbEntity
  8
0
 62
     0
100
AcDbLine
 10
65.186406
 20
74.909125
 30
0.0
 11
65.628348
 21
75.351066
 31
0.0
  0
LINE
  5
1DE
100
AcDbEntity
  8
0
 62
     0
100
AcDbLine
 10
65.849319
 20
75.572037
 30
0.0
 11
66.026797
 21
75.749515
 31
0.0
  0
LINE
  5
1DF
100
AcDbEntity
  8
0
 62
     0
100
AcDbLine
 10
63.026797
 20
74.517282
 30
0.0
 11
63.418639
 21
74.909125
 31
0.0
  0
LINE
  5
1E0
100
AcDbEntity
  8
0
 62
     0
100
AcDbLine
 10
63.63961
 20
75.130096
 30
0.0
 11
64.081552
 21
75.572037
 31
0.0
  0
LINE
  5
1E1
100
AcDbEntity
  8
0
 62
     0
100
AcDbLine
 10
64.302523
 20
75.793008
 30
0.0
 11
64.472155
 21
75.962641
 31
0.0
  0
LINE
  5
1E2
100
AcDbEntity
  8
0
 62
     0
100
AcDbLine
 10
63.197669
 20
46.403883
 30
0.0
 11
63.63961
 21
46.845824
 31
0.0
  0
LINE
  5
1E3
100
AcDbEntity
  8
0
 62
     0
100
AcDbLine
 10
63.860581
 20
47.066795
 30
0.0
 11
64.302523
 21
47.508737
 31
0.0
  0
LINE
  5
1E4
100
AcDbEntity
  8
0
 62
     0
100
AcDbLine
 10
64.523494
 20
47.729708
 30
0.0
 11
64.965436
 21
48.171649
 31
0.0
  0
LINE
  5
1E5
100
AcDbEntity
  8
0
 62
     0
100
AcDbLine
 10
65.186406
 20
48.39262
 30
0.0
 11
65.628348
 21
48.834562
 31
0.0
  0
LINE
  5
1E6
100
AcDbEntity
  8
0
 62
     0
100
AcDbLine
 10
65.849319
 20
49.055533
 30
0.0
 11
66.026797
 21
49.233011
 31
0.0
  0
LINE
  5
1E7
100
AcDbEntity
  8
0
 62
     0
100
AcDbLine
 10
74.756427
 20
57.962641
 30
0.0
 11
74.909125
 21
58.115339
 31
0.0
  0
LINE
  5
1E8
100
AcDbEntity
  8
0
 62
     0
100
AcDbLine
 10
63.026797
 20
44.465244
 30
0.0
 11
63.197669
 21
44.636116
 31
0.0
  0
LINE
  5
1E9
100
AcDbEntity
  8
0
 62
     0
100
AcDbLine
 10
63.418639
 20
44.857086
 30
0.0
 11
63.860581
 21
45.299028
 31
0.0
  0
LINE
  5
1EA
100
AcDbEntity
  8
0
 62
     0
100
AcDbLine
 10
64.081552
 20
45.519999
 30
0.0
 11
64.523494
 21
45.961941
 31
0.0
  0
LINE
  5
1EB
100
AcDbEntity
  8
0
 62
     0
100
AcDbLine
 10
64.744465
 20
46.182912
 30
0.0
 11
65.186406
 21
46.624853
 31
0.0
  0
LINE
  5
1EC
100
AcDbEntity
  8
0
 62
     0
100
AcDbLine
 10
65.407377
 20
46.845824
 30
0.0
 11
65.849319
 21
47.287766
 31
0.0
  0
LINE
  5
1ED
100
AcDbEntity
  8
0
 62
     0
100
AcDbLine
 10
63.026797
 20
42.697477
 30
0.0
 11
63.418639
 21
43.089319
 31
0.0
  0
LINE
  5
1EE
100
AcDbEntity
  8
0
 62
     0
100
AcDbLine
 10
63.63961
 20
43.31029
 30
0.0
 11
64.081552
 21
43.752232
 31
0.0
  0
LINE
  5
1EF
100
AcDbEntity
  8
0
 62
     0
100
AcDbLine
 10
64.302523
 20
43.973203
 30
0.0
 11
64.744465
 21
44.415145
 31
0.0
  0
LINE
  5
1F0
100
AcDbEntity
  8
0
 62
     0
100
AcDbLine
 10
64.965436
 20
44.636116
 30
0.0
 11
65.407377
 21
45.078057
 31
0.0
  0
LINE
  5
1F1
100
AcDbEntity
  8
0
 62
     0
100
AcDbLine
 10
65.628348
 20
45.299028
 30
0.0
 11
66.026797
 21
45.697477
 31
0.0
  0
LINE
  5
1F2
100
AcDbEntity
  8
0
 62
     0
100
AcDbLine
 10
63.197669
 20
41.100582
 30
0.0
 11
63.63961
 21
41.542523
 31
0.0
  0
LINE
  5
1F3
100
AcDbEntity
  8
0
 62
     0
100
AcDbLine
 10
63.860581
 20
41.763494
 30
0.0
 11
64.302523
 21
42.205436
 31
0.0
  0
LINE
  5
1F4
100
AcDbEntity
  8
0
 62
     0
100
AcDbLine
 10
64.523494
 20
42.426407
 30
0.0
 11
64.965436
 21
42.868349
 31
0.0
  0
LINE
  5
1F5
100
AcDbEntity
  8
0
 62
     0
100
AcDbLine
 10
65.186406
 20
43.089319
 30
0.0
 11
65.628348
 21
43.531261
 31
0.0
  0
LINE
  5
1F6
100
AcDbEntity
  8
0
 62
     0
100
AcDbLine
 10
65.849319
 20
43.752232
 30
0.0
 11
66.026797
 21
43.92971
 31
0.0
  0
LINE
  5
1F7
100
AcDbEntity
  8
0
 62
     0
100
AcDbLine
 10
63.026797
 20
39.161943
 30
0.0
 11
63.197669
 21
39.332815
 31
0.0
  0
LINE
  5
1F8
100
AcDbEntity
  8
0
 62
     0
100
AcDbLine
 10
63.418639
 20
39.553786
 30
0.0
 11
63.860581
 21
39.995727
 31
0.0
  0
LINE
  5
1F9
100
AcDbEntity
  8
0
 62
     0
100
AcDbLine
 10
64.081552
 20
40.216698
 30
0.0
 11
64.523494
 21
40.65864
 31
0.0
  0
LINE
  5
1FA
100
AcDbEntity
  8
0
 62
     0
100
AcDbLine
 10
64.744465
 20
40.879611
 30
0.0
 11
65.186406
 21
41.321553
 31
0.0
  0
LINE
  5
1FB
100
AcDbEntity
  8
0
 62
     0
100
AcDbLine
 10
65.407377
 20
41.542523
 30
0.0
 11
65.849319
 21
41.984465
 31
0.0
  0
LINE
  5
1FC
100
AcDbEntity
  8
0
 62
     0
100
AcDbLine
 10
63.026797
 20
37.394176
 30
0.0
 11
63.418639
 21
37.786019
 31
0.0
  0
LINE
  5
1FD
100
AcDbEntity
  8
0
 62
     0
100
AcDbLine
 10
63.63961
 20
38.006989
 30
0.0
 11
64.081552
 21
38.448931
 31
0.0
  0
LINE
  5
1FE
100
AcDbEntity
  8
0
 62
     0
100
AcDbLine
 10
64.302523
 20
38.669902
 30
0.0
 11
64.744465
 21
39.111844
 31
0.0
  0
LINE
  5
1FF
100
AcDbEntity
  8
0
 62
     0
100
AcDbLine
 10
64.965436
 20
39.332815
 30
0.0
 11
65.407377
 21
39.774756
 31
0.0
  0
LINE
  5
200
100
AcDbEntity
  8
0
 62
     0
100
AcDbLine
 10
65.628348
 20
39.995727
 30
0.0
 11
66.026797
 21
40.394176
 31
0.0
  0
LINE
  5
201
100
AcDbEntity
  8
0
 62
     0
100
AcDbLine
 10
72.026797
 20
46.394176
 30
0.0
 11
72.036503
 21
46.403883
 31
0.0
  0
LINE
  5
202
100
AcDbEntity
  8
0
 62
     0
100
AcDbLine
 10
72.257474
 20
46.624853
 30
0.0
 11
72.699416
 21
47.066795
 31
0.0
  0
LINE
  5
203
100
AcDbEntity
  8
0
 62
     0
100
AcDbLine
 10
72.920387
 20
47.287766
 30
0.0
 11
73.362329
 21
47.729708
 31
0.0
  0
LINE
  5
204
100
AcDbEntity
  8
0
 62
     0
100
AcDbLine
 10
73.583299
 20
47.950679
 30
0.0
 11
73.595261
 21
47.962641
 31
0.0
  0
LINE
  5
205
100
AcDbEntity
  8
0
 62
     0
100
AcDbLine
 10
63.197669
 20
35.797281
 30
0.0
 11
63.63961
 21
36.239223
 31
0.0
  0
LINE
  5
206
100
AcDbEntity
  8
0
 62
     0
100
AcDbLine
 10
63.860581
 20
36.460193
 30
0.0
 11
64.302523
 21
36.902135
 31
0.0
  0
LINE
  5
207
100
AcDbEntity
  8
0
 62
     0
100
AcDbLine
 10
64.523494
 20
37.123106
 30
0.0
 11
64.965436
 21
37.565048
 31
0.0
  0
LINE
  5
208
100
AcDbEntity
  8
0
 62
     0
100
AcDbLine
 10
65.186406
 20
37.786019
 30
0.0
 11
65.628348
 21
38.22796
 31
0.0
  0
LINE
  5
209
100
AcDbEntity
  8
0
 62
     0
100
AcDbLine
 10
65.849319
 20
38.448931
 30
0.0
 11
66.026797
 21
38.626409
 31
0.0
  0
LINE
  5
20A
100
AcDbEntity
  8
0
 62
     0
100
AcDbLine
 10
73.363028
 20
45.962641
 30
0.0
 11
73.583299
 21
46.182912
 31
0.0
  0
LINE
  5
20B
100
AcDbEntity
  8
0
 62
     0
100
AcDbLine
 10
73.80427
 20
46.403883
 30
0.0
 11
74.246212
 21
46.845824
 31
0.0
  0
LINE
  5
20C
100
AcDbEntity
  8
0
 62
     0
100
AcDbLine
 10
74.467183
 20
47.066795
 30
0.0
 11
74.909125
 21
47.508737
 31
0.0
  0
LINE
  5
20D
100
AcDbEntity
  8
0
 62
     0
100
AcDbLine
 10
72.026797
 20
44.626409
 30
0.0
 11
72.257474
 21
44.857086
 31
0.0
  0
LINE
  5
20E
100
AcDbEntity
  8
0
 62
     0
100
AcDbLine
 10
72.478445
 20
45.078057
 30
0.0
 11
72.920387
 21
45.519999
 31
0.0
  0
LINE
  5
20F
100
AcDbEntity
  8
0
 62
     0
100
AcDbLine
 10
73.141358
 20
45.74097
 30
0.0
 11
73.363028
 21
45.962641
 31
0.0
  0
LINE
  5
210
100
AcDbEntity
  8
0
 62
     0
100
AcDbLine
 10
63.026797
 20
33.858642
 30
0.0
 11
63.197669
 21
34.029514
 31
0.0
  0
LINE
  5
211
100
AcDbEntity
  8
0
 62
     0
100
AcDbLine
 10
63.418639
 20
34.250485
 30
0.0
 11
63.860581
 21
34.692426
 31
0.0
  0
LINE
  5
212
100
AcDbEntity
  8
0
 62
     0
100
AcDbLine
 10
64.081552
 20
34.913397
 30
0.0
 11
64.523494
 21
35.355339
 31
0.0
  0
LINE
  5
213
100
AcDbEntity
  8
0
 62
     0
100
AcDbLine
 10
64.744465
 20
35.57631
 30
0.0
 11
65.186406
 21
36.018252
 31
0.0
  0
LINE
  5
214
100
AcDbEntity
  8
0
 62
     0
100
AcDbLine
 10
65.407377
 20
36.239223
 30
0.0
 11
65.849319
 21
36.681164
 31
0.0
  0
LINE
  5
215
100
AcDbEntity
  8
0
 62
     0
100
AcDbLine
 10
72.036503
 20
42.868349
 30
0.0
 11
72.478445
 21
43.31029
 31
0.0
  0
LINE
  5
216
100
AcDbEntity
  8
0
 62
     0
100
AcDbLine
 10
72.699416
 20
43.531261
 30
0.0
 11
73.141358
 21
43.973203
 31
0.0
  0
LINE
  5
217
100
AcDbEntity
  8
0
 62
     0
100
AcDbLine
 10
73.362329
 20
44.194174
 30
0.0
 11
73.80427
 21
44.636116
 31
0.0
  0
LINE
  5
218
100
AcDbEntity
  8
0
 62
     0
100
AcDbLine
 10
74.025241
 20
44.857086
 30
0.0
 11
74.467183
 21
45.299028
 31
0.0
  0
LINE
  5
219
100
AcDbEntity
  8
0
 62
     0
100
AcDbLine
 10
74.688154
 20
45.519999
 30
0.0
 11
75.026797
 21
45.858642
 31
0.0
  0
LINE
  5
21A
100
AcDbEntity
  8
0
 62
     0
100
AcDbLine
 10
63.026797
 20
32.090875
 30
0.0
 11
63.418639
 21
32.482718
 31
0.0
  0
LINE
  5
21B
100
AcDbEntity
  8
0
 62
     0
100
AcDbLine
 10
63.63961
 20
32.703689
 30
0.0
 11
64.081552
 21
33.14563
 31
0.0
  0
LINE
  5
21C
100
AcDbEntity
  8
0
 62
     0
100
AcDbLine
 10
64.302523
 20
33.366601
 30
0.0
 11
64.744465
 21
33.808543
 31
0.0
  0
LINE
  5
21D
100
AcDbEntity
  8
0
 62
     0
100
AcDbLine
 10
64.965436
 20
34.029514
 30
0.0
 11
65.407377
 21
34.471456
 31
0.0
  0
LINE
  5
21E
100
AcDbEntity
  8
0
 62
     0
100
AcDbLine
 10
65.628348
 20
34.692426
 30
0.0
 11
66.026797
 21
35.090875
 31
0.0
  0
LINE
  5
21F
100
AcDbEntity
  8
0
 62
     0
100
AcDbLine
 10
72.026797
 20
41.090875
 30
0.0
 11
72.036503
 21
41.100582
 31
0.0
  0
LINE
  5
220
100
AcDbEntity
  8
0
 62
     0
100
AcDbLine
 10
72.257474
 20
41.321553
 30
0.0
 11
72.699416
 21
41.763494
 31
0.0
  0
LINE
  5
221
100
AcDbEntity
  8
0
 62
     0
100
AcDbLine
 10
72.920387
 20
41.984465
 30
0.0
 11
73.362329
 21
42.426407
 31
0.0
  0
LINE
  5
222
100
AcDbEntity
  8
0
 62
     0
100
AcDbLine
 10
73.583299
 20
42.647378
 30
0.0
 11
74.025241
 21
43.089319
 31
0.0
  0
LINE
  5
223
100
AcDbEntity
  8
0
 62
     0
100
AcDbLine
 10
74.246212
 20
43.31029
 30
0.0
 11
74.688154
 21
43.752232
 31
0.0
  0
LINE
  5
224
100
AcDbEntity
  8
0
 62
     0
100
AcDbLine
 10
74.909125
 20
43.973203
 30
0.0
 11
75.026797
 21
44.090875
 31
0.0
  0
LINE
  5
225
100
AcDbEntity
  8
0
 62
     0
100
AcDbLine
 10
63.860581
 20
31.156893
 30
0.0
 11
64.302523
 21
31.598834
 31
0.0
  0
LINE
  5
226
100
AcDbEntity
  8
0
 62
     0
100
AcDbLine
 10
64.523494
 20
31.819805
 30
0.0
 11
64.965436
 21
32.261747
 31
0.0
  0
LINE
  5
227
100
AcDbEntity
  8
0
 62
     0
100
AcDbLine
 10
65.186406
 20
32.482718
 30
0.0
 11
65.628348
 21
32.924659
 31
0.0
  0
LINE
  5
228
100
AcDbEntity
  8
0
 62
     0
100
AcDbLine
 10
65.849319
 20
33.14563
 30
0.0
 11
66.026797
 21
33.323108
 31
0.0
  0
LINE
  5
229
100
AcDbEntity
  8
0
 62
     0
100
AcDbLine
 10
72.026797
 20
39.323108
 30
0.0
 11
72.257474
 21
39.553786
 31
0.0
  0
LINE
  5
22A
100
AcDbEntity
  8
0
 62
     0
100
AcDbLine
 10
72.478445
 20
39.774756
 30
0.0
 11
72.920387
 21
40.216698
 31
0.0
  0
LINE
  5
22B
100
AcDbEntity
  8
0
 62
     0
100
AcDbLine
 10
73.141358
 20
40.437669
 30
0.0
 11
73.583299
 21
40.879611
 31
0.0
  0
LINE
  5
22C
100
AcDbEntity
  8
0
 62
     0
100
AcDbLine
 10
73.80427
 20
41.100582
 30
0.0
 11
74.246212
 21
41.542523
 31
0.0
  0
LINE
  5
22D
100
AcDbEntity
  8
0
 62
     0
100
AcDbLine
 10
74.467183
 20
41.763494
 30
0.0
 11
74.909125
 21
42.205436
 31
0.0
  0
LINE
  5
22E
100
AcDbEntity
  8
0
 62
     0
100
AcDbLine
 10
65.434096
 20
30.962641
 30
0.0
 11
65.849319
 21
31.377863
 31
0.0
  0
LINE
  5
22F
100
AcDbEntity
  8
0
 62
     0
100
AcDbLine
 10
72.036503
 20
37.565048
 30
0.0
 11
72.478445
 21
38.006989
 31
0.0
  0
LINE
  5
230
100
AcDbEntity
  8
0
 62
     0
100
AcDbLine
 10
72.699416
 20
38.22796
 30
0.0
 11
73.141358
 21
38.669902
 31
0.0
  0
LINE
  5
231
100
AcDbEntity
  8
0
 62
     0
100
AcDbLine
 10
73.362329
 20
38.890873
 30
0.0
 11
73.80427
 21
39.332815
 31
0.0
  0
LINE
  5
232
100
AcDbEntity
  8
0
 62
     0
100
AcDbLine
 10
74.025241
 20
39.553786
 30
0.0
 11
74.467183
 21
39.995727
 31
0.0
  0
LINE
  5
233
100
AcDbEntity
  8
0
 62
     0
100
AcDbLine
 10
74.688154
 20
40.216698
 30
0.0
 11
75.026797
 21
40.555341
 31
0.0
  0
LINE
  5
234
100
AcDbEntity
  8
0
 62
     0
100
AcDbLine
 10
72.026797
 20
35.787575
 30
0.0
 11
72.036503
 21
35.797281
 31
0.0
  0
LINE
  5
235
100
AcDbEntity
  8
0
 62
     0
100
AcDbLine
 10
72.257474
 20
36.018252
 30
0.0
 11
72.699416
 21
36.460193
 31
0.0
  0
LINE
  5
236
100
AcDbEntity
  8
0
 62
     0
100
AcDbLine
 10
72.920387
 20
36.681164
 30
0.0
 11
73.362329
 21
37.123106
 31
0.0
  0
LINE
  5
237
100
AcDbEntity
  8
0
 62
     0
100
AcDbLine
 10
73.583299
 20
37.344077
 30
0.0
 11
74.025241
 21
37.786019
 31
0.0
  0
LINE
  5
238
100
AcDbEntity
  8
0
 62
     0
100
AcDbLine
 10
74.246212
 20
38.006989
 30
0.0
 11
74.688154
 21
38.448931
 31
0.0
  0
LINE
  5
239
100
AcDbEntity
  8
0
 62
     0
100
AcDbLine
 10
74.909125
 20
38.669902
 30
0.0
 11
75.026797
 21
38.787575
 31
0.0
  0
LINE
  5
23A
100
AcDbEntity
  8
0
 62
     0
100
AcDbLine
 10
72.026797
 20
34.019808
 30
0.0
 11
72.257474
 21
34.250485
 31
0.0
  0
LINE
  5
23B
100
AcDbEntity
  8
0
 62
     0
100
AcDbLine
 10
72.478445
 20
34.471456
 30
0.0
 11
72.920387
 21
34.913397
 31
0.0
  0
LINE
  5
23C
100
AcDbEntity
  8
0
 62
     0
100
AcDbLine
 10
73.141358
 20
35.134368
 30
0.0
 11
73.583299
 21
35.57631
 31
0.0
  0
LINE
  5
23D
100
AcDbEntity
  8
0
 62
     0
100
AcDbLine
 10
73.80427
 20
35.797281
 30
0.0
 11
74.246212
 21
36.239223
 31
0.0
  0
LINE
  5
23E
100
AcDbEntity
  8
0
 62
     0
100
AcDbLine
 10
74.467183
 20
36.460193
 30
0.0
 11
74.909125
 21
36.902135
 31
0.0
  0
LINE
  5
23F
100
AcDbEntity
  8
0
 62
     0
100
AcDbLine
 10
72.036503
 20
32.261747
 30
0.0
 11
72.478445
 21
32.703689
 31
0.0
  0
LINE
  5
240
100
AcDbEntity
  8
0
 62
     0
100
AcDbLine
 10
72.699416
 20
32.924659
 30
0.0
 11
73.141358
 21
33.366601
 31
0.0
  0
LINE
  5
241
100
AcDbEntity
  8
0
 62
     0
100
AcDbLine
 10
73.362329
 20
33.587572
 30
0.0
 11
73.80427
 21
34.029514
 31
0.0
  0
LINE
  5
242
100
AcDbEntity
  8
0
 62
     0
100
AcDbLine
 10
74.025241
 20
34.250485
 30
0.0
 11
74.467183
 21
34.692426
 31
0.0
  0
LINE
  5
243
100
AcDbEntity
  8
0
 62
     0
100
AcDbLine
 10
74.688154
 20
34.913397
 30
0.0
 11
75.026797
 21
35.252041
 31
0.0
  0
LINE
  5
244
100
AcDbEntity
  8
0
 62
     0
100
AcDbLine
 10
72.505164
 20
30.962641
 30
0.0
 11
72.699416
 21
31.156893
 31
0.0
  0
LINE
  5
245
100
AcDbEntity
  8
0
 62
     0
100
AcDbLine
 10
72.920387
 20
31.377863
 30
0.0
 11
73.362329
 21
31.819805
 31
0.0
  0
LINE
  5
246
100
AcDbEntity
  8
0
 62
     0
100
AcDbLine
 10
73.583299
 20
32.040776
 30
0.0
 11
74.025241
 21
32.482718
 31
0.0
  0
LINE
  5
247
100
AcDbEntity
  8
0
 62
     0
100
AcDbLine
 10
74.246212
 20
32.703689
 30
0.0
 11
74.688154
 21
33.14563
 31
0.0
  0
LINE
  5
248
100
AcDbEntity
  8
0
 62
     0
100
AcDbLine
 10
74.909125
 20
33.366601
 30
0.0
 11
75.026797
 21
33.484274
 31
0.0
  0
LINE
  5
249
100
AcDbEntity
  8
0
 62
     0
100
AcDbLine
 10
74.467183
 20
31.156893
 30
0.0
 11
74.909125
 21
31.598834
 31
0.0
  0
ENDBLK
  5
24A
100
AcDbEntity
  8
0
100
AcDbBlockEnd
  0
BLOCK
  5
24B
100
AcDbEntity
  8
0
100
AcDbBlockBegin
  2
*X4
 70
     1
 10
0.0
 20
0.0
 30
0.0
  3
*X4
  1

  0
LINE
  5
24C
100
AcDbEntity
  8
0
 62
     0
100
AcDbLine
 10
-18.043348
 20
40.431369
 30
0.0
 11
-17.922825
 21
40.575002
 31
0.0
  0
LINE
  5
24D
100
AcDbEntity
  8
0
 62
     0
100
AcDbLine
 10
-17.696469
 20
38.550889
 30
0.0
 11
-17.575947
 21
38.694522
 31
0.0
  0
LINE
  5
24E
100
AcDbEntity
  8
0
 62
     0
100
AcDbLine
 10
-16.250197
 20
40.274489
 30
0.0
 11
-16.129675
 21
40.418122
 31
0.0
  0
LINE
  5
24F
100
AcDbEntity
  8
0
 62
     0
100
AcDbLine
 10
-17.349591
 20
36.670408
 30
0.0
 11
-17.229068
 21
36.814042
 31
0.0
  0
LINE
  5
250
100
AcDbEntity
  8
0
 62
     0
100
AcDbLine
 10
-15.903319
 20
38.394008
 30
0.0
 11
-15.782796
 21
38.537642
 31
0.0
  0
LINE
  5
251
100
AcDbEntity
  8
0
 62
     0
100
AcDbLine
 10
-14.457047
 20
40.117608
 30
0.0
 11
-14.336524
 21
40.261242
 31
0.0
  0
LINE
  5
252
100
AcDbEntity
  8
0
 62
     0
100
AcDbLine
 10
-13.010775
 20
41.841208
 30
0.0
 11
-12.904682
 21
41.967645
 31
0.0
  0
LINE
  5
253
100
AcDbEntity
  8
0
 62
     0
100
AcDbLine
 10
-17.002713
 20
34.789928
 30
0.0
 11
-16.88219
 21
34.933561
 31
0.0
  0
LINE
  5
254
100
AcDbEntity
  8
0
 62
     0
100
AcDbLine
 10
-15.556441
 20
36.513528
 30
0.0
 11
-15.435918
 21
36.657161
 31
0.0
  0
LINE
  5
255
100
AcDbEntity
  8
0
 62
     0
100
AcDbLine
 10
-14.110169
 20
38.237128
 30
0.0
 11
-13.989646
 21
38.380761
 31
0.0
  0
LINE
  5
256
100
AcDbEntity
  8
0
 62
     0
100
AcDbLine
 10
-12.663896
 20
39.960728
 30
0.0
 11
-12.543374
 21
40.104361
 31
0.0
  0
LINE
  5
257
100
AcDbEntity
  8
0
 62
     0
100
AcDbLine
 10
-18.102107
 20
31.185848
 30
0.0
 11
-17.981584
 21
31.329481
 31
0.0
  0
LINE
  5
258
100
AcDbEntity
  8
0
 62
     0
100
AcDbLine
 10
-16.655834
 20
32.909448
 30
0.0
 11
-16.535312
 21
33.053081
 31
0.0
  0
LINE
  5
259
100
AcDbEntity
  8
0
 62
     0
100
AcDbLine
 10
-15.209562
 20
34.633048
 30
0.0
 11
-15.08904
 21
34.776681
 31
0.0
  0
LINE
  5
25A
100
AcDbEntity
  8
0
 62
     0
100
AcDbLine
 10
-13.76329
 20
36.356648
 30
0.0
 11
-13.642768
 21
36.500281
 31
0.0
  0
LINE
  5
25B
100
AcDbEntity
  8
0
 62
     0
100
AcDbLine
 10
-12.317018
 20
38.080248
 30
0.0
 11
-12.196495
 21
38.223881
 31
0.0
  0
LINE
  5
25C
100
AcDbEntity
  8
0
 62
     0
100
AcDbLine
 10
-17.755228
 20
29.305367
 30
0.0
 11
-17.634706
 21
29.449001
 31
0.0
  0
LINE
  5
25D
100
AcDbEntity
  8
0
 62
     0
100
AcDbLine
 10
-16.308956
 20
31.028967
 30
0.0
 11
-16.188433
 21
31.172601
 31
0.0
  0
LINE
  5
25E
100
AcDbEntity
  8
0
 62
     0
100
AcDbLine
 10
-14.862684
 20
32.752567
 30
0.0
 11
-14.742161
 21
32.896201
 31
0.0
  0
LINE
  5
25F
100
AcDbEntity
  8
0
 62
     0
100
AcDbLine
 10
-13.416412
 20
34.476167
 30
0.0
 11
-13.295889
 21
34.619801
 31
0.0
  0
LINE
  5
260
100
AcDbEntity
  8
0
 62
     0
100
AcDbLine
 10
-17.40835
 20
27.424887
 30
0.0
 11
-17.287827
 21
27.56852
 31
0.0
  0
LINE
  5
261
100
AcDbEntity
  8
0
 62
     0
100
AcDbLine
 10
-15.962078
 20
29.148487
 30
0.0
 11
-15.841555
 21
29.29212
 31
0.0
  0
LINE
  5
262
100
AcDbEntity
  8
0
 62
     0
100
AcDbLine
 10
-14.515806
 20
30.872087
 30
0.0
 11
-14.395283
 21
31.01572
 31
0.0
  0
LINE
  5
263
100
AcDbEntity
  8
0
 62
     0
100
AcDbLine
 10
-13.069534
 20
32.595687
 30
0.0
 11
-12.949011
 21
32.73932
 31
0.0
  0
LINE
  5
264
100
AcDbEntity
  8
0
 62
     0
100
AcDbLine
 10
-17.061472
 20
25.544407
 30
0.0
 11
-16.940949
 21
25.68804
 31
0.0
  0
LINE
  5
265
100
AcDbEntity
  8
0
 62
     0
100
AcDbLine
 10
-15.615199
 20
27.268007
 30
0.0
 11
-15.494677
 21
27.41164
 31
0.0
  0
LINE
  5
266
100
AcDbEntity
  8
0
 62
     0
100
AcDbLine
 10
-14.168927
 20
28.991607
 30
0.0
 11
-14.048405
 21
29.13524
 31
0.0
  0
LINE
  5
267
100
AcDbEntity
  8
0
 62
     0
100
AcDbLine
 10
-12.722655
 20
30.715207
 30
0.0
 11
-12.602133
 21
30.85884
 31
0.0
  0
LINE
  5
268
100
AcDbEntity
  8
0
 62
     0
100
AcDbLine
 10
-15.268321
 20
25.387526
 30
0.0
 11
-15.147798
 21
25.53116
 31
0.0
  0
LINE
  5
269
100
AcDbEntity
  8
0
 62
     0
100
AcDbLine
 10
-13.822049
 20
27.111126
 30
0.0
 11
-13.701526
 21
27.25476
 31
0.0
  0
LINE
  5
26A
100
AcDbEntity
  8
0
 62
     0
100
AcDbLine
 10
-12.375777
 20
28.834726
 30
0.0
 11
-12.255254
 21
28.97836
 31
0.0
  0
LINE
  5
26B
100
AcDbEntity
  8
0
 62
     0
100
AcDbLine
 10
-13.475171
 20
25.230646
 30
0.0
 11
-13.354648
 21
25.374279
 31
0.0
  0
LINE
  5
26C
100
AcDbEntity
  8
0
 62
     0
100
AcDbLine
 10
-17.290832
 20
45.91593
 30
0.0
 11
-17.17031
 21
46.059563
 31
0.0
  0
LINE
  5
26D
100
AcDbEntity
  8
0
 62
     0
100
AcDbLine
 10
-17.637711
 20
47.79641
 30
0.0
 11
-17.517188
 21
47.940043
 31
0.0
  0
LINE
  5
26E
100
AcDbEntity
  8
0
 62
     0
100
AcDbLine
 10
-13.298894
 20
52.96721
 30
0.0
 11
-13.178372
 21
53.110843
 31
0.0
  0
LINE
  5
26F
100
AcDbEntity
  8
0
 62
     0
100
AcDbLine
 10
-17.984589
 20
49.67689
 30
0.0
 11
-17.864066
 21
49.820524
 31
0.0
  0
LINE
  5
270
100
AcDbEntity
  8
0
 62
     0
100
AcDbLine
 10
-15.092045
 20
53.12409
 30
0.0
 11
-14.971522
 21
53.267724
 31
0.0
  0
LINE
  5
271
100
AcDbEntity
  8
0
 62
     0
100
AcDbLine
 10
-13.645773
 20
54.84769
 30
0.0
 11
-13.52525
 21
54.991324
 31
0.0
  0
LINE
  5
272
100
AcDbEntity
  8
0
 62
     0
100
AcDbLine
 10
-12.1995
 20
56.57129
 30
0.0
 11
-12.159346
 21
56.619145
 31
0.0
  0
LINE
  5
273
100
AcDbEntity
  8
0
 62
     0
100
AcDbLine
 10
-16.885195
 20
53.280971
 30
0.0
 11
-16.764673
 21
53.424604
 31
0.0
  0
LINE
  5
274
100
AcDbEntity
  8
0
 62
     0
100
AcDbLine
 10
-15.438923
 20
55.004571
 30
0.0
 11
-15.3184
 21
55.148204
 31
0.0
  0
LINE
  5
275
100
AcDbEntity
  8
0
 62
     0
100
AcDbLine
 10
-13.992651
 20
56.728171
 30
0.0
 11
-13.872128
 21
56.871804
 31
0.0
  0
LINE
  5
276
100
AcDbEntity
  8
0
 62
     0
100
AcDbLine
 10
-12.546379
 20
58.451771
 30
0.0
 11
-12.425856
 21
58.595404
 31
0.0
  0
LINE
  5
277
100
AcDbEntity
  8
0
 62
     0
100
AcDbLine
 10
-17.232074
 20
55.161451
 30
0.0
 11
-17.111551
 21
55.305084
 31
0.0
  0
LINE
  5
278
100
AcDbEntity
  8
0
 62
     0
100
AcDbLine
 10
-15.785801
 20
56.885051
 30
0.0
 11
-15.665279
 21
57.028684
 31
0.0
  0
LINE
  5
279
100
AcDbEntity
  8
0
 62
     0
100
AcDbLine
 10
-14.339529
 20
58.608651
 30
0.0
 11
-14.219007
 21
58.752284
 31
0.0
  0
LINE
  5
27A
100
AcDbEntity
  8
0
 62
     0
100
AcDbLine
 10
-12.893257
 20
60.332251
 30
0.0
 11
-12.772734
 21
60.475884
 31
0.0
  0
LINE
  5
27B
100
AcDbEntity
  8
0
 62
     0
100
AcDbLine
 10
-17.578952
 20
57.041931
 30
0.0
 11
-17.458429
 21
57.185565
 31
0.0
  0
LINE
  5
27C
100
AcDbEntity
  8
0
 62
     0
100
AcDbLine
 10
-16.13268
 20
58.765531
 30
0.0
 11
-16.012157
 21
58.909165
 31
0.0
  0
LINE
  5
27D
100
AcDbEntity
  8
0
 62
     0
100
AcDbLine
 10
-14.686408
 20
60.489131
 30
0.0
 11
-14.565885
 21
60.632765
 31
0.0
  0
LINE
  5
27E
100
AcDbEntity
  8
0
 62
     0
100
AcDbLine
 10
-13.240136
 20
62.212731
 30
0.0
 11
-13.119613
 21
62.356365
 31
0.0
  0
LINE
  5
27F
100
AcDbEntity
  8
0
 62
     0
100
AcDbLine
 10
-17.92583
 20
58.922412
 30
0.0
 11
-17.805308
 21
59.066045
 31
0.0
  0
LINE
  5
280
100
AcDbEntity
  8
0
 62
     0
100
AcDbLine
 10
-16.479558
 20
60.646012
 30
0.0
 11
-16.359035
 21
60.789645
 31
0.0
  0
LINE
  5
281
100
AcDbEntity
  8
0
 62
     0
100
AcDbLine
 10
-15.033286
 20
62.369612
 30
0.0
 11
-14.912763
 21
62.513245
 31
0.0
  0
LINE
  5
282
100
AcDbEntity
  8
0
 62
     0
100
AcDbLine
 10
-13.587014
 20
64.093212
 30
0.0
 11
-13.466491
 21
64.236845
 31
0.0
  0
LINE
  5
283
100
AcDbEntity
  8
0
 62
     0
100
AcDbLine
 10
-18.159346
 20
60.937993
 30
0.0
 11
-18.152186
 21
60.946525
 31
0.0
  0
LINE
  5
284
100
AcDbEntity
  8
0
 62
     0
100
AcDbLine
 10
-16.826436
 20
62.526492
 30
0.0
 11
-16.705914
 21
62.670125
 31
0.0
  0
LINE
  5
285
100
AcDbEntity
  8
0
 62
     0
100
AcDbLine
 10
-15.380164
 20
64.250092
 30
0.0
 11
-15.259642
 21
64.393725
 31
0.0
  0
LINE
  5
286
100
AcDbEntity
  8
0
 62
     0
100
AcDbLine
 10
-13.933892
 20
65.973692
 30
0.0
 11
-13.813369
 21
66.117325
 31
0.0
  0
LINE
  5
287
100
AcDbEntity
  8
0
 62
     0
100
AcDbLine
 10
-12.48762
 20
67.697292
 30
0.0
 11
-12.367097
 21
67.840925
 31
0.0
  0
LINE
  5
288
100
AcDbEntity
  8
0
 62
     0
100
AcDbLine
 10
-17.173315
 20
64.406972
 30
0.0
 11
-17.052792
 21
64.550606
 31
0.0
  0
LINE
  5
289
100
AcDbEntity
  8
0
 62
     0
100
AcDbLine
 10
-15.727043
 20
66.130572
 30
0.0
 11
-15.60652
 21
66.274206
 31
0.0
  0
LINE
  5
28A
100
AcDbEntity
  8
0
 62
     0
100
AcDbLine
 10
-14.280771
 20
67.854172
 30
0.0
 11
-14.160248
 21
67.997806
 31
0.0
  0
LINE
  5
28B
100
AcDbEntity
  8
0
 62
     0
100
AcDbLine
 10
-12.834498
 20
69.577772
 30
0.0
 11
-12.713976
 21
69.721406
 31
0.0
  0
LINE
  5
28C
100
AcDbEntity
  8
0
 62
     0
100
AcDbLine
 10
-17.520193
 20
66.287453
 30
0.0
 11
-17.39967
 21
66.431086
 31
0.0
  0
LINE
  5
28D
100
AcDbEntity
  8
0
 62
     0
100
AcDbLine
 10
-16.073921
 20
68.011053
 30
0.0
 11
-15.953398
 21
68.154686
 31
0.0
  0
LINE
  5
28E
100
AcDbEntity
  8
0
 62
     0
100
AcDbLine
 10
-17.867071
 20
68.167933
 30
0.0
 11
-17.746549
 21
68.311566
 31
0.0
  0
LINE
  5
28F
100
AcDbEntity
  8
0
 62
     0
100
AcDbLine
 10
-16.420799
 20
69.891533
 30
0.0
 11
-16.300277
 21
70.035166
 31
0.0
  0
LINE
  5
290
100
AcDbEntity
  8
0
 62
     0
100
AcDbLine
 10
-17.290832
 20
45.91593
 30
0.0
 11
-17.159346
 21
45.904426
 31
0.0
  0
LINE
  5
291
100
AcDbEntity
  8
0
 62
     0
100
AcDbLine
 10
-17.637711
 20
47.79641
 30
0.0
 11
-17.488281
 21
47.783337
 31
0.0
  0
LINE
  5
292
100
AcDbEntity
  8
0
 62
     0
100
AcDbLine
 10
-17.984589
 20
49.67689
 30
0.0
 11
-17.83516
 21
49.663817
 31
0.0
  0
LINE
  5
293
100
AcDbEntity
  8
0
 62
     0
100
AcDbLine
 10
-16.885195
 20
53.280971
 30
0.0
 11
-16.735766
 21
53.267897
 31
0.0
  0
LINE
  5
294
100
AcDbEntity
  8
0
 62
     0
100
AcDbLine
 10
-15.092045
 20
53.12409
 30
0.0
 11
-14.942616
 21
53.111017
 31
0.0
  0
LINE
  5
295
100
AcDbEntity
  8
0
 62
     0
100
AcDbLine
 10
-13.298894
 20
52.96721
 30
0.0
 11
-13.149465
 21
52.954137
 31
0.0
  0
LINE
  5
296
100
AcDbEntity
  8
0
 62
     0
100
AcDbLine
 10
-17.232074
 20
55.161451
 30
0.0
 11
-17.082644
 21
55.148378
 31
0.0
  0
LINE
  5
297
100
AcDbEntity
  8
0
 62
     0
100
AcDbLine
 10
-15.438923
 20
55.004571
 30
0.0
 11
-15.289494
 21
54.991497
 31
0.0
  0
LINE
  5
298
100
AcDbEntity
  8
0
 62
     0
100
AcDbLine
 10
-13.645773
 20
54.84769
 30
0.0
 11
-13.496343
 21
54.834617
 31
0.0
  0
LINE
  5
299
100
AcDbEntity
  8
0
 62
     0
100
AcDbLine
 10
-17.578952
 20
57.041931
 30
0.0
 11
-17.429523
 21
57.028858
 31
0.0
  0
LINE
  5
29A
100
AcDbEntity
  8
0
 62
     0
100
AcDbLine
 10
-15.785801
 20
56.885051
 30
0.0
 11
-15.636372
 21
56.871978
 31
0.0
  0
LINE
  5
29B
100
AcDbEntity
  8
0
 62
     0
100
AcDbLine
 10
-13.992651
 20
56.728171
 30
0.0
 11
-13.843222
 21
56.715097
 31
0.0
  0
LINE
  5
29C
100
AcDbEntity
  8
0
 62
     0
100
AcDbLine
 10
-12.1995
 20
56.57129
 30
0.0
 11
-12.159346
 21
56.567777
 31
0.0
  0
LINE
  5
29D
100
AcDbEntity
  8
0
 62
     0
100
AcDbLine
 10
-17.92583
 20
58.922412
 30
0.0
 11
-17.776401
 21
58.909338
 31
0.0
  0
LINE
  5
29E
100
AcDbEntity
  8
0
 62
     0
100
AcDbLine
 10
-16.13268
 20
58.765531
 30
0.0
 11
-15.983251
 21
58.752458
 31
0.0
  0
LINE
  5
29F
100
AcDbEntity
  8
0
 62
     0
100
AcDbLine
 10
-14.339529
 20
58.608651
 30
0.0
 11
-14.1901
 21
58.595578
 31
0.0
  0
LINE
  5
2A0
100
AcDbEntity
  8
0
 62
     0
100
AcDbLine
 10
-12.546379
 20
58.451771
 30
0.0
 11
-12.39695
 21
58.438697
 31
0.0
  0
LINE
  5
2A1
100
AcDbEntity
  8
0
 62
     0
100
AcDbLine
 10
-18.159346
 20
60.792974
 30
0.0
 11
-18.123279
 21
60.789819
 31
0.0
  0
LINE
  5
2A2
100
AcDbEntity
  8
0
 62
     0
100
AcDbLine
 10
-16.479558
 20
60.646012
 30
0.0
 11
-16.330129
 21
60.632938
 31
0.0
  0
LINE
  5
2A3
100
AcDbEntity
  8
0
 62
     0
100
AcDbLine
 10
-14.686408
 20
60.489131
 30
0.0
 11
-14.536978
 21
60.476058
 31
0.0
  0
LINE
  5
2A4
100
AcDbEntity
  8
0
 62
     0
100
AcDbLine
 10
-12.893257
 20
60.332251
 30
0.0
 11
-12.743828
 21
60.319178
 31
0.0
  0
LINE
  5
2A5
100
AcDbEntity
  8
0
 62
     0
100
AcDbLine
 10
-16.826436
 20
62.526492
 30
0.0
 11
-16.677007
 21
62.513419
 31
0.0
  0
LINE
  5
2A6
100
AcDbEntity
  8
0
 62
     0
100
AcDbLine
 10
-15.033286
 20
62.369612
 30
0.0
 11
-14.883857
 21
62.356538
 31
0.0
  0
LINE
  5
2A7
100
AcDbEntity
  8
0
 62
     0
100
AcDbLine
 10
-13.240135
 20
62.212731
 30
0.0
 11
-13.090706
 21
62.199658
 31
0.0
  0
LINE
  5
2A8
100
AcDbEntity
  8
0
 62
     0
100
AcDbLine
 10
-17.173315
 20
64.406972
 30
0.0
 11
-17.023886
 21
64.393899
 31
0.0
  0
LINE
  5
2A9
100
AcDbEntity
  8
0
 62
     0
100
AcDbLine
 10
-15.380164
 20
64.250092
 30
0.0
 11
-15.230735
 21
64.237019
 31
0.0
  0
LINE
  5
2AA
100
AcDbEntity
  8
0
 62
     0
100
AcDbLine
 10
-13.587014
 20
64.093212
 30
0.0
 11
-13.437585
 21
64.080138
 31
0.0
  0
LINE
  5
2AB
100
AcDbEntity
  8
0
 62
     0
100
AcDbLine
 10
-17.520193
 20
66.287453
 30
0.0
 11
-17.370764
 21
66.274379
 31
0.0
  0
LINE
  5
2AC
100
AcDbEntity
  8
0
 62
     0
100
AcDbLine
 10
-15.727043
 20
66.130572
 30
0.0
 11
-15.577613
 21
66.117499
 31
0.0
  0
LINE
  5
2AD
100
AcDbEntity
  8
0
 62
     0
100
AcDbLine
 10
-13.933892
 20
65.973692
 30
0.0
 11
-13.784463
 21
65.960619
 31
0.0
  0
LINE
  5
2AE
100
AcDbEntity
  8
0
 62
     0
100
AcDbLine
 10
-17.867071
 20
68.167933
 30
0.0
 11
-17.717642
 21
68.15486
 31
0.0
  0
LINE
  5
2AF
100
AcDbEntity
  8
0
 62
     0
100
AcDbLine
 10
-16.073921
 20
68.011053
 30
0.0
 11
-15.924492
 21
67.997979
 31
0.0
  0
LINE
  5
2B0
100
AcDbEntity
  8
0
 62
     0
100
AcDbLine
 10
-14.28077
 20
67.854172
 30
0.0
 11
-14.131341
 21
67.841099
 31
0.0
  0
LINE
  5
2B1
100
AcDbEntity
  8
0
 62
     0
100
AcDbLine
 10
-12.48762
 20
67.697292
 30
0.0
 11
-12.338191
 21
67.684219
 31
0.0
  0
LINE
  5
2B2
100
AcDbEntity
  8
0
 62
     0
100
AcDbLine
 10
-16.420799
 20
69.891533
 30
0.0
 11
-16.27137
 21
69.87846
 31
0.0
  0
LINE
  5
2B3
100
AcDbEntity
  8
0
 62
     0
100
AcDbLine
 10
-12.834498
 20
69.577772
 30
0.0
 11
-12.685069
 21
69.564699
 31
0.0
  0
LINE
  5
2B4
100
AcDbEntity
  8
0
 62
     0
100
AcDbLine
 10
-13.010775
 20
41.841208
 30
0.0
 11
-12.861346
 21
41.828135
 31
0.0
  0
LINE
  5
2B5
100
AcDbEntity
  8
0
 62
     0
100
AcDbLine
 10
-18.043348
 20
40.431369
 30
0.0
 11
-17.893919
 21
40.418296
 31
0.0
  0
LINE
  5
2B6
100
AcDbEntity
  8
0
 62
     0
100
AcDbLine
 10
-16.250197
 20
40.274489
 30
0.0
 11
-16.100768
 21
40.261415
 31
0.0
  0
LINE
  5
2B7
100
AcDbEntity
  8
0
 62
     0
100
AcDbLine
 10
-14.457047
 20
40.117608
 30
0.0
 11
-14.307618
 21
40.104535
 31
0.0
  0
LINE
  5
2B8
100
AcDbEntity
  8
0
 62
     0
100
AcDbLine
 10
-12.663896
 20
39.960728
 30
0.0
 11
-12.514467
 21
39.947655
 31
0.0
  0
LINE
  5
2B9
100
AcDbEntity
  8
0
 62
     0
100
AcDbLine
 10
-17.696469
 20
38.550889
 30
0.0
 11
-17.54704
 21
38.537815
 31
0.0
  0
LINE
  5
2BA
100
AcDbEntity
  8
0
 62
     0
100
AcDbLine
 10
-15.903319
 20
38.394008
 30
0.0
 11
-15.75389
 21
38.380935
 31
0.0
  0
LINE
  5
2BB
100
AcDbEntity
  8
0
 62
     0
100
AcDbLine
 10
-14.110169
 20
38.237128
 30
0.0
 11
-13.960739
 21
38.224055
 31
0.0
  0
LINE
  5
2BC
100
AcDbEntity
  8
0
 62
     0
100
AcDbLine
 10
-12.317018
 20
38.080248
 30
0.0
 11
-12.167589
 21
38.067174
 31
0.0
  0
LINE
  5
2BD
100
AcDbEntity
  8
0
 62
     0
100
AcDbLine
 10
-17.349591
 20
36.670408
 30
0.0
 11
-17.200162
 21
36.657335
 31
0.0
  0
LINE
  5
2BE
100
AcDbEntity
  8
0
 62
     0
100
AcDbLine
 10
-15.556441
 20
36.513528
 30
0.0
 11
-15.407011
 21
36.500455
 31
0.0
  0
LINE
  5
2BF
100
AcDbEntity
  8
0
 62
     0
100
AcDbLine
 10
-13.76329
 20
36.356648
 30
0.0
 11
-13.613861
 21
36.343574
 31
0.0
  0
LINE
  5
2C0
100
AcDbEntity
  8
0
 62
     0
100
AcDbLine
 10
-17.002713
 20
34.789928
 30
0.0
 11
-16.853284
 21
34.776855
 31
0.0
  0
LINE
  5
2C1
100
AcDbEntity
  8
0
 62
     0
100
AcDbLine
 10
-15.209562
 20
34.633048
 30
0.0
 11
-15.060133
 21
34.619974
 31
0.0
  0
LINE
  5
2C2
100
AcDbEntity
  8
0
 62
     0
100
AcDbLine
 10
-13.416412
 20
34.476167
 30
0.0
 11
-13.266983
 21
34.463094
 31
0.0
  0
LINE
  5
2C3
100
AcDbEntity
  8
0
 62
     0
100
AcDbLine
 10
-16.655834
 20
32.909448
 30
0.0
 11
-16.506405
 21
32.896374
 31
0.0
  0
LINE
  5
2C4
100
AcDbEntity
  8
0
 62
     0
100
AcDbLine
 10
-14.862684
 20
32.752567
 30
0.0
 11
-14.713255
 21
32.739494
 31
0.0
  0
LINE
  5
2C5
100
AcDbEntity
  8
0
 62
     0
100
AcDbLine
 10
-13.069534
 20
32.595687
 30
0.0
 11
-12.920104
 21
32.582614
 31
0.0
  0
LINE
  5
2C6
100
AcDbEntity
  8
0
 62
     0
100
AcDbLine
 10
-18.102107
 20
31.185848
 30
0.0
 11
-17.952677
 21
31.172774
 31
0.0
  0
LINE
  5
2C7
100
AcDbEntity
  8
0
 62
     0
100
AcDbLine
 10
-16.308956
 20
31.028967
 30
0.0
 11
-16.159527
 21
31.015894
 31
0.0
  0
LINE
  5
2C8
100
AcDbEntity
  8
0
 62
     0
100
AcDbLine
 10
-14.515806
 20
30.872087
 30
0.0
 11
-14.366376
 21
30.859014
 31
0.0
  0
LINE
  5
2C9
100
AcDbEntity
  8
0
 62
     0
100
AcDbLine
 10
-12.722655
 20
30.715207
 30
0.0
 11
-12.573226
 21
30.702133
 31
0.0
  0
LINE
  5
2CA
100
AcDbEntity
  8
0
 62
     0
100
AcDbLine
 10
-17.755228
 20
29.305367
 30
0.0
 11
-17.605799
 21
29.292294
 31
0.0
  0
LINE
  5
2CB
100
AcDbEntity
  8
0
 62
     0
100
AcDbLine
 10
-15.962078
 20
29.148487
 30
0.0
 11
-15.812649
 21
29.135414
 31
0.0
  0
LINE
  5
2CC
100
AcDbEntity
  8
0
 62
     0
100
AcDbLine
 10
-14.168927
 20
28.991607
 30
0.0
 11
-14.019498
 21
28.978533
 31
0.0
  0
LINE
  5
2CD
100
AcDbEntity
  8
0
 62
     0
100
AcDbLine
 10
-12.375777
 20
28.834726
 30
0.0
 11
-12.226348
 21
28.821653
 31
0.0
  0
LINE
  5
2CE
100
AcDbEntity
  8
0
 62
     0
100
AcDbLine
 10
-17.40835
 20
27.424887
 30
0.0
 11
-17.258921
 21
27.411814
 31
0.0
  0
LINE
  5
2CF
100
AcDbEntity
  8
0
 62
     0
100
AcDbLine
 10
-15.615199
 20
27.268007
 30
0.0
 11
-15.46577
 21
27.254933
 31
0.0
  0
LINE
  5
2D0
100
AcDbEntity
  8
0
 62
     0
100
AcDbLine
 10
-13.822049
 20
27.111126
 30
0.0
 11
-13.67262
 21
27.098053
 31
0.0
  0
LINE
  5
2D1
100
AcDbEntity
  8
0
 62
     0
100
AcDbLine
 10
-17.061472
 20
25.544407
 30
0.0
 11
-16.912042
 21
25.531333
 31
0.0
  0
LINE
  5
2D2
100
AcDbEntity
  8
0
 62
     0
100
AcDbLine
 10
-15.268321
 20
25.387526
 30
0.0
 11
-15.118892
 21
25.374453
 31
0.0
  0
LINE
  5
2D3
100
AcDbEntity
  8
0
 62
     0
100
AcDbLine
 10
-13.475171
 20
25.230646
 30
0.0
 11
-13.325741
 21
25.217573
 31
0.0
  0
LINE
  5
2D4
100
AcDbEntity
  8
0
 62
     0
100
AcDbLine
 10
-12.167559
 20
38.067184
 30
0.0
 11
-12.196465
 21
38.223891
 31
0.0
  0
LINE
  5
2D5
100
AcDbEntity
  8
0
 62
     0
100
AcDbLine
 10
-12.514436
 20
39.947665
 30
0.0
 11
-12.543342
 21
40.104371
 31
0.0
  0
LINE
  5
2D6
100
AcDbEntity
  8
0
 62
     0
100
AcDbLine
 10
-12.861313
 20
41.828145
 30
0.0
 11
-12.887045
 21
41.967645
 31
0.0
  0
LINE
  5
2D7
100
AcDbEntity
  8
0
 62
     0
100
AcDbLine
 10
-14.942574
 20
53.111029
 30
0.0
 11
-14.97148
 21
53.267735
 31
0.0
  0
LINE
  5
2D8
100
AcDbEntity
  8
0
 62
     0
100
AcDbLine
 10
-15.289451
 20
54.991509
 30
0.0
 11
-15.318357
 21
55.148216
 31
0.0
  0
LINE
  5
2D9
100
AcDbEntity
  8
0
 62
     0
100
AcDbLine
 10
-15.636328
 20
56.87199
 30
0.0
 11
-15.665234
 21
57.028697
 31
0.0
  0
LINE
  5
2DA
100
AcDbEntity
  8
0
 62
     0
100
AcDbLine
 10
-15.983205
 20
58.752471
 30
0.0
 11
-16.012111
 21
58.909177
 31
0.0
  0
LINE
  5
2DB
100
AcDbEntity
  8
0
 62
     0
100
AcDbLine
 10
-16.330081
 20
60.632951
 30
0.0
 11
-16.358988
 21
60.789658
 31
0.0
  0
LINE
  5
2DC
100
AcDbEntity
  8
0
 62
     0
100
AcDbLine
 10
-16.676958
 20
62.513432
 30
0.0
 11
-16.705865
 21
62.670138
 31
0.0
  0
LINE
  5
2DD
100
AcDbEntity
  8
0
 62
     0
100
AcDbLine
 10
-17.023835
 20
64.393912
 30
0.0
 11
-17.052742
 21
64.550619
 31
0.0
  0
LINE
  5
2DE
100
AcDbEntity
  8
0
 62
     0
100
AcDbLine
 10
-17.370712
 20
66.274393
 30
0.0
 11
-17.399618
 21
66.4311
 31
0.0
  0
LINE
  5
2DF
100
AcDbEntity
  8
0
 62
     0
100
AcDbLine
 10
-17.717589
 20
68.154874
 30
0.0
 11
-17.746495
 21
68.31158
 31
0.0
  0
LINE
  5
2E0
100
AcDbEntity
  8
0
 62
     0
100
AcDbLine
 10
-13.149424
 20
52.954147
 30
0.0
 11
-13.17833
 21
53.110854
 31
0.0
  0
LINE
  5
2E1
100
AcDbEntity
  8
0
 62
     0
100
AcDbLine
 10
-13.496301
 20
54.834628
 30
0.0
 11
-13.525207
 21
54.991334
 31
0.0
  0
LINE
  5
2E2
100
AcDbEntity
  8
0
 62
     0
100
AcDbLine
 10
-13.843177
 20
56.715108
 30
0.0
 11
-13.872084
 21
56.871815
 31
0.0
  0
LINE
  5
2E3
100
AcDbEntity
  8
0
 62
     0
100
AcDbLine
 10
-14.190054
 20
58.595589
 30
0.0
 11
-14.218961
 21
58.752295
 31
0.0
  0
LINE
  5
2E4
100
AcDbEntity
  8
0
 62
     0
100
AcDbLine
 10
-14.536931
 20
60.476069
 30
0.0
 11
-14.565838
 21
60.632776
 31
0.0
  0
LINE
  5
2E5
100
AcDbEntity
  8
0
 62
     0
100
AcDbLine
 10
-14.883808
 20
62.35655
 30
0.0
 11
-14.912714
 21
62.513257
 31
0.0
  0
LINE
  5
2E6
100
AcDbEntity
  8
0
 62
     0
100
AcDbLine
 10
-15.230685
 20
64.237031
 30
0.0
 11
-15.259591
 21
64.393737
 31
0.0
  0
LINE
  5
2E7
100
AcDbEntity
  8
0
 62
     0
100
AcDbLine
 10
-15.577562
 20
66.117511
 30
0.0
 11
-15.606468
 21
66.274218
 31
0.0
  0
LINE
  5
2E8
100
AcDbEntity
  8
0
 62
     0
100
AcDbLine
 10
-15.924439
 20
67.997992
 30
0.0
 11
-15.953345
 21
68.154698
 31
0.0
  0
LINE
  5
2E9
100
AcDbEntity
  8
0
 62
     0
100
AcDbLine
 10
-16.271315
 20
69.878472
 30
0.0
 11
-16.300222
 21
70.035179
 31
0.0
  0
LINE
  5
2EA
100
AcDbEntity
  8
0
 62
     0
100
AcDbLine
 10
-12.396904
 20
58.438707
 30
0.0
 11
-12.42581
 21
58.595414
 31
0.0
  0
LINE
  5
2EB
100
AcDbEntity
  8
0
 62
     0
100
AcDbLine
 10
-12.743781
 20
60.319188
 30
0.0
 11
-12.772687
 21
60.475894
 31
0.0
  0
LINE
  5
2EC
100
AcDbEntity
  8
0
 62
     0
100
AcDbLine
 10
-13.090658
 20
62.199668
 30
0.0
 11
-13.119564
 21
62.356375
 31
0.0
  0
LINE
  5
2ED
100
AcDbEntity
  8
0
 62
     0
100
AcDbLine
 10
-13.437535
 20
64.080149
 30
0.0
 11
-13.466441
 21
64.236856
 31
0.0
  0
LINE
  5
2EE
100
AcDbEntity
  8
0
 62
     0
100
AcDbLine
 10
-13.784411
 20
65.960629
 30
0.0
 11
-13.813318
 21
66.117336
 31
0.0
  0
LINE
  5
2EF
100
AcDbEntity
  8
0
 62
     0
100
AcDbLine
 10
-14.131288
 20
67.84111
 30
0.0
 11
-14.160195
 21
67.997817
 31
0.0
  0
LINE
  5
2F0
100
AcDbEntity
  8
0
 62
     0
100
AcDbLine
 10
-12.338138
 20
67.684228
 30
0.0
 11
-12.367044
 21
67.840935
 31
0.0
  0
LINE
  5
2F1
100
AcDbEntity
  8
0
 62
     0
100
AcDbLine
 10
-12.685015
 20
69.564709
 30
0.0
 11
-12.713921
 21
69.721416
 31
0.0
  0
LINE
  5
2F2
100
AcDbEntity
  8
0
 62
     0
100
AcDbLine
 10
-12.226325
 20
28.821663
 30
0.0
 11
-12.255231
 21
28.978369
 31
0.0
  0
LINE
  5
2F3
100
AcDbEntity
  8
0
 62
     0
100
AcDbLine
 10
-12.573202
 20
30.702143
 30
0.0
 11
-12.602108
 21
30.85885
 31
0.0
  0
LINE
  5
2F4
100
AcDbEntity
  8
0
 62
     0
100
AcDbLine
 10
-12.920079
 20
32.582624
 30
0.0
 11
-12.948985
 21
32.739331
 31
0.0
  0
LINE
  5
2F5
100
AcDbEntity
  8
0
 62
     0
100
AcDbLine
 10
-13.266956
 20
34.463104
 30
0.0
 11
-13.295862
 21
34.619811
 31
0.0
  0
LINE
  5
2F6
100
AcDbEntity
  8
0
 62
     0
100
AcDbLine
 10
-13.613833
 20
36.343585
 30
0.0
 11
-13.642739
 21
36.500292
 31
0.0
  0
LINE
  5
2F7
100
AcDbEntity
  8
0
 62
     0
100
AcDbLine
 10
-13.960709
 20
38.224066
 30
0.0
 11
-13.989616
 21
38.380772
 31
0.0
  0
LINE
  5
2F8
100
AcDbEntity
  8
0
 62
     0
100
AcDbLine
 10
-14.307586
 20
40.104546
 30
0.0
 11
-14.336493
 21
40.261253
 31
0.0
  0
LINE
  5
2F9
100
AcDbEntity
  8
0
 62
     0
100
AcDbLine
 10
-16.735724
 20
53.26791
 30
0.0
 11
-16.764631
 21
53.424617
 31
0.0
  0
LINE
  5
2FA
100
AcDbEntity
  8
0
 62
     0
100
AcDbLine
 10
-17.082601
 20
55.148391
 30
0.0
 11
-17.111508
 21
55.305098
 31
0.0
  0
LINE
  5
2FB
100
AcDbEntity
  8
0
 62
     0
100
AcDbLine
 10
-17.429478
 20
57.028872
 30
0.0
 11
-17.458384
 21
57.185578
 31
0.0
  0
LINE
  5
2FC
100
AcDbEntity
  8
0
 62
     0
100
AcDbLine
 10
-17.776355
 20
58.909352
 30
0.0
 11
-17.805261
 21
59.066059
 31
0.0
  0
LINE
  5
2FD
100
AcDbEntity
  8
0
 62
     0
100
AcDbLine
 10
-18.123232
 20
60.789833
 30
0.0
 11
-18.152138
 21
60.94654
 31
0.0
  0
LINE
  5
2FE
100
AcDbEntity
  8
0
 62
     0
100
AcDbLine
 10
-13.325722
 20
25.217583
 30
0.0
 11
-13.354628
 21
25.37429
 31
0.0
  0
LINE
  5
2FF
100
AcDbEntity
  8
0
 62
     0
100
AcDbLine
 10
-13.672599
 20
27.098064
 30
0.0
 11
-13.701505
 21
27.25477
 31
0.0
  0
LINE
  5
300
100
AcDbEntity
  8
0
 62
     0
100
AcDbLine
 10
-14.019475
 20
28.978544
 30
0.0
 11
-14.048382
 21
29.135251
 31
0.0
  0
LINE
  5
301
100
AcDbEntity
  8
0
 62
     0
100
AcDbLine
 10
-14.366352
 20
30.859025
 30
0.0
 11
-14.395259
 21
31.015732
 31
0.0
  0
LINE
  5
302
100
AcDbEntity
  8
0
 62
     0
100
AcDbLine
 10
-14.713229
 20
32.739506
 30
0.0
 11
-14.742136
 21
32.896212
 31
0.0
  0
LINE
  5
303
100
AcDbEntity
  8
0
 62
     0
100
AcDbLine
 10
-15.060106
 20
34.619986
 30
0.0
 11
-15.089012
 21
34.776693
 31
0.0
  0
LINE
  5
304
100
AcDbEntity
  8
0
 62
     0
100
AcDbLine
 10
-15.406983
 20
36.500467
 30
0.0
 11
-15.435889
 21
36.657174
 31
0.0
  0
LINE
  5
305
100
AcDbEntity
  8
0
 62
     0
100
AcDbLine
 10
-15.75386
 20
38.380947
 30
0.0
 11
-15.782766
 21
38.537654
 31
0.0
  0
LINE
  5
306
100
AcDbEntity
  8
0
 62
     0
100
AcDbLine
 10
-16.100737
 20
40.261428
 30
0.0
 11
-16.129643
 21
40.418135
 31
0.0
  0
LINE
  5
307
100
AcDbEntity
  8
0
 62
     0
100
AcDbLine
 10
-17.159346
 20
46.000335
 30
0.0
 11
-17.170274
 21
46.059577
 31
0.0
  0
LINE
  5
308
100
AcDbEntity
  8
0
 62
     0
100
AcDbLine
 10
-17.488244
 20
47.78335
 30
0.0
 11
-17.51715
 21
47.940057
 31
0.0
  0
LINE
  5
309
100
AcDbEntity
  8
0
 62
     0
100
AcDbLine
 10
-17.835121
 20
49.663831
 30
0.0
 11
-17.864027
 21
49.820538
 31
0.0
  0
LINE
  5
30A
100
AcDbEntity
  8
0
 62
     0
100
AcDbLine
 10
-15.118872
 20
25.374465
 30
0.0
 11
-15.147778
 21
25.531172
 31
0.0
  0
LINE
  5
30B
100
AcDbEntity
  8
0
 62
     0
100
AcDbLine
 10
-15.465749
 20
27.254946
 30
0.0
 11
-15.494655
 21
27.411652
 31
0.0
  0
LINE
  5
30C
100
AcDbEntity
  8
0
 62
     0
100
AcDbLine
 10
-15.812626
 20
29.135426
 30
0.0
 11
-15.841532
 21
29.292133
 31
0.0
  0
LINE
  5
30D
100
AcDbEntity
  8
0
 62
     0
100
AcDbLine
 10
-16.159503
 20
31.015907
 30
0.0
 11
-16.188409
 21
31.172613
 31
0.0
  0
LINE
  5
30E
100
AcDbEntity
  8
0
 62
     0
100
AcDbLine
 10
-16.506379
 20
32.896387
 30
0.0
 11
-16.535286
 21
33.053094
 31
0.0
  0
LINE
  5
30F
100
AcDbEntity
  8
0
 62
     0
100
AcDbLine
 10
-16.853256
 20
34.776868
 30
0.0
 11
-16.882163
 21
34.933575
 31
0.0
  0
LINE
  5
310
100
AcDbEntity
  8
0
 62
     0
100
AcDbLine
 10
-17.200133
 20
36.657349
 30
0.0
 11
-17.22904
 21
36.814055
 31
0.0
  0
LINE
  5
311
100
AcDbEntity
  8
0
 62
     0
100
AcDbLine
 10
-17.54701
 20
38.537829
 30
0.0
 11
-17.575916
 21
38.694536
 31
0.0
  0
LINE
  5
312
100
AcDbEntity
  8
0
 62
     0
100
AcDbLine
 10
-17.893887
 20
40.41831
 30
0.0
 11
-17.922793
 21
40.575016
 31
0.0
  0
LINE
  5
313
100
AcDbEntity
  8
0
 62
     0
100
AcDbLine
 10
-16.912022
 20
25.531347
 30
0.0
 11
-16.940929
 21
25.688053
 31
0.0
  0
LINE
  5
314
100
AcDbEntity
  8
0
 62
     0
100
AcDbLine
 10
-17.258899
 20
27.411827
 30
0.0
 11
-17.287806
 21
27.568534
 31
0.0
  0
LINE
  5
315
100
AcDbEntity
  8
0
 62
     0
100
AcDbLine
 10
-17.605776
 20
29.292308
 30
0.0
 11
-17.634682
 21
29.449015
 31
0.0
  0
LINE
  5
316
100
AcDbEntity
  8
0
 62
     0
100
AcDbLine
 10
-17.952653
 20
31.172788
 30
0.0
 11
-17.981559
 21
31.329495
 31
0.0
  0
LINE
  5
317
100
AcDbEntity
  8
0
 62
     0
100
AcDbLine
 10
-17.980782
 20
42.456304
 30
0.0
 11
-17.78606
 21
42.659246
 31
0.0
  0
LINE
  5
318
100
AcDbEntity
  8
0
 62
     0
100
AcDbLine
 10
-17.649334
 20
39.60721
 30
0.0
 11
-17.454613
 21
39.810152
 31
0.0
  0
LINE
  5
319
100
AcDbEntity
  8
0
 62
     0
100
AcDbLine
 10
-17.317886
 20
36.758116
 30
0.0
 11
-17.123165
 21
36.961058
 31
0.0
  0
LINE
  5
31A
100
AcDbEntity
  8
0
 62
     0
100
AcDbLine
 10
-14.981231
 20
39.193413
 30
0.0
 11
-14.78651
 21
39.396354
 31
0.0
  0
LINE
  5
31B
100
AcDbEntity
  8
0
 62
     0
100
AcDbLine
 10
-12.644576
 20
41.628709
 30
0.0
 11
-12.449855
 21
41.831651
 31
0.0
  0
LINE
  5
31C
100
AcDbEntity
  8
0
 62
     0
100
AcDbLine
 10
-16.986438
 20
33.909022
 30
0.0
 11
-16.791717
 21
34.111963
 31
0.0
  0
LINE
  5
31D
100
AcDbEntity
  8
0
 62
     0
100
AcDbLine
 10
-14.649784
 20
36.344319
 30
0.0
 11
-14.455062
 21
36.54726
 31
0.0
  0
LINE
  5
31E
100
AcDbEntity
  8
0
 62
     0
100
AcDbLine
 10
-12.313129
 20
38.779615
 30
0.0
 11
-12.159346
 21
38.93989
 31
0.0
  0
LINE
  5
31F
100
AcDbEntity
  8
0
 62
     0
100
AcDbLine
 10
-16.654991
 20
31.059928
 30
0.0
 11
-16.460269
 21
31.262869
 31
0.0
  0
LINE
  5
320
100
AcDbEntity
  8
0
 62
     0
100
AcDbLine
 10
-14.318336
 20
33.495225
 30
0.0
 11
-14.123615
 21
33.698166
 31
0.0
  0
LINE
  5
321
100
AcDbEntity
  8
0
 62
     0
100
AcDbLine
 10
-16.323543
 20
28.210834
 30
0.0
 11
-16.128822
 21
28.413775
 31
0.0
  0
LINE
  5
322
100
AcDbEntity
  8
0
 62
     0
100
AcDbLine
 10
-13.986888
 20
30.646131
 30
0.0
 11
-13.792167
 21
30.849072
 31
0.0
  0
LINE
  5
323
100
AcDbEntity
  8
0
 62
     0
100
AcDbLine
 10
-15.810686
 20
25.550808
 30
0.0
 11
-15.797374
 21
25.564681
 31
0.0
  0
LINE
  5
324
100
AcDbEntity
  8
0
 62
     0
100
AcDbLine
 10
-13.65544
 20
27.797036
 30
0.0
 11
-13.460719
 21
27.999978
 31
0.0
  0
LINE
  5
325
100
AcDbEntity
  8
0
 62
     0
100
AcDbLine
 10
-13.305088
 20
24.967645
 30
0.0
 11
-13.129271
 21
25.150884
 31
0.0
  0
LINE
  5
326
100
AcDbEntity
  8
0
 62
     0
100
AcDbLine
 10
-18.159346
 20
45.464736
 30
0.0
 11
-18.117508
 21
45.50834
 31
0.0
  0
LINE
  5
327
100
AcDbEntity
  8
0
 62
     0
100
AcDbLine
 10
-13.970368
 20
53.025085
 30
0.0
 11
-13.775646
 21
53.228027
 31
0.0
  0
LINE
  5
328
100
AcDbEntity
  8
0
 62
     0
100
AcDbLine
 10
-16.63847
 20
53.438883
 30
0.0
 11
-16.443749
 21
53.641824
 31
0.0
  0
LINE
  5
329
100
AcDbEntity
  8
0
 62
     0
100
AcDbLine
 10
-14.301815
 20
55.874179
 30
0.0
 11
-14.107094
 21
56.077121
 31
0.0
  0
LINE
  5
32A
100
AcDbEntity
  8
0
 62
     0
100
AcDbLine
 10
-16.969918
 20
56.287977
 30
0.0
 11
-16.775197
 21
56.490918
 31
0.0
  0
LINE
  5
32B
100
AcDbEntity
  8
0
 62
     0
100
AcDbLine
 10
-14.633263
 20
58.723273
 30
0.0
 11
-14.438542
 21
58.926215
 31
0.0
  0
LINE
  5
32C
100
AcDbEntity
  8
0
 62
     0
100
AcDbLine
 10
-12.296608
 20
61.15857
 30
0.0
 11
-12.159346
 21
61.301627
 31
0.0
  0
LINE
  5
32D
100
AcDbEntity
  8
0
 62
     0
100
AcDbLine
 10
-17.301366
 20
59.137071
 30
0.0
 11
-17.106644
 21
59.340012
 31
0.0
  0
LINE
  5
32E
100
AcDbEntity
  8
0
 62
     0
100
AcDbLine
 10
-14.964711
 20
61.572367
 30
0.0
 11
-14.76999
 21
61.775309
 31
0.0
  0
LINE
  5
32F
100
AcDbEntity
  8
0
 62
     0
100
AcDbLine
 10
-12.628056
 20
64.007664
 30
0.0
 11
-12.433335
 21
64.210605
 31
0.0
  0
LINE
  5
330
100
AcDbEntity
  8
0
 62
     0
100
AcDbLine
 10
-17.632813
 20
61.986165
 30
0.0
 11
-17.438092
 21
62.189106
 31
0.0
  0
LINE
  5
331
100
AcDbEntity
  8
0
 62
     0
100
AcDbLine
 10
-15.296159
 20
64.421461
 30
0.0
 11
-15.101437
 21
64.624403
 31
0.0
  0
LINE
  5
332
100
AcDbEntity
  8
0
 62
     0
100
AcDbLine
 10
-12.959504
 20
66.856758
 30
0.0
 11
-12.764782
 21
67.059699
 31
0.0
  0
LINE
  5
333
100
AcDbEntity
  8
0
 62
     0
100
AcDbLine
 10
-17.964261
 20
64.835259
 30
0.0
 11
-17.76954
 21
65.0382
 31
0.0
  0
LINE
  5
334
100
AcDbEntity
  8
0
 62
     0
100
AcDbLine
 10
-15.627606
 20
67.270555
 30
0.0
 11
-15.432885
 21
67.473497
 31
0.0
  0
LINE
  5
335
100
AcDbEntity
  8
0
 62
     0
100
AcDbLine
 10
-13.290951
 20
69.705852
 30
0.0
 11
-13.09623
 21
69.908793
 31
0.0
  0
LINE
  5
336
100
AcDbEntity
  8
0
 62
     0
100
AcDbLine
 10
-18.159346
 20
67.826473
 30
0.0
 11
-18.100988
 21
67.887294
 31
0.0
  0
LINE
  5
337
100
AcDbEntity
  8
0
 62
     0
100
AcDbLine
 10
-15.959054
 20
70.11965
 30
0.0
 11
-15.764333
 21
70.322591
 31
0.0
  0
LINE
  5
338
100
AcDbEntity
  8
0
 62
     0
100
AcDbLine
 10
-12.422202
 20
41.594229
 30
0.0
 11
-12.449822
 21
41.831653
 31
0.0
  0
LINE
  5
339
100
AcDbEntity
  8
0
 62
     0
100
AcDbLine
 10
-13.747984
 20
52.990604
 30
0.0
 11
-13.775604
 21
53.228029
 31
0.0
  0
LINE
  5
33A
100
AcDbEntity
  8
0
 62
     0
100
AcDbLine
 10
-14.079429
 20
55.839698
 30
0.0
 11
-14.10705
 21
56.077123
 31
0.0
  0
LINE
  5
33B
100
AcDbEntity
  8
0
 62
     0
100
AcDbLine
 10
-14.410875
 20
58.688792
 30
0.0
 11
-14.438495
 21
58.926216
 31
0.0
  0
LINE
  5
33C
100
AcDbEntity
  8
0
 62
     0
100
AcDbLine
 10
-14.74232
 20
61.537886
 30
0.0
 11
-14.769941
 21
61.77531
 31
0.0
  0
LINE
  5
33D
100
AcDbEntity
  8
0
 62
     0
100
AcDbLine
 10
-15.073766
 20
64.38698
 30
0.0
 11
-15.101386
 21
64.624404
 31
0.0
  0
LINE
  5
33E
100
AcDbEntity
  8
0
 62
     0
100
AcDbLine
 10
-15.405211
 20
67.236074
 30
0.0
 11
-15.432832
 21
67.473498
 31
0.0
  0
LINE
  5
33F
100
AcDbEntity
  8
0
 62
     0
100
AcDbLine
 10
-15.736657
 20
70.085167
 30
0.0
 11
-15.764277
 21
70.322592
 31
0.0
  0
LINE
  5
340
100
AcDbEntity
  8
0
 62
     0
100
AcDbLine
 10
-12.405663
 20
63.97318
 30
0.0
 11
-12.433284
 21
64.210605
 31
0.0
  0
LINE
  5
341
100
AcDbEntity
  8
0
 62
     0
100
AcDbLine
 10
-12.737109
 20
66.822274
 30
0.0
 11
-12.764729
 21
67.059699
 31
0.0
  0
LINE
  5
342
100
AcDbEntity
  8
0
 62
     0
100
AcDbLine
 10
-13.068554
 20
69.671368
 30
0.0
 11
-13.096175
 21
69.908793
 31
0.0
  0
LINE
  5
343
100
AcDbEntity
  8
0
 62
     0
100
AcDbLine
 10
-13.107934
 20
24.967645
 30
0.0
 11
-13.129251
 21
25.150889
 31
0.0
  0
LINE
  5
344
100
AcDbEntity
  8
0
 62
     0
100
AcDbLine
 10
-13.433077
 20
27.762558
 30
0.0
 11
-13.460697
 21
27.999983
 31
0.0
  0
LINE
  5
345
100
AcDbEntity
  8
0
 62
     0
100
AcDbLine
 10
-13.764522
 20
30.611652
 30
0.0
 11
-13.792142
 21
30.849077
 31
0.0
  0
LINE
  5
346
100
AcDbEntity
  8
0
 62
     0
100
AcDbLine
 10
-14.095967
 20
33.460746
 30
0.0
 11
-14.123588
 21
33.698171
 31
0.0
  0
LINE
  5
347
100
AcDbEntity
  8
0
 62
     0
100
AcDbLine
 10
-14.427413
 20
36.30984
 30
0.0
 11
-14.455033
 21
36.547265
 31
0.0
  0
LINE
  5
348
100
AcDbEntity
  8
0
 62
     0
100
AcDbLine
 10
-14.758858
 20
39.158934
 30
0.0
 11
-14.786479
 21
39.396359
 31
0.0
  0
LINE
  5
349
100
AcDbEntity
  8
0
 62
     0
100
AcDbLine
 10
-16.416086
 20
53.404403
 30
0.0
 11
-16.443706
 21
53.641828
 31
0.0
  0
LINE
  5
34A
100
AcDbEntity
  8
0
 62
     0
100
AcDbLine
 10
-16.747531
 20
56.253497
 30
0.0
 11
-16.775152
 21
56.490922
 31
0.0
  0
LINE
  5
34B
100
AcDbEntity
  8
0
 62
     0
100
AcDbLine
 10
-17.078977
 20
59.102591
 30
0.0
 11
-17.106597
 21
59.340016
 31
0.0
  0
LINE
  5
34C
100
AcDbEntity
  8
0
 62
     0
100
AcDbLine
 10
-17.410422
 20
61.951685
 30
0.0
 11
-17.438043
 21
62.18911
 31
0.0
  0
LINE
  5
34D
100
AcDbEntity
  8
0
 62
     0
100
AcDbLine
 10
-17.741868
 20
64.800779
 30
0.0
 11
-17.769488
 21
65.038203
 31
0.0
  0
LINE
  5
34E
100
AcDbEntity
  8
0
 62
     0
100
AcDbLine
 10
-18.073313
 20
67.649873
 30
0.0
 11
-18.100934
 21
67.887297
 31
0.0
  0
LINE
  5
34F
100
AcDbEntity
  8
0
 62
     0
100
AcDbLine
 10
-15.793668
 20
25.53301
 30
0.0
 11
-15.797354
 21
25.564688
 31
0.0
  0
LINE
  5
350
100
AcDbEntity
  8
0
 62
     0
100
AcDbLine
 10
-16.101179
 20
28.176358
 30
0.0
 11
-16.128799
 21
28.413782
 31
0.0
  0
LINE
  5
351
100
AcDbEntity
  8
0
 62
     0
100
AcDbLine
 10
-16.432624
 20
31.025452
 30
0.0
 11
-16.460245
 21
31.262876
 31
0.0
  0
LINE
  5
352
100
AcDbEntity
  8
0
 62
     0
100
AcDbLine
 10
-16.76407
 20
33.874545
 30
0.0
 11
-16.79169
 21
34.11197
 31
0.0
  0
LINE
  5
353
100
AcDbEntity
  8
0
 62
     0
100
AcDbLine
 10
-17.095515
 20
36.723639
 30
0.0
 11
-17.123136
 21
36.961064
 31
0.0
  0
LINE
  5
354
100
AcDbEntity
  8
0
 62
     0
100
AcDbLine
 10
-17.426961
 20
39.572733
 30
0.0
 11
-17.454581
 21
39.810158
 31
0.0
  0
LINE
  5
355
100
AcDbEntity
  8
0
 62
     0
100
AcDbLine
 10
-17.758406
 20
42.421827
 30
0.0
 11
-17.786027
 21
42.659252
 31
0.0
  0
LINE
  5
356
100
AcDbEntity
  8
0
 62
     0
100
AcDbLine
 10
-18.089852
 20
45.270921
 30
0.0
 11
-18.117472
 21
45.508345
 31
0.0
  0
LINE
  5
357
100
AcDbEntity
  8
0
 62
     0
100
AcDbLine
 10
-18.159346
 20
45.281687
 30
0.0
 11
-18.089888
 21
45.270915
 31
0.0
  0
LINE
  5
358
100
AcDbEntity
  8
0
 62
     0
100
AcDbLine
 10
-16.63847
 20
53.438883
 30
0.0
 11
-16.416128
 21
53.4044
 31
0.0
  0
LINE
  5
359
100
AcDbEntity
  8
0
 62
     0
100
AcDbLine
 10
-13.970368
 20
53.025085
 30
0.0
 11
-13.748026
 21
52.990602
 31
0.0
  0
LINE
  5
35A
100
AcDbEntity
  8
0
 62
     0
100
AcDbLine
 10
-16.969918
 20
56.287977
 30
0.0
 11
-16.747576
 21
56.253494
 31
0.0
  0
LINE
  5
35B
100
AcDbEntity
  8
0
 62
     0
100
AcDbLine
 10
-14.301815
 20
55.874179
 30
0.0
 11
-14.079473
 21
55.839696
 31
0.0
  0
LINE
  5
35C
100
AcDbEntity
  8
0
 62
     0
100
AcDbLine
 10
-17.301366
 20
59.137071
 30
0.0
 11
-17.079024
 21
59.102588
 31
0.0
  0
LINE
  5
35D
100
AcDbEntity
  8
0
 62
     0
100
AcDbLine
 10
-14.633263
 20
58.723273
 30
0.0
 11
-14.410921
 21
58.68879
 31
0.0
  0
LINE
  5
35E
100
AcDbEntity
  8
0
 62
     0
100
AcDbLine
 10
-17.632813
 20
61.986165
 30
0.0
 11
-17.410472
 21
61.951682
 31
0.0
  0
LINE
  5
35F
100
AcDbEntity
  8
0
 62
     0
100
AcDbLine
 10
-14.964711
 20
61.572367
 30
0.0
 11
-14.742369
 21
61.537884
 31
0.0
  0
LINE
  5
360
100
AcDbEntity
  8
0
 62
     0
100
AcDbLine
 10
-12.296608
 20
61.15857
 30
0.0
 11
-12.159346
 21
61.137282
 31
0.0
  0
LINE
  5
361
100
AcDbEntity
  8
0
 62
     0
100
AcDbLine
 10
-17.964261
 20
64.835259
 30
0.0
 11
-17.741919
 21
64.800776
 31
0.0
  0
LINE
  5
362
100
AcDbEntity
  8
0
 62
     0
100
AcDbLine
 10
-15.296159
 20
64.421461
 30
0.0
 11
-15.073817
 21
64.386978
 31
0.0
  0
LINE
  5
363
100
AcDbEntity
  8
0
 62
     0
100
AcDbLine
 10
-12.628056
 20
64.007664
 30
0.0
 11
-12.405714
 21
63.973181
 31
0.0
  0
LINE
  5
364
100
AcDbEntity
  8
0
 62
     0
100
AcDbLine
 10
-18.159346
 20
67.663204
 30
0.0
 11
-18.073367
 21
67.64987
 31
0.0
  0
LINE
  5
365
100
AcDbEntity
  8
0
 62
     0
100
AcDbLine
 10
-15.627606
 20
67.270555
 30
0.0
 11
-15.405264
 21
67.236072
 31
0.0
  0
LINE
  5
366
100
AcDbEntity
  8
0
 62
     0
100
AcDbLine
 10
-12.959504
 20
66.856758
 30
0.0
 11
-12.737162
 21
66.822275
 31
0.0
  0
LINE
  5
367
100
AcDbEntity
  8
0
 62
     0
100
AcDbLine
 10
-15.959054
 20
70.11965
 30
0.0
 11
-15.736712
 21
70.085166
 31
0.0
  0
LINE
  5
368
100
AcDbEntity
  8
0
 62
     0
100
AcDbLine
 10
-13.290951
 20
69.705852
 30
0.0
 11
-13.06861
 21
69.671369
 31
0.0
  0
LINE
  5
369
100
AcDbEntity
  8
0
 62
     0
100
AcDbLine
 10
-17.980782
 20
42.456304
 30
0.0
 11
-17.75844
 21
42.421821
 31
0.0
  0
LINE
  5
36A
100
AcDbEntity
  8
0
 62
     0
100
AcDbLine
 10
-12.644576
 20
41.628709
 30
0.0
 11
-12.422235
 21
41.594226
 31
0.0
  0
LINE
  5
36B
100
AcDbEntity
  8
0
 62
     0
100
AcDbLine
 10
-17.649334
 20
39.60721
 30
0.0
 11
-17.426992
 21
39.572727
 31
0.0
  0
LINE
  5
36C
100
AcDbEntity
  8
0
 62
     0
100
AcDbLine
 10
-14.981231
 20
39.193413
 30
0.0
 11
-14.758889
 21
39.158929
 31
0.0
  0
LINE
  5
36D
100
AcDbEntity
  8
0
 62
     0
100
AcDbLine
 10
-12.313129
 20
38.779615
 30
0.0
 11
-12.159346
 21
38.755765
 31
0.0
  0
LINE
  5
36E
100
AcDbEntity
  8
0
 62
     0
100
AcDbLine
 10
-17.317886
 20
36.758116
 30
0.0
 11
-17.095544
 21
36.723633
 31
0.0
  0
LINE
  5
36F
100
AcDbEntity
  8
0
 62
     0
100
AcDbLine
 10
-14.649784
 20
36.344319
 30
0.0
 11
-14.427442
 21
36.309835
 31
0.0
  0
LINE
  5
370
100
AcDbEntity
  8
0
 62
     0
100
AcDbLine
 10
-16.986438
 20
33.909022
 30
0.0
 11
-16.764097
 21
33.874539
 31
0.0
  0
LINE
  5
371
100
AcDbEntity
  8
0
 62
     0
100
AcDbLine
 10
-14.318336
 20
33.495225
 30
0.0
 11
-14.095994
 21
33.460741
 31
0.0
  0
LINE
  5
372
100
AcDbEntity
  8
0
 62
     0
100
AcDbLine
 10
-16.654991
 20
31.059928
 30
0.0
 11
-16.432649
 21
31.025445
 31
0.0
  0
LINE
  5
373
100
AcDbEntity
  8
0
 62
     0
100
AcDbLine
 10
-13.986888
 20
30.646131
 30
0.0
 11
-13.764546
 21
30.611647
 31
0.0
  0
LINE
  5
374
100
AcDbEntity
  8
0
 62
     0
100
AcDbLine
 10
-16.323543
 20
28.210834
 30
0.0
 11
-16.101201
 21
28.176351
 31
0.0
  0
LINE
  5
375
100
AcDbEntity
  8
0
 62
     0
100
AcDbLine
 10
-13.65544
 20
27.797036
 30
0.0
 11
-13.433098
 21
27.762553
 31
0.0
  0
LINE
  5
376
100
AcDbEntity
  8
0
 62
     0
100
AcDbLine
 10
-17.486492
 20
45.685977
 30
0.0
 11
-17.311446
 21
45.753171
 31
0.0
  0
LINE
  5
377
100
AcDbEntity
  8
0
 62
     0
100
AcDbLine
 10
-18.094781
 20
43.873102
 30
0.0
 11
-17.919734
 21
43.940296
 31
0.0
  0
LINE
  5
378
100
AcDbEntity
  8
0
 62
     0
100
AcDbLine
 10
-17.210801
 20
41.053679
 30
0.0
 11
-17.035755
 21
41.120873
 31
0.0
  0
LINE
  5
379
100
AcDbEntity
  8
0
 62
     0
100
AcDbLine
 10
-15.110245
 20
41.860007
 30
0.0
 11
-14.935199
 21
41.927201
 31
0.0
  0
LINE
  5
37A
100
AcDbEntity
  8
0
 62
     0
100
AcDbLine
 10
-17.81909
 20
39.240804
 30
0.0
 11
-17.644043
 21
39.307998
 31
0.0
  0
LINE
  5
37B
100
AcDbEntity
  8
0
 62
     0
100
AcDbLine
 10
-15.718534
 20
40.047132
 30
0.0
 11
-15.543487
 21
40.114326
 31
0.0
  0
LINE
  5
37C
100
AcDbEntity
  8
0
 62
     0
100
AcDbLine
 10
-13.617978
 20
40.85346
 30
0.0
 11
-13.442932
 21
40.920654
 31
0.0
  0
LINE
  5
37D
100
AcDbEntity
  8
0
 62
     0
100
AcDbLine
 10
-16.326822
 20
38.234257
 30
0.0
 11
-16.151776
 21
38.301451
 31
0.0
  0
LINE
  5
37E
100
AcDbEntity
  8
0
 62
     0
100
AcDbLine
 10
-14.226266
 20
39.040585
 30
0.0
 11
-14.05122
 21
39.107779
 31
0.0
  0
LINE
  5
37F
100
AcDbEntity
  8
0
 62
     0
100
AcDbLine
 10
-16.93511
 20
36.421382
 30
0.0
 11
-16.760064
 21
36.488576
 31
0.0
  0
LINE
  5
380
100
AcDbEntity
  8
0
 62
     0
100
AcDbLine
 10
-14.834555
 20
37.22771
 30
0.0
 11
-14.659508
 21
37.294904
 31
0.0
  0
LINE
  5
381
100
AcDbEntity
  8
0
 62
     0
100
AcDbLine
 10
-12.733999
 20
38.034038
 30
0.0
 11
-12.558952
 21
38.101232
 31
0.0
  0
LINE
  5
382
100
AcDbEntity
  8
0
 62
     0
100
AcDbLine
 10
-17.543399
 20
34.608507
 30
0.0
 11
-17.368352
 21
34.675701
 31
0.0
  0
LINE
  5
383
100
AcDbEntity
  8
0
 62
     0
100
AcDbLine
 10
-15.442843
 20
35.414835
 30
0.0
 11
-15.267797
 21
35.482029
 31
0.0
  0
LINE
  5
384
100
AcDbEntity
  8
0
 62
     0
100
AcDbLine
 10
-13.342287
 20
36.221163
 30
0.0
 11
-13.167241
 21
36.288357
 31
0.0
  0
LINE
  5
385
100
AcDbEntity
  8
0
 62
     0
100
AcDbLine
 10
-18.151687
 20
32.795632
 30
0.0
 11
-17.976641
 21
32.862826
 31
0.0
  0
LINE
  5
386
100
AcDbEntity
  8
0
 62
     0
100
AcDbLine
 10
-16.051131
 20
33.60196
 30
0.0
 11
-15.876085
 21
33.669154
 31
0.0
  0
LINE
  5
387
100
AcDbEntity
  8
0
 62
     0
100
AcDbLine
 10
-13.950575
 20
34.408287
 30
0.0
 11
-13.775529
 21
34.475481
 31
0.0
  0
LINE
  5
388
100
AcDbEntity
  8
0
 62
     0
100
AcDbLine
 10
-16.659419
 20
31.789084
 30
0.0
 11
-16.484373
 21
31.856278
 31
0.0
  0
LINE
  5
389
100
AcDbEntity
  8
0
 62
     0
100
AcDbLine
 10
-14.558864
 20
32.595412
 30
0.0
 11
-14.383817
 21
32.662606
 31
0.0
  0
LINE
  5
38A
100
AcDbEntity
  8
0
 62
     0
100
AcDbLine
 10
-12.458308
 20
33.40174
 30
0.0
 11
-12.283261
 21
33.468934
 31
0.0
  0
LINE
  5
38B
100
AcDbEntity
  8
0
 62
     0
100
AcDbLine
 10
-17.267708
 20
29.976209
 30
0.0
 11
-17.092661
 21
30.043403
 31
0.0
  0
LINE
  5
38C
100
AcDbEntity
  8
0
 62
     0
100
AcDbLine
 10
-15.167152
 20
30.782537
 30
0.0
 11
-14.992106
 21
30.849731
 31
0.0
  0
LINE
  5
38D
100
AcDbEntity
  8
0
 62
     0
100
AcDbLine
 10
-13.066596
 20
31.588865
 30
0.0
 11
-12.89155
 21
31.656059
 31
0.0
  0
LINE
  5
38E
100
AcDbEntity
  8
0
 62
     0
100
AcDbLine
 10
-17.875996
 20
28.163334
 30
0.0
 11
-17.70095
 21
28.230528
 31
0.0
  0
LINE
  5
38F
100
AcDbEntity
  8
0
 62
     0
100
AcDbLine
 10
-15.77544
 20
28.969662
 30
0.0
 11
-15.600394
 21
29.036856
 31
0.0
  0
LINE
  5
390
100
AcDbEntity
  8
0
 62
     0
100
AcDbLine
 10
-13.674884
 20
29.77599
 30
0.0
 11
-13.499838
 21
29.843184
 31
0.0
  0
LINE
  5
391
100
AcDbEntity
  8
0
 62
     0
100
AcDbLine
 10
-16.383729
 20
27.156787
 30
0.0
 11
-16.208682
 21
27.223981
 31
0.0
  0
LINE
  5
392
100
AcDbEntity
  8
0
 62
     0
100
AcDbLine
 10
-14.283173
 20
27.963115
 30
0.0
 11
-14.108126
 21
28.030309
 31
0.0
  0
LINE
  5
393
100
AcDbEntity
  8
0
 62
     0
100
AcDbLine
 10
-12.182617
 20
28.769443
 30
0.0
 11
-12.159346
 21
28.778376
 31
0.0
  0
LINE
  5
394
100
AcDbEntity
  8
0
 62
     0
100
AcDbLine
 10
-16.992017
 20
25.343912
 30
0.0
 11
-16.824383
 21
25.40826
 31
0.0
  0
LINE
  5
395
100
AcDbEntity
  8
0
 62
     0
100
AcDbLine
 10
-14.891461
 20
26.15024
 30
0.0
 11
-14.716415
 21
26.217434
 31
0.0
  0
LINE
  5
396
100
AcDbEntity
  8
0
 62
     0
100
AcDbLine
 10
-12.790905
 20
26.956568
 30
0.0
 11
-12.615859
 21
27.023762
 31
0.0
  0
LINE
  5
397
100
AcDbEntity
  8
0
 62
     0
100
AcDbLine
 10
-13.399193
 20
25.143693
 30
0.0
 11
-13.224147
 21
25.210887
 31
0.0
  0
LINE
  5
398
100
AcDbEntity
  8
0
 62
     0
100
AcDbLine
 10
-17.762183
 20
50.318274
 30
0.0
 11
-17.587137
 21
50.385468
 31
0.0
  0
LINE
  5
399
100
AcDbEntity
  8
0
 62
     0
100
AcDbLine
 10
-13.465426
 20
51.967645
 30
0.0
 11
-13.386025
 21
51.998124
 31
0.0
  0
LINE
  5
39A
100
AcDbEntity
  8
0
 62
     0
100
AcDbLine
 10
-17.153895
 20
52.131149
 30
0.0
 11
-16.978849
 21
52.198343
 31
0.0
  0
LINE
  5
39B
100
AcDbEntity
  8
0
 62
     0
100
AcDbLine
 10
-15.053339
 20
52.937477
 30
0.0
 11
-14.878293
 21
53.004671
 31
0.0
  0
LINE
  5
39C
100
AcDbEntity
  8
0
 62
     0
100
AcDbLine
 10
-12.952783
 20
53.743805
 30
0.0
 11
-12.777737
 21
53.810999
 31
0.0
  0
LINE
  5
39D
100
AcDbEntity
  8
0
 62
     0
100
AcDbLine
 10
-16.545607
 20
53.944024
 30
0.0
 11
-16.37056
 21
54.011218
 31
0.0
  0
LINE
  5
39E
100
AcDbEntity
  8
0
 62
     0
100
AcDbLine
 10
-14.445051
 20
54.750352
 30
0.0
 11
-14.270004
 21
54.817546
 31
0.0
  0
LINE
  5
39F
100
AcDbEntity
  8
0
 62
     0
100
AcDbLine
 10
-12.344495
 20
55.55668
 30
0.0
 11
-12.169448
 21
55.623874
 31
0.0
  0
LINE
  5
3A0
100
AcDbEntity
  8
0
 62
     0
100
AcDbLine
 10
-18.037874
 20
54.950572
 30
0.0
 11
-17.862828
 21
55.017766
 31
0.0
  0
LINE
  5
3A1
100
AcDbEntity
  8
0
 62
     0
100
AcDbLine
 10
-15.937318
 20
55.7569
 30
0.0
 11
-15.762272
 21
55.824094
 31
0.0
  0
LINE
  5
3A2
100
AcDbEntity
  8
0
 62
     0
100
AcDbLine
 10
-13.836762
 20
56.563227
 30
0.0
 11
-13.661716
 21
56.630421
 31
0.0
  0
LINE
  5
3A3
100
AcDbEntity
  8
0
 62
     0
100
AcDbLine
 10
-17.429586
 20
56.763447
 30
0.0
 11
-17.25454
 21
56.830641
 31
0.0
  0
LINE
  5
3A4
100
AcDbEntity
  8
0
 62
     0
100
AcDbLine
 10
-15.32903
 20
57.569775
 30
0.0
 11
-15.153984
 21
57.636969
 31
0.0
  0
LINE
  5
3A5
100
AcDbEntity
  8
0
 62
     0
100
AcDbLine
 10
-13.228474
 20
58.376103
 30
0.0
 11
-13.053428
 21
58.443297
 31
0.0
  0
LINE
  5
3A6
100
AcDbEntity
  8
0
 62
     0
100
AcDbLine
 10
-16.821298
 20
58.576322
 30
0.0
 11
-16.646251
 21
58.643516
 31
0.0
  0
LINE
  5
3A7
100
AcDbEntity
  8
0
 62
     0
100
AcDbLine
 10
-14.720742
 20
59.38265
 30
0.0
 11
-14.545695
 21
59.449844
 31
0.0
  0
LINE
  5
3A8
100
AcDbEntity
  8
0
 62
     0
100
AcDbLine
 10
-12.620186
 20
60.188978
 30
0.0
 11
-12.445139
 21
60.256172
 31
0.0
  0
LINE
  5
3A9
100
AcDbEntity
  8
0
 62
     0
100
AcDbLine
 10
-18.159346
 20
59.642068
 30
0.0
 11
-18.138519
 21
59.650063
 31
0.0
  0
LINE
  5
3AA
100
AcDbEntity
  8
0
 62
     0
100
AcDbLine
 10
-16.213009
 20
60.389197
 30
0.0
 11
-16.037963
 21
60.456391
 31
0.0
  0
LINE
  5
3AB
100
AcDbEntity
  8
0
 62
     0
100
AcDbLine
 10
-14.112453
 20
61.195525
 30
0.0
 11
-13.937407
 21
61.262719
 31
0.0
  0
LINE
  5
3AC
100
AcDbEntity
  8
0
 62
     0
100
AcDbLine
 10
-17.705277
 20
61.395744
 30
0.0
 11
-17.530231
 21
61.462938
 31
0.0
  0
LINE
  5
3AD
100
AcDbEntity
  8
0
 62
     0
100
AcDbLine
 10
-15.604721
 20
62.202072
 30
0.0
 11
-15.429675
 21
62.269266
 31
0.0
  0
LINE
  5
3AE
100
AcDbEntity
  8
0
 62
     0
100
AcDbLine
 10
-13.504165
 20
63.0084
 30
0.0
 11
-13.329119
 21
63.075594
 31
0.0
  0
LINE
  5
3AF
100
AcDbEntity
  8
0
 62
     0
100
AcDbLine
 10
-17.096989
 20
63.208619
 30
0.0
 11
-16.921942
 21
63.275813
 31
0.0
  0
LINE
  5
3B0
100
AcDbEntity
  8
0
 62
     0
100
AcDbLine
 10
-14.996433
 20
64.014947
 30
0.0
 11
-14.821386
 21
64.082141
 31
0.0
  0
LINE
  5
3B1
100
AcDbEntity
  8
0
 62
     0
100
AcDbLine
 10
-12.895877
 20
64.821275
 30
0.0
 11
-12.72083
 21
64.888469
 31
0.0
  0
LINE
  5
3B2
100
AcDbEntity
  8
0
 62
     0
100
AcDbLine
 10
-16.4887
 20
65.021494
 30
0.0
 11
-16.313654
 21
65.088688
 31
0.0
  0
LINE
  5
3B3
100
AcDbEntity
  8
0
 62
     0
100
AcDbLine
 10
-14.388144
 20
65.827822
 30
0.0
 11
-14.213098
 21
65.895016
 31
0.0
  0
LINE
  5
3B4
100
AcDbEntity
  8
0
 62
     0
100
AcDbLine
 10
-12.287588
 20
66.63415
 30
0.0
 11
-12.159346
 21
66.683378
 31
0.0
  0
LINE
  5
3B5
100
AcDbEntity
  8
0
 62
     0
100
AcDbLine
 10
-17.980968
 20
66.028042
 30
0.0
 11
-17.805922
 21
66.095236
 31
0.0
  0
LINE
  5
3B6
100
AcDbEntity
  8
0
 62
     0
100
AcDbLine
 10
-15.880412
 20
66.83437
 30
0.0
 11
-15.705366
 21
66.901564
 31
0.0
  0
LINE
  5
3B7
100
AcDbEntity
  8
0
 62
     0
100
AcDbLine
 10
-13.779856
 20
67.640697
 30
0.0
 11
-13.60481
 21
67.707891
 31
0.0
  0
LINE
  5
3B8
100
AcDbEntity
  8
0
 62
     0
100
AcDbLine
 10
-17.37268
 20
67.840917
 30
0.0
 11
-17.197633
 21
67.908111
 31
0.0
  0
LINE
  5
3B9
100
AcDbEntity
  8
0
 62
     0
100
AcDbLine
 10
-15.272124
 20
68.647245
 30
0.0
 11
-15.097077
 21
68.714439
 31
0.0
  0
LINE
  5
3BA
100
AcDbEntity
  8
0
 62
     0
100
AcDbLine
 10
-13.171568
 20
69.453573
 30
0.0
 11
-12.996521
 21
69.520767
 31
0.0
  0
LINE
  5
3BB
100
AcDbEntity
  8
0
 62
     0
100
AcDbLine
 10
-16.764391
 20
69.653792
 30
0.0
 11
-16.589345
 21
69.720986
 31
0.0
  0
LINE
  5
3BC
100
AcDbEntity
  8
0
 62
     0
100
AcDbLine
 10
-17.762183
 20
50.318274
 30
0.0
 11
-17.637828
 21
50.234395
 31
0.0
  0
LINE
  5
3BD
100
AcDbEntity
  8
0
 62
     0
100
AcDbLine
 10
-17.153895
 20
52.131149
 30
0.0
 11
-17.029539
 21
52.04727
 31
0.0
  0
LINE
  5
3BE
100
AcDbEntity
  8
0
 62
     0
100
AcDbLine
 10
-18.037874
 20
54.950572
 30
0.0
 11
-17.913519
 21
54.866693
 31
0.0
  0
LINE
  5
3BF
100
AcDbEntity
  8
0
 62
     0
100
AcDbLine
 10
-16.545607
 20
53.944024
 30
0.0
 11
-16.421251
 21
53.860146
 31
0.0
  0
LINE
  5
3C0
100
AcDbEntity
  8
0
 62
     0
100
AcDbLine
 10
-15.053339
 20
52.937477
 30
0.0
 11
-14.928983
 21
52.853598
 31
0.0
  0
LINE
  5
3C1
100
AcDbEntity
  8
0
 62
     0
100
AcDbLine
 10
-17.429586
 20
56.763447
 30
0.0
 11
-17.30523
 21
56.679568
 31
0.0
  0
LINE
  5
3C2
100
AcDbEntity
  8
0
 62
     0
100
AcDbLine
 10
-15.937318
 20
55.7569
 30
0.0
 11
-15.812963
 21
55.673021
 31
0.0
  0
LINE
  5
3C3
100
AcDbEntity
  8
0
 62
     0
100
AcDbLine
 10
-14.445051
 20
54.750352
 30
0.0
 11
-14.320695
 21
54.666473
 31
0.0
  0
LINE
  5
3C4
100
AcDbEntity
  8
0
 62
     0
100
AcDbLine
 10
-12.952783
 20
53.743805
 30
0.0
 11
-12.828427
 21
53.659926
 31
0.0
  0
LINE
  5
3C5
100
AcDbEntity
  8
0
 62
     0
100
AcDbLine
 10
-16.821298
 20
58.576322
 30
0.0
 11
-16.696942
 21
58.492443
 31
0.0
  0
LINE
  5
3C6
100
AcDbEntity
  8
0
 62
     0
100
AcDbLine
 10
-15.32903
 20
57.569775
 30
0.0
 11
-15.204674
 21
57.485896
 31
0.0
  0
LINE
  5
3C7
100
AcDbEntity
  8
0
 62
     0
100
AcDbLine
 10
-13.836762
 20
56.563227
 30
0.0
 11
-13.712407
 21
56.479349
 31
0.0
  0
LINE
  5
3C8
100
AcDbEntity
  8
0
 62
     0
100
AcDbLine
 10
-12.344495
 20
55.55668
 30
0.0
 11
-12.220139
 21
55.472801
 31
0.0
  0
LINE
  5
3C9
100
AcDbEntity
  8
0
 62
     0
100
AcDbLine
 10
-17.705277
 20
61.395744
 30
0.0
 11
-17.580921
 21
61.311865
 31
0.0
  0
LINE
  5
3CA
100
AcDbEntity
  8
0
 62
     0
100
AcDbLine
 10
-16.213009
 20
60.389197
 30
0.0
 11
-16.088654
 21
60.305318
 31
0.0
  0
LINE
  5
3CB
100
AcDbEntity
  8
0
 62
     0
100
AcDbLine
 10
-14.720742
 20
59.38265
 30
0.0
 11
-14.596386
 21
59.298771
 31
0.0
  0
LINE
  5
3CC
100
AcDbEntity
  8
0
 62
     0
100
AcDbLine
 10
-13.228474
 20
58.376103
 30
0.0
 11
-13.104118
 21
58.292224
 31
0.0
  0
LINE
  5
3CD
100
AcDbEntity
  8
0
 62
     0
100
AcDbLine
 10
-17.096989
 20
63.208619
 30
0.0
 11
-16.972633
 21
63.12474
 31
0.0
  0
LINE
  5
3CE
100
AcDbEntity
  8
0
 62
     0
100
AcDbLine
 10
-15.604721
 20
62.202072
 30
0.0
 11
-15.480365
 21
62.118193
 31
0.0
  0
LINE
  5
3CF
100
AcDbEntity
  8
0
 62
     0
100
AcDbLine
 10
-14.112453
 20
61.195525
 30
0.0
 11
-13.988098
 21
61.111646
 31
0.0
  0
LINE
  5
3D0
100
AcDbEntity
  8
0
 62
     0
100
AcDbLine
 10
-12.620186
 20
60.188978
 30
0.0
 11
-12.49583
 21
60.105099
 31
0.0
  0
LINE
  5
3D1
100
AcDbEntity
  8
0
 62
     0
100
AcDbLine
 10
-17.980968
 20
66.028042
 30
0.0
 11
-17.856612
 21
65.944163
 31
0.0
  0
LINE
  5
3D2
100
AcDbEntity
  8
0
 62
     0
100
AcDbLine
 10
-16.4887
 20
65.021494
 30
0.0
 11
-16.364345
 21
64.937616
 31
0.0
  0
LINE
  5
3D3
100
AcDbEntity
  8
0
 62
     0
100
AcDbLine
 10
-14.996433
 20
64.014947
 30
0.0
 11
-14.872077
 21
63.931068
 31
0.0
  0
LINE
  5
3D4
100
AcDbEntity
  8
0
 62
     0
100
AcDbLine
 10
-13.504165
 20
63.0084
 30
0.0
 11
-13.379809
 21
62.924521
 31
0.0
  0
LINE
  5
3D5
100
AcDbEntity
  8
0
 62
     0
100
AcDbLine
 10
-17.37268
 20
67.840917
 30
0.0
 11
-17.248324
 21
67.757038
 31
0.0
  0
LINE
  5
3D6
100
AcDbEntity
  8
0
 62
     0
100
AcDbLine
 10
-15.880412
 20
66.83437
 30
0.0
 11
-15.756056
 21
66.750491
 31
0.0
  0
LINE
  5
3D7
100
AcDbEntity
  8
0
 62
     0
100
AcDbLine
 10
-14.388144
 20
65.827822
 30
0.0
 11
-14.263789
 21
65.743943
 31
0.0
  0
LINE
  5
3D8
100
AcDbEntity
  8
0
 62
     0
100
AcDbLine
 10
-12.895877
 20
64.821275
 30
0.0
 11
-12.771521
 21
64.737396
 31
0.0
  0
LINE
  5
3D9
100
AcDbEntity
  8
0
 62
     0
100
AcDbLine
 10
-16.764391
 20
69.653792
 30
0.0
 11
-16.640036
 21
69.569913
 31
0.0
  0
LINE
  5
3DA
100
AcDbEntity
  8
0
 62
     0
100
AcDbLine
 10
-15.272124
 20
68.647245
 30
0.0
 11
-15.147768
 21
68.563366
 31
0.0
  0
LINE
  5
3DB
100
AcDbEntity
  8
0
 62
     0
100
AcDbLine
 10
-13.779856
 20
67.640697
 30
0.0
 11
-13.6555
 21
67.556819
 31
0.0
  0
LINE
  5
3DC
100
AcDbEntity
  8
0
 62
     0
100
AcDbLine
 10
-12.287588
 20
66.63415
 30
0.0
 11
-12.163233
 21
66.550271
 31
0.0
  0
LINE
  5
3DD
100
AcDbEntity
  8
0
 62
     0
100
AcDbLine
 10
-13.171568
 20
69.453573
 30
0.0
 11
-13.047212
 21
69.369694
 31
0.0
  0
LINE
  5
3DE
100
AcDbEntity
  8
0
 62
     0
100
AcDbLine
 10
-17.486492
 20
45.685977
 30
0.0
 11
-17.362137
 21
45.602098
 31
0.0
  0
LINE
  5
3DF
100
AcDbEntity
  8
0
 62
     0
100
AcDbLine
 10
-18.094781
 20
43.873102
 30
0.0
 11
-17.970425
 21
43.789223
 31
0.0
  0
LINE
  5
3E0
100
AcDbEntity
  8
0
 62
     0
100
AcDbLine
 10
-15.110245
 20
41.860007
 30
0.0
 11
-14.98589
 21
41.776128
 31
0.0
  0
LINE
  5
3E1
100
AcDbEntity
  8
0
 62
     0
100
AcDbLine
 10
-13.617978
 20
40.85346
 30
0.0
 11
-13.493622
 21
40.769581
 31
0.0
  0
LINE
  5
3E2
100
AcDbEntity
  8
0
 62
     0
100
AcDbLine
 10
-17.210801
 20
41.053679
 30
0.0
 11
-17.086446
 21
40.9698
 31
0.0
  0
LINE
  5
3E3
100
AcDbEntity
  8
0
 62
     0
100
AcDbLine
 10
-15.718534
 20
40.047132
 30
0.0
 11
-15.594178
 21
39.963253
 31
0.0
  0
LINE
  5
3E4
100
AcDbEntity
  8
0
 62
     0
100
AcDbLine
 10
-14.226266
 20
39.040585
 30
0.0
 11
-14.101911
 21
38.956706
 31
0.0
  0
LINE
  5
3E5
100
AcDbEntity
  8
0
 62
     0
100
AcDbLine
 10
-12.733999
 20
38.034038
 30
0.0
 11
-12.609643
 21
37.950159
 31
0.0
  0
LINE
  5
3E6
100
AcDbEntity
  8
0
 62
     0
100
AcDbLine
 10
-17.81909
 20
39.240804
 30
0.0
 11
-17.694734
 21
39.156925
 31
0.0
  0
LINE
  5
3E7
100
AcDbEntity
  8
0
 62
     0
100
AcDbLine
 10
-16.326822
 20
38.234257
 30
0.0
 11
-16.202466
 21
38.150378
 31
0.0
  0
LINE
  5
3E8
100
AcDbEntity
  8
0
 62
     0
100
AcDbLine
 10
-14.834555
 20
37.22771
 30
0.0
 11
-14.710199
 21
37.143831
 31
0.0
  0
LINE
  5
3E9
100
AcDbEntity
  8
0
 62
     0
100
AcDbLine
 10
-13.342287
 20
36.221163
 30
0.0
 11
-13.217931
 21
36.137284
 31
0.0
  0
LINE
  5
3EA
100
AcDbEntity
  8
0
 62
     0
100
AcDbLine
 10
-16.93511
 20
36.421382
 30
0.0
 11
-16.810755
 21
36.337503
 31
0.0
  0
LINE
  5
3EB
100
AcDbEntity
  8
0
 62
     0
100
AcDbLine
 10
-15.442843
 20
35.414835
 30
0.0
 11
-15.318487
 21
35.330956
 31
0.0
  0
LINE
  5
3EC
100
AcDbEntity
  8
0
 62
     0
100
AcDbLine
 10
-13.950575
 20
34.408287
 30
0.0
 11
-13.82622
 21
34.324408
 31
0.0
  0
LINE
  5
3ED
100
AcDbEntity
  8
0
 62
     0
100
AcDbLine
 10
-12.458308
 20
33.40174
 30
0.0
 11
-12.333952
 21
33.317861
 31
0.0
  0
LINE
  5
3EE
100
AcDbEntity
  8
0
 62
     0
100
AcDbLine
 10
-17.543399
 20
34.608507
 30
0.0
 11
-17.419043
 21
34.524628
 31
0.0
  0
LINE
  5
3EF
100
AcDbEntity
  8
0
 62
     0
100
AcDbLine
 10
-16.051131
 20
33.60196
 30
0.0
 11
-15.926776
 21
33.518081
 31
0.0
  0
LINE
  5
3F0
100
AcDbEntity
  8
0
 62
     0
100
AcDbLine
 10
-14.558864
 20
32.595412
 30
0.0
 11
-14.434508
 21
32.511533
 31
0.0
  0
LINE
  5
3F1
100
AcDbEntity
  8
0
 62
     0
100
AcDbLine
 10
-13.066596
 20
31.588865
 30
0.0
 11
-12.94224
 21
31.504986
 31
0.0
  0
LINE
  5
3F2
100
AcDbEntity
  8
0
 62
     0
100
AcDbLine
 10
-18.151687
 20
32.795632
 30
0.0
 11
-18.027331
 21
32.711753
 31
0.0
  0
LINE
  5
3F3
100
AcDbEntity
  8
0
 62
     0
100
AcDbLine
 10
-16.659419
 20
31.789084
 30
0.0
 11
-16.535064
 21
31.705205
 31
0.0
  0
LINE
  5
3F4
100
AcDbEntity
  8
0
 62
     0
100
AcDbLine
 10
-15.167152
 20
30.782537
 30
0.0
 11
-15.042796
 21
30.698658
 31
0.0
  0
LINE
  5
3F5
100
AcDbEntity
  8
0
 62
     0
100
AcDbLine
 10
-13.674884
 20
29.77599
 30
0.0
 11
-13.550529
 21
29.692111
 31
0.0
  0
LINE
  5
3F6
100
AcDbEntity
  8
0
 62
     0
100
AcDbLine
 10
-12.182617
 20
28.769443
 30
0.0
 11
-12.159346
 21
28.753746
 31
0.0
  0
LINE
  5
3F7
100
AcDbEntity
  8
0
 62
     0
100
AcDbLine
 10
-17.267708
 20
29.976209
 30
0.0
 11
-17.143352
 21
29.89233
 31
0.0
  0
LINE
  5
3F8
100
AcDbEntity
  8
0
 62
     0
100
AcDbLine
 10
-15.77544
 20
28.969662
 30
0.0
 11
-15.651085
 21
28.885783
 31
0.0
  0
LINE
  5
3F9
100
AcDbEntity
  8
0
 62
     0
100
AcDbLine
 10
-14.283173
 20
27.963115
 30
0.0
 11
-14.158817
 21
27.879236
 31
0.0
  0
LINE
  5
3FA
100
AcDbEntity
  8
0
 62
     0
100
AcDbLine
 10
-12.790905
 20
26.956568
 30
0.0
 11
-12.666549
 21
26.872689
 31
0.0
  0
LINE
  5
3FB
100
AcDbEntity
  8
0
 62
     0
100
AcDbLine
 10
-17.875996
 20
28.163334
 30
0.0
 11
-17.751641
 21
28.079455
 31
0.0
  0
LINE
  5
3FC
100
AcDbEntity
  8
0
 62
     0
100
AcDbLine
 10
-16.383729
 20
27.156787
 30
0.0
 11
-16.259373
 21
27.072908
 31
0.0
  0
LINE
  5
3FD
100
AcDbEntity
  8
0
 62
     0
100
AcDbLine
 10
-14.891461
 20
26.15024
 30
0.0
 11
-14.767105
 21
26.066361
 31
0.0
  0
LINE
  5
3FE
100
AcDbEntity
  8
0
 62
     0
100
AcDbLine
 10
-13.399193
 20
25.143693
 30
0.0
 11
-13.274838
 21
25.059814
 31
0.0
  0
LINE
  5
3FF
100
AcDbEntity
  8
0
 62
     0
100
AcDbLine
 10
-16.992017
 20
25.343912
 30
0.0
 11
-16.867661
 21
25.260033
 31
0.0
  0
LINE
  5
400
100
AcDbEntity
  8
0
 62
     0
100
AcDbLine
 10
-17.694704
 20
39.156939
 30
0.0
 11
-17.644013
 21
39.308012
 31
0.0
  0
LINE
  5
401
100
AcDbEntity
  8
0
 62
     0
100
AcDbLine
 10
-17.086414
 20
40.969814
 30
0.0
 11
-17.035723
 21
41.120887
 31
0.0
  0
LINE
  5
402
100
AcDbEntity
  8
0
 62
     0
100
AcDbLine
 10
-13.396215
 20
51.967645
 30
0.0
 11
-13.385985
 21
51.998135
 31
0.0
  0
LINE
  5
403
100
AcDbEntity
  8
0
 62
     0
100
AcDbLine
 10
-12.828386
 20
53.659936
 30
0.0
 11
-12.777695
 21
53.811009
 31
0.0
  0
LINE
  5
404
100
AcDbEntity
  8
0
 62
     0
100
AcDbLine
 10
-12.220096
 20
55.472811
 30
0.0
 11
-12.169405
 21
55.623884
 31
0.0
  0
LINE
  5
405
100
AcDbEntity
  8
0
 62
     0
100
AcDbLine
 10
-18.027306
 20
32.711767
 30
0.0
 11
-17.976615
 21
32.86284
 31
0.0
  0
LINE
  5
406
100
AcDbEntity
  8
0
 62
     0
100
AcDbLine
 10
-17.419016
 20
34.524642
 30
0.0
 11
-17.368325
 21
34.675714
 31
0.0
  0
LINE
  5
407
100
AcDbEntity
  8
0
 62
     0
100
AcDbLine
 10
-16.810726
 20
36.337516
 30
0.0
 11
-16.760036
 21
36.488589
 31
0.0
  0
LINE
  5
408
100
AcDbEntity
  8
0
 62
     0
100
AcDbLine
 10
-16.202437
 20
38.150391
 30
0.0
 11
-16.151746
 21
38.301464
 31
0.0
  0
LINE
  5
409
100
AcDbEntity
  8
0
 62
     0
100
AcDbLine
 10
-15.594147
 20
39.963265
 30
0.0
 11
-15.543456
 21
40.114338
 31
0.0
  0
LINE
  5
40A
100
AcDbEntity
  8
0
 62
     0
100
AcDbLine
 10
-14.985857
 20
41.77614
 30
0.0
 11
-14.935166
 21
41.927213
 31
0.0
  0
LINE
  5
40B
100
AcDbEntity
  8
0
 62
     0
100
AcDbLine
 10
-17.751619
 20
28.079469
 30
0.0
 11
-17.700928
 21
28.230542
 31
0.0
  0
LINE
  5
40C
100
AcDbEntity
  8
0
 62
     0
100
AcDbLine
 10
-17.143329
 20
29.892344
 30
0.0
 11
-17.092638
 21
30.043417
 31
0.0
  0
LINE
  5
40D
100
AcDbEntity
  8
0
 62
     0
100
AcDbLine
 10
-16.535039
 20
31.705219
 30
0.0
 11
-16.484348
 21
31.856291
 31
0.0
  0
LINE
  5
40E
100
AcDbEntity
  8
0
 62
     0
100
AcDbLine
 10
-15.926749
 20
33.518093
 30
0.0
 11
-15.876059
 21
33.669166
 31
0.0
  0
LINE
  5
40F
100
AcDbEntity
  8
0
 62
     0
100
AcDbLine
 10
-15.31846
 20
35.330968
 30
0.0
 11
-15.267769
 21
35.482041
 31
0.0
  0
LINE
  5
410
100
AcDbEntity
  8
0
 62
     0
100
AcDbLine
 10
-14.71017
 20
37.143842
 30
0.0
 11
-14.659479
 21
37.294915
 31
0.0
  0
LINE
  5
411
100
AcDbEntity
  8
0
 62
     0
100
AcDbLine
 10
-14.10188
 20
38.956717
 30
0.0
 11
-14.051189
 21
39.10779
 31
0.0
  0
LINE
  5
412
100
AcDbEntity
  8
0
 62
     0
100
AcDbLine
 10
-13.49359
 20
40.769592
 30
0.0
 11
-13.4429
 21
40.920665
 31
0.0
  0
LINE
  5
413
100
AcDbEntity
  8
0
 62
     0
100
AcDbLine
 10
-16.867642
 20
25.260046
 30
0.0
 11
-16.821829
 21
25.396581
 31
0.0
  0
LINE
  5
414
100
AcDbEntity
  8
0
 62
     0
100
AcDbLine
 10
-16.259352
 20
27.072921
 30
0.0
 11
-16.208661
 21
27.223994
 31
0.0
  0
LINE
  5
415
100
AcDbEntity
  8
0
 62
     0
100
AcDbLine
 10
-15.651062
 20
28.885796
 30
0.0
 11
-15.600371
 21
29.036868
 31
0.0
  0
LINE
  5
416
100
AcDbEntity
  8
0
 62
     0
100
AcDbLine
 10
-15.042772
 20
30.69867
 30
0.0
 11
-14.992082
 21
30.849743
 31
0.0
  0
LINE
  5
417
100
AcDbEntity
  8
0
 62
     0
100
AcDbLine
 10
-14.434483
 20
32.511545
 30
0.0
 11
-14.383792
 21
32.662618
 31
0.0
  0
LINE
  5
418
100
AcDbEntity
  8
0
 62
     0
100
AcDbLine
 10
-13.826193
 20
34.324419
 30
0.0
 11
-13.775502
 21
34.475492
 31
0.0
  0
LINE
  5
419
100
AcDbEntity
  8
0
 62
     0
100
AcDbLine
 10
-13.217903
 20
36.137294
 30
0.0
 11
-13.167212
 21
36.288367
 31
0.0
  0
LINE
  5
41A
100
AcDbEntity
  8
0
 62
     0
100
AcDbLine
 10
-12.609613
 20
37.950169
 30
0.0
 11
-12.558923
 21
38.101242
 31
0.0
  0
LINE
  5
41B
100
AcDbEntity
  8
0
 62
     0
100
AcDbLine
 10
-14.767085
 20
26.066373
 30
0.0
 11
-14.716394
 21
26.217445
 31
0.0
  0
LINE
  5
41C
100
AcDbEntity
  8
0
 62
     0
100
AcDbLine
 10
-14.158795
 20
27.879247
 30
0.0
 11
-14.108104
 21
28.03032
 31
0.0
  0
LINE
  5
41D
100
AcDbEntity
  8
0
 62
     0
100
AcDbLine
 10
-13.550505
 20
29.692122
 30
0.0
 11
-13.499815
 21
29.843195
 31
0.0
  0
LINE
  5
41E
100
AcDbEntity
  8
0
 62
     0
100
AcDbLine
 10
-12.942216
 20
31.504996
 30
0.0
 11
-12.891525
 21
31.656069
 31
0.0
  0
LINE
  5
41F
100
AcDbEntity
  8
0
 62
     0
100
AcDbLine
 10
-12.333926
 20
33.317871
 30
0.0
 11
-12.283235
 21
33.468944
 31
0.0
  0
LINE
  5
420
100
AcDbEntity
  8
0
 62
     0
100
AcDbLine
 10
-13.274818
 20
25.059824
 30
0.0
 11
-13.224127
 21
25.210897
 31
0.0
  0
LINE
  5
421
100
AcDbEntity
  8
0
 62
     0
100
AcDbLine
 10
-12.666528
 20
26.872699
 30
0.0
 11
-12.615838
 21
27.023772
 31
0.0
  0
LINE
  5
422
100
AcDbEntity
  8
0
 62
     0
100
AcDbLine
 10
-17.970391
 20
43.789237
 30
0.0
 11
-17.9197
 21
43.94031
 31
0.0
  0
LINE
  5
423
100
AcDbEntity
  8
0
 62
     0
100
AcDbLine
 10
-17.362101
 20
45.602112
 30
0.0
 11
-17.31141
 21
45.753184
 31
0.0
  0
LINE
  5
424
100
AcDbEntity
  8
0
 62
     0
100
AcDbLine
 10
-14.928942
 20
52.85361
 30
0.0
 11
-14.878251
 21
53.004683
 31
0.0
  0
LINE
  5
425
100
AcDbEntity
  8
0
 62
     0
100
AcDbLine
 10
-14.320652
 20
54.666485
 30
0.0
 11
-14.269962
 21
54.817558
 31
0.0
  0
LINE
  5
426
100
AcDbEntity
  8
0
 62
     0
100
AcDbLine
 10
-13.712363
 20
56.479359
 30
0.0
 11
-13.661672
 21
56.630432
 31
0.0
  0
LINE
  5
427
100
AcDbEntity
  8
0
 62
     0
100
AcDbLine
 10
-13.104073
 20
58.292234
 30
0.0
 11
-13.053382
 21
58.443307
 31
0.0
  0
LINE
  5
428
100
AcDbEntity
  8
0
 62
     0
100
AcDbLine
 10
-12.495783
 20
60.105109
 30
0.0
 11
-12.445092
 21
60.256181
 31
0.0
  0
LINE
  5
429
100
AcDbEntity
  8
0
 62
     0
100
AcDbLine
 10
-17.637789
 20
50.234409
 30
0.0
 11
-17.587098
 21
50.385482
 31
0.0
  0
LINE
  5
42A
100
AcDbEntity
  8
0
 62
     0
100
AcDbLine
 10
-17.029499
 20
52.047284
 30
0.0
 11
-16.978808
 21
52.198357
 31
0.0
  0
LINE
  5
42B
100
AcDbEntity
  8
0
 62
     0
100
AcDbLine
 10
-16.421209
 20
53.860158
 30
0.0
 11
-16.370518
 21
54.011231
 31
0.0
  0
LINE
  5
42C
100
AcDbEntity
  8
0
 62
     0
100
AcDbLine
 10
-15.812919
 20
55.673033
 30
0.0
 11
-15.762228
 21
55.824106
 31
0.0
  0
LINE
  5
42D
100
AcDbEntity
  8
0
 62
     0
100
AcDbLine
 10
-15.20463
 20
57.485908
 30
0.0
 11
-15.153939
 21
57.636981
 31
0.0
  0
LINE
  5
42E
100
AcDbEntity
  8
0
 62
     0
100
AcDbLine
 10
-14.59634
 20
59.298782
 30
0.0
 11
-14.545649
 21
59.449855
 31
0.0
  0
LINE
  5
42F
100
AcDbEntity
  8
0
 62
     0
100
AcDbLine
 10
-13.98805
 20
61.111657
 30
0.0
 11
-13.937359
 21
61.26273
 31
0.0
  0
LINE
  5
430
100
AcDbEntity
  8
0
 62
     0
100
AcDbLine
 10
-13.37976
 20
62.924532
 30
0.0
 11
-13.329069
 21
63.075605
 31
0.0
  0
LINE
  5
431
100
AcDbEntity
  8
0
 62
     0
100
AcDbLine
 10
-12.771471
 20
64.737406
 30
0.0
 11
-12.72078
 21
64.888479
 31
0.0
  0
LINE
  5
432
100
AcDbEntity
  8
0
 62
     0
100
AcDbLine
 10
-12.163181
 20
66.550281
 30
0.0
 11
-12.159346
 21
66.561711
 31
0.0
  0
LINE
  5
433
100
AcDbEntity
  8
0
 62
     0
100
AcDbLine
 10
-17.913476
 20
54.866707
 30
0.0
 11
-17.862785
 21
55.01778
 31
0.0
  0
LINE
  5
434
100
AcDbEntity
  8
0
 62
     0
100
AcDbLine
 10
-17.305186
 20
56.679581
 30
0.0
 11
-17.254495
 21
56.830654
 31
0.0
  0
LINE
  5
435
100
AcDbEntity
  8
0
 62
     0
100
AcDbLine
 10
-16.696896
 20
58.492456
 30
0.0
 11
-16.646206
 21
58.643529
 31
0.0
  0
LINE
  5
436
100
AcDbEntity
  8
0
 62
     0
100
AcDbLine
 10
-16.088607
 20
60.305331
 30
0.0
 11
-16.037916
 21
60.456404
 31
0.0
  0
LINE
  5
437
100
AcDbEntity
  8
0
 62
     0
100
AcDbLine
 10
-15.480317
 20
62.118205
 30
0.0
 11
-15.429626
 21
62.269278
 31
0.0
  0
LINE
  5
438
100
AcDbEntity
  8
0
 62
     0
100
AcDbLine
 10
-14.872027
 20
63.93108
 30
0.0
 11
-14.821336
 21
64.082153
 31
0.0
  0
LINE
  5
439
100
AcDbEntity
  8
0
 62
     0
100
AcDbLine
 10
-14.263737
 20
65.743955
 30
0.0
 11
-14.213047
 21
65.895028
 31
0.0
  0
LINE
  5
43A
100
AcDbEntity
  8
0
 62
     0
100
AcDbLine
 10
-13.655448
 20
67.556829
 30
0.0
 11
-13.604757
 21
67.707902
 31
0.0
  0
LINE
  5
43B
100
AcDbEntity
  8
0
 62
     0
100
AcDbLine
 10
-13.047158
 20
69.369704
 30
0.0
 11
-12.996467
 21
69.520777
 31
0.0
  0
LINE
  5
43C
100
AcDbEntity
  8
0
 62
     0
100
AcDbLine
 10
-18.159346
 20
59.587869
 30
0.0
 11
-18.138472
 21
59.650077
 31
0.0
  0
LINE
  5
43D
100
AcDbEntity
  8
0
 62
     0
100
AcDbLine
 10
-17.580873
 20
61.311879
 30
0.0
 11
-17.530183
 21
61.462952
 31
0.0
  0
LINE
  5
43E
100
AcDbEntity
  8
0
 62
     0
100
AcDbLine
 10
-16.972584
 20
63.124754
 30
0.0
 11
-16.921893
 21
63.275827
 31
0.0
  0
LINE
  5
43F
100
AcDbEntity
  8
0
 62
     0
100
AcDbLine
 10
-16.364294
 20
64.937628
 30
0.0
 11
-16.313603
 21
65.088701
 31
0.0
  0
LINE
  5
440
100
AcDbEntity
  8
0
 62
     0
100
AcDbLine
 10
-15.756004
 20
66.750503
 30
0.0
 11
-15.705313
 21
66.901576
 31
0.0
  0
LINE
  5
441
100
AcDbEntity
  8
0
 62
     0
100
AcDbLine
 10
-15.147714
 20
68.563378
 30
0.0
 11
-15.097024
 21
68.714451
 31
0.0
  0
LINE
  5
442
100
AcDbEntity
  8
0
 62
     0
100
AcDbLine
 10
-17.856561
 20
65.944177
 30
0.0
 11
-17.80587
 21
66.09525
 31
0.0
  0
LINE
  5
443
100
AcDbEntity
  8
0
 62
     0
100
AcDbLine
 10
-17.248271
 20
67.757051
 30
0.0
 11
-17.19758
 21
67.908124
 31
0.0
  0
LINE
  5
444
100
AcDbEntity
  8
0
 62
     0
100
AcDbLine
 10
-16.639981
 20
69.569926
 30
0.0
 11
-16.58929
 21
69.720999
 31
0.0
  0
LINE
  5
445
100
AcDbEntity
  8
0
 62
     0
100
AcDbLine
 10
-17.460948
 20
45.65204
 30
0.0
 11
-17.460948
 21
45.65204
 31
0.0
  0
LINE
  5
446
100
AcDbEntity
  8
0
 62
     0
100
AcDbLine
 10
-17.430548
 20
46.484275
 30
0.0
 11
-17.430548
 21
46.484275
 31
0.0
  0
LINE
  5
447
100
AcDbEntity
  8
0
 62
     0
100
AcDbLine
 10
-17.400148
 20
47.316509
 30
0.0
 11
-17.400148
 21
47.316509
 31
0.0
  0
LINE
  5
448
100
AcDbEntity
  8
0
 62
     0
100
AcDbLine
 10
-17.369749
 20
48.148744
 30
0.0
 11
-17.369749
 21
48.148744
 31
0.0
  0
LINE
  5
449
100
AcDbEntity
  8
0
 62
     0
100
AcDbLine
 10
-17.339349
 20
48.980979
 30
0.0
 11
-17.339349
 21
48.980979
 31
0.0
  0
LINE
  5
44A
100
AcDbEntity
  8
0
 62
     0
100
AcDbLine
 10
-13.403325
 20
52.001196
 30
0.0
 11
-13.403325
 21
52.001196
 31
0.0
  0
LINE
  5
44B
100
AcDbEntity
  8
0
 62
     0
100
AcDbLine
 10
-17.30895
 20
49.813213
 30
0.0
 11
-17.30895
 21
49.813213
 31
0.0
  0
LINE
  5
44C
100
AcDbEntity
  8
0
 62
     0
100
AcDbLine
 10
-13.372925
 20
52.833431
 30
0.0
 11
-13.372925
 21
52.833431
 31
0.0
  0
LINE
  5
44D
100
AcDbEntity
  8
0
 62
     0
100
AcDbLine
 10
-17.27855
 20
50.645448
 30
0.0
 11
-17.27855
 21
50.645448
 31
0.0
  0
LINE
  5
44E
100
AcDbEntity
  8
0
 62
     0
100
AcDbLine
 10
-14.656517
 20
52.657404
 30
0.0
 11
-14.656517
 21
52.657404
 31
0.0
  0
LINE
  5
44F
100
AcDbEntity
  8
0
 62
     0
100
AcDbLine
 10
-13.342526
 20
53.665666
 30
0.0
 11
-13.342526
 21
53.665666
 31
0.0
  0
LINE
  5
450
100
AcDbEntity
  8
0
 62
     0
100
AcDbLine
 10
-17.24815
 20
51.477683
 30
0.0
 11
-17.24815
 21
51.477683
 31
0.0
  0
LINE
  5
451
100
AcDbEntity
  8
0
 62
     0
100
AcDbLine
 10
-15.954984
 20
52.469964
 30
0.0
 11
-15.954984
 21
52.469964
 31
0.0
  0
LINE
  5
452
100
AcDbEntity
  8
0
 62
     0
100
AcDbLine
 10
-14.626117
 20
53.489639
 30
0.0
 11
-14.626117
 21
53.489639
 31
0.0
  0
LINE
  5
453
100
AcDbEntity
  8
0
 62
     0
100
AcDbLine
 10
-13.312126
 20
54.4979
 30
0.0
 11
-13.312126
 21
54.4979
 31
0.0
  0
LINE
  5
454
100
AcDbEntity
  8
0
 62
     0
100
AcDbLine
 10
-17.217751
 20
52.309917
 30
0.0
 11
-17.217751
 21
52.309917
 31
0.0
  0
LINE
  5
455
100
AcDbEntity
  8
0
 62
     0
100
AcDbLine
 10
-15.924585
 20
53.302198
 30
0.0
 11
-15.924585
 21
53.302198
 31
0.0
  0
LINE
  5
456
100
AcDbEntity
  8
0
 62
     0
100
AcDbLine
 10
-14.595718
 20
54.321874
 30
0.0
 11
-14.595718
 21
54.321874
 31
0.0
  0
LINE
  5
457
100
AcDbEntity
  8
0
 62
     0
100
AcDbLine
 10
-13.281726
 20
55.330135
 30
0.0
 11
-13.281726
 21
55.330135
 31
0.0
  0
LINE
  5
458
100
AcDbEntity
  8
0
 62
     0
100
AcDbLine
 10
-17.187351
 20
53.142152
 30
0.0
 11
-17.187351
 21
53.142152
 31
0.0
  0
LINE
  5
459
100
AcDbEntity
  8
0
 62
     0
100
AcDbLine
 10
-15.894185
 20
54.134433
 30
0.0
 11
-15.894185
 21
54.134433
 31
0.0
  0
LINE
  5
45A
100
AcDbEntity
  8
0
 62
     0
100
AcDbLine
 10
-14.565318
 20
55.154108
 30
0.0
 11
-14.565318
 21
55.154108
 31
0.0
  0
LINE
  5
45B
100
AcDbEntity
  8
0
 62
     0
100
AcDbLine
 10
-13.251327
 20
56.162369
 30
0.0
 11
-13.251327
 21
56.162369
 31
0.0
  0
LINE
  5
45C
100
AcDbEntity
  8
0
 62
     0
100
AcDbLine
 10
-17.156951
 20
53.974386
 30
0.0
 11
-17.156951
 21
53.974386
 31
0.0
  0
LINE
  5
45D
100
AcDbEntity
  8
0
 62
     0
100
AcDbLine
 10
-15.863785
 20
54.966668
 30
0.0
 11
-15.863785
 21
54.966668
 31
0.0
  0
LINE
  5
45E
100
AcDbEntity
  8
0
 62
     0
100
AcDbLine
 10
-14.534919
 20
55.986343
 30
0.0
 11
-14.534919
 21
55.986343
 31
0.0
  0
LINE
  5
45F
100
AcDbEntity
  8
0
 62
     0
100
AcDbLine
 10
-13.220927
 20
56.994604
 30
0.0
 11
-13.220927
 21
56.994604
 31
0.0
  0
LINE
  5
460
100
AcDbEntity
  8
0
 62
     0
100
AcDbLine
 10
-17.126552
 20
54.806621
 30
0.0
 11
-17.126552
 21
54.806621
 31
0.0
  0
LINE
  5
461
100
AcDbEntity
  8
0
 62
     0
100
AcDbLine
 10
-15.833386
 20
55.798902
 30
0.0
 11
-15.833386
 21
55.798902
 31
0.0
  0
LINE
  5
462
100
AcDbEntity
  8
0
 62
     0
100
AcDbLine
 10
-14.504519
 20
56.818578
 30
0.0
 11
-14.504519
 21
56.818578
 31
0.0
  0
LINE
  5
463
100
AcDbEntity
  8
0
 62
     0
100
AcDbLine
 10
-13.190527
 20
57.826839
 30
0.0
 11
-13.190527
 21
57.826839
 31
0.0
  0
LINE
  5
464
100
AcDbEntity
  8
0
 62
     0
100
AcDbLine
 10
-17.096152
 20
55.638856
 30
0.0
 11
-17.096152
 21
55.638856
 31
0.0
  0
LINE
  5
465
100
AcDbEntity
  8
0
 62
     0
100
AcDbLine
 10
-15.802986
 20
56.631137
 30
0.0
 11
-15.802986
 21
56.631137
 31
0.0
  0
LINE
  5
466
100
AcDbEntity
  8
0
 62
     0
100
AcDbLine
 10
-14.474119
 20
57.650812
 30
0.0
 11
-14.474119
 21
57.650812
 31
0.0
  0
LINE
  5
467
100
AcDbEntity
  8
0
 62
     0
100
AcDbLine
 10
-13.160128
 20
58.659073
 30
0.0
 11
-13.160128
 21
58.659073
 31
0.0
  0
LINE
  5
468
100
AcDbEntity
  8
0
 62
     0
100
AcDbLine
 10
-17.065752
 20
56.47109
 30
0.0
 11
-17.065752
 21
56.47109
 31
0.0
  0
LINE
  5
469
100
AcDbEntity
  8
0
 62
     0
100
AcDbLine
 10
-15.772586
 20
57.463372
 30
0.0
 11
-15.772586
 21
57.463372
 31
0.0
  0
LINE
  5
46A
100
AcDbEntity
  8
0
 62
     0
100
AcDbLine
 10
-14.44372
 20
58.483047
 30
0.0
 11
-14.44372
 21
58.483047
 31
0.0
  0
LINE
  5
46B
100
AcDbEntity
  8
0
 62
     0
100
AcDbLine
 10
-13.129728
 20
59.491308
 30
0.0
 11
-13.129728
 21
59.491308
 31
0.0
  0
LINE
  5
46C
100
AcDbEntity
  8
0
 62
     0
100
AcDbLine
 10
-17.035353
 20
57.303325
 30
0.0
 11
-17.035353
 21
57.303325
 31
0.0
  0
LINE
  5
46D
100
AcDbEntity
  8
0
 62
     0
100
AcDbLine
 10
-15.742187
 20
58.295606
 30
0.0
 11
-15.742187
 21
58.295606
 31
0.0
  0
LINE
  5
46E
100
AcDbEntity
  8
0
 62
     0
100
AcDbLine
 10
-14.41332
 20
59.315282
 30
0.0
 11
-14.41332
 21
59.315282
 31
0.0
  0
LINE
  5
46F
100
AcDbEntity
  8
0
 62
     0
100
AcDbLine
 10
-13.099329
 20
60.323543
 30
0.0
 11
-13.099329
 21
60.323543
 31
0.0
  0
LINE
  5
470
100
AcDbEntity
  8
0
 62
     0
100
AcDbLine
 10
-17.004953
 20
58.13556
 30
0.0
 11
-17.004953
 21
58.13556
 31
0.0
  0
LINE
  5
471
100
AcDbEntity
  8
0
 62
     0
100
AcDbLine
 10
-15.711787
 20
59.127841
 30
0.0
 11
-15.711787
 21
59.127841
 31
0.0
  0
LINE
  5
472
100
AcDbEntity
  8
0
 62
     0
100
AcDbLine
 10
-14.38292
 20
60.147516
 30
0.0
 11
-14.38292
 21
60.147516
 31
0.0
  0
LINE
  5
473
100
AcDbEntity
  8
0
 62
     0
100
AcDbLine
 10
-13.068929
 20
61.155777
 30
0.0
 11
-13.068929
 21
61.155777
 31
0.0
  0
LINE
  5
474
100
AcDbEntity
  8
0
 62
     0
100
AcDbLine
 10
-16.974553
 20
58.967794
 30
0.0
 11
-16.974553
 21
58.967794
 31
0.0
  0
LINE
  5
475
100
AcDbEntity
  8
0
 62
     0
100
AcDbLine
 10
-15.681388
 20
59.960075
 30
0.0
 11
-15.681388
 21
59.960075
 31
0.0
  0
LINE
  5
476
100
AcDbEntity
  8
0
 62
     0
100
AcDbLine
 10
-14.352521
 20
60.979751
 30
0.0
 11
-14.352521
 21
60.979751
 31
0.0
  0
LINE
  5
477
100
AcDbEntity
  8
0
 62
     0
100
AcDbLine
 10
-13.038529
 20
61.988012
 30
0.0
 11
-13.038529
 21
61.988012
 31
0.0
  0
LINE
  5
478
100
AcDbEntity
  8
0
 62
     0
100
AcDbLine
 10
-16.944154
 20
59.800029
 30
0.0
 11
-16.944154
 21
59.800029
 31
0.0
  0
LINE
  5
479
100
AcDbEntity
  8
0
 62
     0
100
AcDbLine
 10
-15.650988
 20
60.79231
 30
0.0
 11
-15.650988
 21
60.79231
 31
0.0
  0
LINE
  5
47A
100
AcDbEntity
  8
0
 62
     0
100
AcDbLine
 10
-14.322121
 20
61.811985
 30
0.0
 11
-14.322121
 21
61.811985
 31
0.0
  0
LINE
  5
47B
100
AcDbEntity
  8
0
 62
     0
100
AcDbLine
 10
-13.00813
 20
62.820247
 30
0.0
 11
-13.00813
 21
62.820247
 31
0.0
  0
LINE
  5
47C
100
AcDbEntity
  8
0
 62
     0
100
AcDbLine
 10
-16.913754
 20
60.632264
 30
0.0
 11
-16.913754
 21
60.632264
 31
0.0
  0
LINE
  5
47D
100
AcDbEntity
  8
0
 62
     0
100
AcDbLine
 10
-15.620588
 20
61.624545
 30
0.0
 11
-15.620588
 21
61.624545
 31
0.0
  0
LINE
  5
47E
100
AcDbEntity
  8
0
 62
     0
100
AcDbLine
 10
-14.291721
 20
62.64422
 30
0.0
 11
-14.291721
 21
62.64422
 31
0.0
  0
LINE
  5
47F
100
AcDbEntity
  8
0
 62
     0
100
AcDbLine
 10
-12.97773
 20
63.652481
 30
0.0
 11
-12.97773
 21
63.652481
 31
0.0
  0
LINE
  5
480
100
AcDbEntity
  8
0
 62
     0
100
AcDbLine
 10
-16.883355
 20
61.464498
 30
0.0
 11
-16.883355
 21
61.464498
 31
0.0
  0
LINE
  5
481
100
AcDbEntity
  8
0
 62
     0
100
AcDbLine
 10
-15.590189
 20
62.456779
 30
0.0
 11
-15.590189
 21
62.456779
 31
0.0
  0
LINE
  5
482
100
AcDbEntity
  8
0
 62
     0
100
AcDbLine
 10
-14.261322
 20
63.476455
 30
0.0
 11
-14.261322
 21
63.476455
 31
0.0
  0
LINE
  5
483
100
AcDbEntity
  8
0
 62
     0
100
AcDbLine
 10
-12.94733
 20
64.484716
 30
0.0
 11
-12.94733
 21
64.484716
 31
0.0
  0
LINE
  5
484
100
AcDbEntity
  8
0
 62
     0
100
AcDbLine
 10
-16.852955
 20
62.296733
 30
0.0
 11
-16.852955
 21
62.296733
 31
0.0
  0
LINE
  5
485
100
AcDbEntity
  8
0
 62
     0
100
AcDbLine
 10
-15.559789
 20
63.289014
 30
0.0
 11
-15.559789
 21
63.289014
 31
0.0
  0
LINE
  5
486
100
AcDbEntity
  8
0
 62
     0
100
AcDbLine
 10
-14.230922
 20
64.308689
 30
0.0
 11
-14.230922
 21
64.308689
 31
0.0
  0
LINE
  5
487
100
AcDbEntity
  8
0
 62
     0
100
AcDbLine
 10
-12.916931
 20
65.31695
 30
0.0
 11
-12.916931
 21
65.31695
 31
0.0
  0
LINE
  5
488
100
AcDbEntity
  8
0
 62
     0
100
AcDbLine
 10
-18.136547
 20
62.120706
 30
0.0
 11
-18.136547
 21
62.120706
 31
0.0
  0
LINE
  5
489
100
AcDbEntity
  8
0
 62
     0
100
AcDbLine
 10
-16.822555
 20
63.128967
 30
0.0
 11
-16.822555
 21
63.128967
 31
0.0
  0
LINE
  5
48A
100
AcDbEntity
  8
0
 62
     0
100
AcDbLine
 10
-15.529389
 20
64.121249
 30
0.0
 11
-15.529389
 21
64.121249
 31
0.0
  0
LINE
  5
48B
100
AcDbEntity
  8
0
 62
     0
100
AcDbLine
 10
-14.200523
 20
65.140924
 30
0.0
 11
-14.200523
 21
65.140924
 31
0.0
  0
LINE
  5
48C
100
AcDbEntity
  8
0
 62
     0
100
AcDbLine
 10
-12.886531
 20
66.149185
 30
0.0
 11
-12.886531
 21
66.149185
 31
0.0
  0
LINE
  5
48D
100
AcDbEntity
  8
0
 62
     0
100
AcDbLine
 10
-18.106147
 20
62.952941
 30
0.0
 11
-18.106147
 21
62.952941
 31
0.0
  0
LINE
  5
48E
100
AcDbEntity
  8
0
 62
     0
100
AcDbLine
 10
-16.792156
 20
63.961202
 30
0.0
 11
-16.792156
 21
63.961202
 31
0.0
  0
LINE
  5
48F
100
AcDbEntity
  8
0
 62
     0
100
AcDbLine
 10
-15.49899
 20
64.953483
 30
0.0
 11
-15.49899
 21
64.953483
 31
0.0
  0
LINE
  5
490
100
AcDbEntity
  8
0
 62
     0
100
AcDbLine
 10
-14.170123
 20
65.973159
 30
0.0
 11
-14.170123
 21
65.973159
 31
0.0
  0
LINE
  5
491
100
AcDbEntity
  8
0
 62
     0
100
AcDbLine
 10
-12.856131
 20
66.98142
 30
0.0
 11
-12.856131
 21
66.98142
 31
0.0
  0
LINE
  5
492
100
AcDbEntity
  8
0
 62
     0
100
AcDbLine
 10
-18.075747
 20
63.785176
 30
0.0
 11
-18.075747
 21
63.785176
 31
0.0
  0
LINE
  5
493
100
AcDbEntity
  8
0
 62
     0
100
AcDbLine
 10
-16.761756
 20
64.793437
 30
0.0
 11
-16.761756
 21
64.793437
 31
0.0
  0
LINE
  5
494
100
AcDbEntity
  8
0
 62
     0
100
AcDbLine
 10
-15.46859
 20
65.785718
 30
0.0
 11
-15.46859
 21
65.785718
 31
0.0
  0
LINE
  5
495
100
AcDbEntity
  8
0
 62
     0
100
AcDbLine
 10
-14.139723
 20
66.805393
 30
0.0
 11
-14.139723
 21
66.805393
 31
0.0
  0
LINE
  5
496
100
AcDbEntity
  8
0
 62
     0
100
AcDbLine
 10
-12.825732
 20
67.813654
 30
0.0
 11
-12.825732
 21
67.813654
 31
0.0
  0
LINE
  5
497
100
AcDbEntity
  8
0
 62
     0
100
AcDbLine
 10
-18.045348
 20
64.61741
 30
0.0
 11
-18.045348
 21
64.61741
 31
0.0
  0
LINE
  5
498
100
AcDbEntity
  8
0
 62
     0
100
AcDbLine
 10
-16.731356
 20
65.625671
 30
0.0
 11
-16.731356
 21
65.625671
 31
0.0
  0
LINE
  5
499
100
AcDbEntity
  8
0
 62
     0
100
AcDbLine
 10
-15.43819
 20
66.617952
 30
0.0
 11
-15.43819
 21
66.617952
 31
0.0
  0
LINE
  5
49A
100
AcDbEntity
  8
0
 62
     0
100
AcDbLine
 10
-14.109324
 20
67.637628
 30
0.0
 11
-14.109324
 21
67.637628
 31
0.0
  0
LINE
  5
49B
100
AcDbEntity
  8
0
 62
     0
100
AcDbLine
 10
-12.795332
 20
68.645889
 30
0.0
 11
-12.795332
 21
68.645889
 31
0.0
  0
LINE
  5
49C
100
AcDbEntity
  8
0
 62
     0
100
AcDbLine
 10
-18.014948
 20
65.449645
 30
0.0
 11
-18.014948
 21
65.449645
 31
0.0
  0
LINE
  5
49D
100
AcDbEntity
  8
0
 62
     0
100
AcDbLine
 10
-16.700957
 20
66.457906
 30
0.0
 11
-16.700957
 21
66.457906
 31
0.0
  0
LINE
  5
49E
100
AcDbEntity
  8
0
 62
     0
100
AcDbLine
 10
-15.407791
 20
67.450187
 30
0.0
 11
-15.407791
 21
67.450187
 31
0.0
  0
LINE
  5
49F
100
AcDbEntity
  8
0
 62
     0
100
AcDbLine
 10
-14.078924
 20
68.469863
 30
0.0
 11
-14.078924
 21
68.469863
 31
0.0
  0
LINE
  5
4A0
100
AcDbEntity
  8
0
 62
     0
100
AcDbLine
 10
-12.764932
 20
69.478124
 30
0.0
 11
-12.764932
 21
69.478124
 31
0.0
  0
LINE
  5
4A1
100
AcDbEntity
  8
0
 62
     0
100
AcDbLine
 10
-17.984549
 20
66.28188
 30
0.0
 11
-17.984549
 21
66.28188
 31
0.0
  0
LINE
  5
4A2
100
AcDbEntity
  8
0
 62
     0
100
AcDbLine
 10
-16.670557
 20
67.290141
 30
0.0
 11
-16.670557
 21
67.290141
 31
0.0
  0
LINE
  5
4A3
100
AcDbEntity
  8
0
 62
     0
100
AcDbLine
 10
-15.377391
 20
68.282422
 30
0.0
 11
-15.377391
 21
68.282422
 31
0.0
  0
LINE
  5
4A4
100
AcDbEntity
  8
0
 62
     0
100
AcDbLine
 10
-17.954149
 20
67.114114
 30
0.0
 11
-17.954149
 21
67.114114
 31
0.0
  0
LINE
  5
4A5
100
AcDbEntity
  8
0
 62
     0
100
AcDbLine
 10
-16.640157
 20
68.122375
 30
0.0
 11
-16.640157
 21
68.122375
 31
0.0
  0
LINE
  5
4A6
100
AcDbEntity
  8
0
 62
     0
100
AcDbLine
 10
-15.346992
 20
69.114656
 30
0.0
 11
-15.346992
 21
69.114656
 31
0.0
  0
LINE
  5
4A7
100
AcDbEntity
  8
0
 62
     0
100
AcDbLine
 10
-17.923749
 20
67.946349
 30
0.0
 11
-17.923749
 21
67.946349
 31
0.0
  0
LINE
  5
4A8
100
AcDbEntity
  8
0
 62
     0
100
AcDbLine
 10
-16.609758
 20
68.95461
 30
0.0
 11
-16.609758
 21
68.95461
 31
0.0
  0
LINE
  5
4A9
100
AcDbEntity
  8
0
 62
     0
100
AcDbLine
 10
-15.316592
 20
69.946891
 30
0.0
 11
-15.316592
 21
69.946891
 31
0.0
  0
LINE
  5
4AA
100
AcDbEntity
  8
0
 62
     0
100
AcDbLine
 10
-17.89335
 20
68.778583
 30
0.0
 11
-17.89335
 21
68.778583
 31
0.0
  0
LINE
  5
4AB
100
AcDbEntity
  8
0
 62
     0
100
AcDbLine
 10
-16.579358
 20
69.786845
 30
0.0
 11
-16.579358
 21
69.786845
 31
0.0
  0
LINE
  5
4AC
100
AcDbEntity
  8
0
 62
     0
100
AcDbLine
 10
-17.86295
 20
69.610818
 30
0.0
 11
-17.86295
 21
69.610818
 31
0.0
  0
LINE
  5
4AD
100
AcDbEntity
  8
0
 62
     0
100
AcDbLine
 10
-16.548959
 20
70.619079
 30
0.0
 11
-16.548959
 21
70.619079
 31
0.0
  0
LINE
  5
4AE
100
AcDbEntity
  8
0
 62
     0
100
AcDbLine
 10
-17.491347
 20
44.819805
 30
0.0
 11
-17.491347
 21
44.819805
 31
0.0
  0
LINE
  5
4AF
100
AcDbEntity
  8
0
 62
     0
100
AcDbLine
 10
-17.521747
 20
43.987571
 30
0.0
 11
-17.521747
 21
43.987571
 31
0.0
  0
LINE
  5
4B0
100
AcDbEntity
  8
0
 62
     0
100
AcDbLine
 10
-17.552147
 20
43.155336
 30
0.0
 11
-17.552147
 21
43.155336
 31
0.0
  0
LINE
  5
4B1
100
AcDbEntity
  8
0
 62
     0
100
AcDbLine
 10
-17.582546
 20
42.323102
 30
0.0
 11
-17.582546
 21
42.323102
 31
0.0
  0
LINE
  5
4B2
100
AcDbEntity
  8
0
 62
     0
100
AcDbLine
 10
-17.612946
 20
41.490867
 30
0.0
 11
-17.612946
 21
41.490867
 31
0.0
  0
LINE
  5
4B3
100
AcDbEntity
  8
0
 62
     0
100
AcDbLine
 10
-17.643346
 20
40.658632
 30
0.0
 11
-17.643346
 21
40.658632
 31
0.0
  0
LINE
  5
4B4
100
AcDbEntity
  8
0
 62
     0
100
AcDbLine
 10
-16.35018
 20
41.650913
 30
0.0
 11
-16.35018
 21
41.650913
 31
0.0
  0
LINE
  5
4B5
100
AcDbEntity
  8
0
 62
     0
100
AcDbLine
 10
-17.673745
 20
39.826398
 30
0.0
 11
-17.673745
 21
39.826398
 31
0.0
  0
LINE
  5
4B6
100
AcDbEntity
  8
0
 62
     0
100
AcDbLine
 10
-16.380579
 20
40.818679
 30
0.0
 11
-16.380579
 21
40.818679
 31
0.0
  0
LINE
  5
4B7
100
AcDbEntity
  8
0
 62
     0
100
AcDbLine
 10
-15.051712
 20
41.838354
 30
0.0
 11
-15.051712
 21
41.838354
 31
0.0
  0
LINE
  5
4B8
100
AcDbEntity
  8
0
 62
     0
100
AcDbLine
 10
-17.704145
 20
38.994163
 30
0.0
 11
-17.704145
 21
38.994163
 31
0.0
  0
LINE
  5
4B9
100
AcDbEntity
  8
0
 62
     0
100
AcDbLine
 10
-16.410979
 20
39.986444
 30
0.0
 11
-16.410979
 21
39.986444
 31
0.0
  0
LINE
  5
4BA
100
AcDbEntity
  8
0
 62
     0
100
AcDbLine
 10
-15.082112
 20
41.00612
 30
0.0
 11
-15.082112
 21
41.00612
 31
0.0
  0
LINE
  5
4BB
100
AcDbEntity
  8
0
 62
     0
100
AcDbLine
 10
-17.734544
 20
38.161928
 30
0.0
 11
-17.734544
 21
38.161928
 31
0.0
  0
LINE
  5
4BC
100
AcDbEntity
  8
0
 62
     0
100
AcDbLine
 10
-16.441379
 20
39.15421
 30
0.0
 11
-16.441379
 21
39.15421
 31
0.0
  0
LINE
  5
4BD
100
AcDbEntity
  8
0
 62
     0
100
AcDbLine
 10
-15.112512
 20
40.173885
 30
0.0
 11
-15.112512
 21
40.173885
 31
0.0
  0
LINE
  5
4BE
100
AcDbEntity
  8
0
 62
     0
100
AcDbLine
 10
-13.79852
 20
41.182146
 30
0.0
 11
-13.79852
 21
41.182146
 31
0.0
  0
LINE
  5
4BF
100
AcDbEntity
  8
0
 62
     0
100
AcDbLine
 10
-17.764944
 20
37.329694
 30
0.0
 11
-17.764944
 21
37.329694
 31
0.0
  0
LINE
  5
4C0
100
AcDbEntity
  8
0
 62
     0
100
AcDbLine
 10
-16.471778
 20
38.321975
 30
0.0
 11
-16.471778
 21
38.321975
 31
0.0
  0
LINE
  5
4C1
100
AcDbEntity
  8
0
 62
     0
100
AcDbLine
 10
-15.142911
 20
39.34165
 30
0.0
 11
-15.142911
 21
39.34165
 31
0.0
  0
LINE
  5
4C2
100
AcDbEntity
  8
0
 62
     0
100
AcDbLine
 10
-13.82892
 20
40.349911
 30
0.0
 11
-13.82892
 21
40.349911
 31
0.0
  0
LINE
  5
4C3
100
AcDbEntity
  8
0
 62
     0
100
AcDbLine
 10
-12.535754
 20
41.342193
 30
0.0
 11
-12.535754
 21
41.342193
 31
0.0
  0
LINE
  5
4C4
100
AcDbEntity
  8
0
 62
     0
100
AcDbLine
 10
-17.795344
 20
36.497459
 30
0.0
 11
-17.795344
 21
36.497459
 31
0.0
  0
LINE
  5
4C5
100
AcDbEntity
  8
0
 62
     0
100
AcDbLine
 10
-16.502178
 20
37.48974
 30
0.0
 11
-16.502178
 21
37.48974
 31
0.0
  0
LINE
  5
4C6
100
AcDbEntity
  8
0
 62
     0
100
AcDbLine
 10
-15.173311
 20
38.509416
 30
0.0
 11
-15.173311
 21
38.509416
 31
0.0
  0
LINE
  5
4C7
100
AcDbEntity
  8
0
 62
     0
100
AcDbLine
 10
-13.859319
 20
39.517677
 30
0.0
 11
-13.859319
 21
39.517677
 31
0.0
  0
LINE
  5
4C8
100
AcDbEntity
  8
0
 62
     0
100
AcDbLine
 10
-12.566154
 20
40.509958
 30
0.0
 11
-12.566154
 21
40.509958
 31
0.0
  0
LINE
  5
4C9
100
AcDbEntity
  8
0
 62
     0
100
AcDbLine
 10
-17.825743
 20
35.665225
 30
0.0
 11
-17.825743
 21
35.665225
 31
0.0
  0
LINE
  5
4CA
100
AcDbEntity
  8
0
 62
     0
100
AcDbLine
 10
-16.532577
 20
36.657506
 30
0.0
 11
-16.532577
 21
36.657506
 31
0.0
  0
LINE
  5
4CB
100
AcDbEntity
  8
0
 62
     0
100
AcDbLine
 10
-15.203711
 20
37.677181
 30
0.0
 11
-15.203711
 21
37.677181
 31
0.0
  0
LINE
  5
4CC
100
AcDbEntity
  8
0
 62
     0
100
AcDbLine
 10
-13.889719
 20
38.685442
 30
0.0
 11
-13.889719
 21
38.685442
 31
0.0
  0
LINE
  5
4CD
100
AcDbEntity
  8
0
 62
     0
100
AcDbLine
 10
-12.596553
 20
39.677723
 30
0.0
 11
-12.596553
 21
39.677723
 31
0.0
  0
LINE
  5
4CE
100
AcDbEntity
  8
0
 62
     0
100
AcDbLine
 10
-17.856143
 20
34.83299
 30
0.0
 11
-17.856143
 21
34.83299
 31
0.0
  0
LINE
  5
4CF
100
AcDbEntity
  8
0
 62
     0
100
AcDbLine
 10
-16.562977
 20
35.825271
 30
0.0
 11
-16.562977
 21
35.825271
 31
0.0
  0
LINE
  5
4D0
100
AcDbEntity
  8
0
 62
     0
100
AcDbLine
 10
-15.23411
 20
36.844946
 30
0.0
 11
-15.23411
 21
36.844946
 31
0.0
  0
LINE
  5
4D1
100
AcDbEntity
  8
0
 62
     0
100
AcDbLine
 10
-13.920119
 20
37.853208
 30
0.0
 11
-13.920119
 21
37.853208
 31
0.0
  0
LINE
  5
4D2
100
AcDbEntity
  8
0
 62
     0
100
AcDbLine
 10
-12.626953
 20
38.845489
 30
0.0
 11
-12.626953
 21
38.845489
 31
0.0
  0
LINE
  5
4D3
100
AcDbEntity
  8
0
 62
     0
100
AcDbLine
 10
-17.886543
 20
34.000755
 30
0.0
 11
-17.886543
 21
34.000755
 31
0.0
  0
LINE
  5
4D4
100
AcDbEntity
  8
0
 62
     0
100
AcDbLine
 10
-16.593377
 20
34.993036
 30
0.0
 11
-16.593377
 21
34.993036
 31
0.0
  0
LINE
  5
4D5
100
AcDbEntity
  8
0
 62
     0
100
AcDbLine
 10
-15.26451
 20
36.012712
 30
0.0
 11
-15.26451
 21
36.012712
 31
0.0
  0
LINE
  5
4D6
100
AcDbEntity
  8
0
 62
     0
100
AcDbLine
 10
-13.950518
 20
37.020973
 30
0.0
 11
-13.950518
 21
37.020973
 31
0.0
  0
LINE
  5
4D7
100
AcDbEntity
  8
0
 62
     0
100
AcDbLine
 10
-12.657352
 20
38.013254
 30
0.0
 11
-12.657352
 21
38.013254
 31
0.0
  0
LINE
  5
4D8
100
AcDbEntity
  8
0
 62
     0
100
AcDbLine
 10
-17.916942
 20
33.168521
 30
0.0
 11
-17.916942
 21
33.168521
 31
0.0
  0
LINE
  5
4D9
100
AcDbEntity
  8
0
 62
     0
100
AcDbLine
 10
-16.623776
 20
34.160802
 30
0.0
 11
-16.623776
 21
34.160802
 31
0.0
  0
LINE
  5
4DA
100
AcDbEntity
  8
0
 62
     0
100
AcDbLine
 10
-15.294909
 20
35.180477
 30
0.0
 11
-15.294909
 21
35.180477
 31
0.0
  0
LINE
  5
4DB
100
AcDbEntity
  8
0
 62
     0
100
AcDbLine
 10
-13.980918
 20
36.188738
 30
0.0
 11
-13.980918
 21
36.188738
 31
0.0
  0
LINE
  5
4DC
100
AcDbEntity
  8
0
 62
     0
100
AcDbLine
 10
-12.687752
 20
37.181019
 30
0.0
 11
-12.687752
 21
37.181019
 31
0.0
  0
LINE
  5
4DD
100
AcDbEntity
  8
0
 62
     0
100
AcDbLine
 10
-17.947342
 20
32.336286
 30
0.0
 11
-17.947342
 21
32.336286
 31
0.0
  0
LINE
  5
4DE
100
AcDbEntity
  8
0
 62
     0
100
AcDbLine
 10
-16.654176
 20
33.328567
 30
0.0
 11
-16.654176
 21
33.328567
 31
0.0
  0
LINE
  5
4DF
100
AcDbEntity
  8
0
 62
     0
100
AcDbLine
 10
-15.325309
 20
34.348242
 30
0.0
 11
-15.325309
 21
34.348242
 31
0.0
  0
LINE
  5
4E0
100
AcDbEntity
  8
0
 62
     0
100
AcDbLine
 10
-14.011318
 20
35.356504
 30
0.0
 11
-14.011318
 21
35.356504
 31
0.0
  0
LINE
  5
4E1
100
AcDbEntity
  8
0
 62
     0
100
AcDbLine
 10
-12.718152
 20
36.348785
 30
0.0
 11
-12.718152
 21
36.348785
 31
0.0
  0
LINE
  5
4E2
100
AcDbEntity
  8
0
 62
     0
100
AcDbLine
 10
-17.977742
 20
31.504051
 30
0.0
 11
-17.977742
 21
31.504051
 31
0.0
  0
LINE
  5
4E3
100
AcDbEntity
  8
0
 62
     0
100
AcDbLine
 10
-16.684576
 20
32.496332
 30
0.0
 11
-16.684576
 21
32.496332
 31
0.0
  0
LINE
  5
4E4
100
AcDbEntity
  8
0
 62
     0
100
AcDbLine
 10
-15.355709
 20
33.516008
 30
0.0
 11
-15.355709
 21
33.516008
 31
0.0
  0
LINE
  5
4E5
100
AcDbEntity
  8
0
 62
     0
100
AcDbLine
 10
-14.041717
 20
34.524269
 30
0.0
 11
-14.041717
 21
34.524269
 31
0.0
  0
LINE
  5
4E6
100
AcDbEntity
  8
0
 62
     0
100
AcDbLine
 10
-12.748551
 20
35.51655
 30
0.0
 11
-12.748551
 21
35.51655
 31
0.0
  0
LINE
  5
4E7
100
AcDbEntity
  8
0
 62
     0
100
AcDbLine
 10
-18.008141
 20
30.671817
 30
0.0
 11
-18.008141
 21
30.671817
 31
0.0
  0
LINE
  5
4E8
100
AcDbEntity
  8
0
 62
     0
100
AcDbLine
 10
-16.714975
 20
31.664098
 30
0.0
 11
-16.714975
 21
31.664098
 31
0.0
  0
LINE
  5
4E9
100
AcDbEntity
  8
0
 62
     0
100
AcDbLine
 10
-15.386108
 20
32.683773
 30
0.0
 11
-15.386108
 21
32.683773
 31
0.0
  0
LINE
  5
4EA
100
AcDbEntity
  8
0
 62
     0
100
AcDbLine
 10
-14.072117
 20
33.692034
 30
0.0
 11
-14.072117
 21
33.692034
 31
0.0
  0
LINE
  5
4EB
100
AcDbEntity
  8
0
 62
     0
100
AcDbLine
 10
-12.778951
 20
34.684315
 30
0.0
 11
-12.778951
 21
34.684315
 31
0.0
  0
LINE
  5
4EC
100
AcDbEntity
  8
0
 62
     0
100
AcDbLine
 10
-18.038541
 20
29.839582
 30
0.0
 11
-18.038541
 21
29.839582
 31
0.0
  0
LINE
  5
4ED
100
AcDbEntity
  8
0
 62
     0
100
AcDbLine
 10
-16.745375
 20
30.831863
 30
0.0
 11
-16.745375
 21
30.831863
 31
0.0
  0
LINE
  5
4EE
100
AcDbEntity
  8
0
 62
     0
100
AcDbLine
 10
-15.416508
 20
31.851539
 30
0.0
 11
-15.416508
 21
31.851539
 31
0.0
  0
LINE
  5
4EF
100
AcDbEntity
  8
0
 62
     0
100
AcDbLine
 10
-14.102517
 20
32.8598
 30
0.0
 11
-14.102517
 21
32.8598
 31
0.0
  0
LINE
  5
4F0
100
AcDbEntity
  8
0
 62
     0
100
AcDbLine
 10
-12.809351
 20
33.852081
 30
0.0
 11
-12.809351
 21
33.852081
 31
0.0
  0
LINE
  5
4F1
100
AcDbEntity
  8
0
 62
     0
100
AcDbLine
 10
-18.06894
 20
29.007347
 30
0.0
 11
-18.06894
 21
29.007347
 31
0.0
  0
LINE
  5
4F2
100
AcDbEntity
  8
0
 62
     0
100
AcDbLine
 10
-16.775775
 20
29.999629
 30
0.0
 11
-16.775775
 21
29.999629
 31
0.0
  0
LINE
  5
4F3
100
AcDbEntity
  8
0
 62
     0
100
AcDbLine
 10
-15.446908
 20
31.019304
 30
0.0
 11
-15.446908
 21
31.019304
 31
0.0
  0
LINE
  5
4F4
100
AcDbEntity
  8
0
 62
     0
100
AcDbLine
 10
-14.132916
 20
32.027565
 30
0.0
 11
-14.132916
 21
32.027565
 31
0.0
  0
LINE
  5
4F5
100
AcDbEntity
  8
0
 62
     0
100
AcDbLine
 10
-12.83975
 20
33.019846
 30
0.0
 11
-12.83975
 21
33.019846
 31
0.0
  0
LINE
  5
4F6
100
AcDbEntity
  8
0
 62
     0
100
AcDbLine
 10
-18.09934
 20
28.175113
 30
0.0
 11
-18.09934
 21
28.175113
 31
0.0
  0
LINE
  5
4F7
100
AcDbEntity
  8
0
 62
     0
100
AcDbLine
 10
-16.806174
 20
29.167394
 30
0.0
 11
-16.806174
 21
29.167394
 31
0.0
  0
LINE
  5
4F8
100
AcDbEntity
  8
0
 62
     0
100
AcDbLine
 10
-15.477307
 20
30.187069
 30
0.0
 11
-15.477307
 21
30.187069
 31
0.0
  0
LINE
  5
4F9
100
AcDbEntity
  8
0
 62
     0
100
AcDbLine
 10
-14.163316
 20
31.19533
 30
0.0
 11
-14.163316
 21
31.19533
 31
0.0
  0
LINE
  5
4FA
100
AcDbEntity
  8
0
 62
     0
100
AcDbLine
 10
-12.87015
 20
32.187612
 30
0.0
 11
-12.87015
 21
32.187612
 31
0.0
  0
LINE
  5
4FB
100
AcDbEntity
  8
0
 62
     0
100
AcDbLine
 10
-18.12974
 20
27.342878
 30
0.0
 11
-18.12974
 21
27.342878
 31
0.0
  0
LINE
  5
4FC
100
AcDbEntity
  8
0
 62
     0
100
AcDbLine
 10
-16.836574
 20
28.335159
 30
0.0
 11
-16.836574
 21
28.335159
 31
0.0
  0
LINE
  5
4FD
100
AcDbEntity
  8
0
 62
     0
100
AcDbLine
 10
-15.507707
 20
29.354835
 30
0.0
 11
-15.507707
 21
29.354835
 31
0.0
  0
LINE
  5
4FE
100
AcDbEntity
  8
0
 62
     0
100
AcDbLine
 10
-14.193715
 20
30.363096
 30
0.0
 11
-14.193715
 21
30.363096
 31
0.0
  0
LINE
  5
4FF
100
AcDbEntity
  8
0
 62
     0
100
AcDbLine
 10
-12.90055
 20
31.355377
 30
0.0
 11
-12.90055
 21
31.355377
 31
0.0
  0
LINE
  5
500
100
AcDbEntity
  8
0
 62
     0
100
AcDbLine
 10
-16.866973
 20
27.502925
 30
0.0
 11
-16.866973
 21
27.502925
 31
0.0
  0
LINE
  5
501
100
AcDbEntity
  8
0
 62
     0
100
AcDbLine
 10
-15.538107
 20
28.5226
 30
0.0
 11
-15.538107
 21
28.5226
 31
0.0
  0
LINE
  5
502
100
AcDbEntity
  8
0
 62
     0
100
AcDbLine
 10
-14.224115
 20
29.530861
 30
0.0
 11
-14.224115
 21
29.530861
 31
0.0
  0
LINE
  5
503
100
AcDbEntity
  8
0
 62
     0
100
AcDbLine
 10
-12.930949
 20
30.523142
 30
0.0
 11
-12.930949
 21
30.523142
 31
0.0
  0
LINE
  5
504
100
AcDbEntity
  8
0
 62
     0
100
AcDbLine
 10
-15.568506
 20
27.690365
 30
0.0
 11
-15.568506
 21
27.690365
 31
0.0
  0
LINE
  5
505
100
AcDbEntity
  8
0
 62
     0
100
AcDbLine
 10
-14.254515
 20
28.698627
 30
0.0
 11
-14.254515
 21
28.698627
 31
0.0
  0
LINE
  5
506
100
AcDbEntity
  8
0
 62
     0
100
AcDbLine
 10
-12.961349
 20
29.690908
 30
0.0
 11
-12.961349
 21
29.690908
 31
0.0
  0
LINE
  5
507
100
AcDbEntity
  8
0
 62
     0
100
AcDbLine
 10
-16.927773
 20
25.838455
 30
0.0
 11
-16.927773
 21
25.838455
 31
0.0
  0
LINE
  5
508
100
AcDbEntity
  8
0
 62
     0
100
AcDbLine
 10
-15.598906
 20
26.858131
 30
0.0
 11
-15.598906
 21
26.858131
 31
0.0
  0
LINE
  5
509
100
AcDbEntity
  8
0
 62
     0
100
AcDbLine
 10
-14.284914
 20
27.866392
 30
0.0
 11
-14.284914
 21
27.866392
 31
0.0
  0
LINE
  5
50A
100
AcDbEntity
  8
0
 62
     0
100
AcDbLine
 10
-12.991748
 20
28.858673
 30
0.0
 11
-12.991748
 21
28.858673
 31
0.0
  0
LINE
  5
50B
100
AcDbEntity
  8
0
 62
     0
100
AcDbLine
 10
-16.958172
 20
25.006221
 30
0.0
 11
-16.958172
 21
25.006221
 31
0.0
  0
LINE
  5
50C
100
AcDbEntity
  8
0
 62
     0
100
AcDbLine
 10
-15.629306
 20
26.025896
 30
0.0
 11
-15.629306
 21
26.025896
 31
0.0
  0
LINE
  5
50D
100
AcDbEntity
  8
0
 62
     0
100
AcDbLine
 10
-14.315314
 20
27.034157
 30
0.0
 11
-14.315314
 21
27.034157
 31
0.0
  0
LINE
  5
50E
100
AcDbEntity
  8
0
 62
     0
100
AcDbLine
 10
-13.022148
 20
28.026438
 30
0.0
 11
-13.022148
 21
28.026438
 31
0.0
  0
LINE
  5
50F
100
AcDbEntity
  8
0
 62
     0
100
AcDbLine
 10
-14.345714
 20
26.201923
 30
0.0
 11
-14.345714
 21
26.201923
 31
0.0
  0
LINE
  5
510
100
AcDbEntity
  8
0
 62
     0
100
AcDbLine
 10
-13.052548
 20
27.194204
 30
0.0
 11
-13.052548
 21
27.194204
 31
0.0
  0
LINE
  5
511
100
AcDbEntity
  8
0
 62
     0
100
AcDbLine
 10
-14.376113
 20
25.369688
 30
0.0
 11
-14.376113
 21
25.369688
 31
0.0
  0
LINE
  5
512
100
AcDbEntity
  8
0
 62
     0
100
AcDbLine
 10
-13.082947
 20
26.361969
 30
0.0
 11
-13.082947
 21
26.361969
 31
0.0
  0
LINE
  5
513
100
AcDbEntity
  8
0
 62
     0
100
AcDbLine
 10
-14.406513
 20
24.537453
 30
0.0
 11
-14.406513
 21
24.537453
 31
0.0
  0
LINE
  5
514
100
AcDbEntity
  8
0
 62
     0
100
AcDbLine
 10
-13.113347
 20
25.529734
 30
0.0
 11
-13.113347
 21
25.529734
 31
0.0
  0
LINE
  5
515
100
AcDbEntity
  8
0
 62
     0
100
AcDbLine
 10
-18.062053
 20
46.192109
 30
0.0
 11
-18.062053
 21
46.192109
 31
0.0
  0
LINE
  5
516
100
AcDbEntity
  8
0
 62
     0
100
AcDbLine
 10
-18.030229
 20
47.095743
 30
0.0
 11
-18.030229
 21
47.095743
 31
0.0
  0
LINE
  5
517
100
AcDbEntity
  8
0
 62
     0
100
AcDbLine
 10
-17.40438
 20
47.178138
 30
0.0
 11
-17.40438
 21
47.178138
 31
0.0
  0
LINE
  5
518
100
AcDbEntity
  8
0
 62
     0
100
AcDbLine
 10
-17.372555
 20
48.081773
 30
0.0
 11
-17.372555
 21
48.081773
 31
0.0
  0
LINE
  5
519
100
AcDbEntity
  8
0
 62
     0
100
AcDbLine
 10
-17.636084
 20
49.845968
 30
0.0
 11
-17.636084
 21
49.845968
 31
0.0
  0
LINE
  5
51A
100
AcDbEntity
  8
0
 62
     0
100
AcDbLine
 10
-17.92524
 20
50.707345
 30
0.0
 11
-17.92524
 21
50.707345
 31
0.0
  0
LINE
  5
51B
100
AcDbEntity
  8
0
 62
     0
100
AcDbLine
 10
-17.893415
 20
51.61098
 30
0.0
 11
-17.893415
 21
51.61098
 31
0.0
  0
LINE
  5
51C
100
AcDbEntity
  8
0
 62
     0
100
AcDbLine
 10
-17.267566
 20
51.693374
 30
0.0
 11
-17.267566
 21
51.693374
 31
0.0
  0
LINE
  5
51D
100
AcDbEntity
  8
0
 62
     0
100
AcDbLine
 10
-14.74186
 20
52.02589
 30
0.0
 11
-14.74186
 21
52.02589
 31
0.0
  0
LINE
  5
51E
100
AcDbEntity
  8
0
 62
     0
100
AcDbLine
 10
-14.11601
 20
52.108285
 30
0.0
 11
-14.11601
 21
52.108285
 31
0.0
  0
LINE
  5
51F
100
AcDbEntity
  8
0
 62
     0
100
AcDbLine
 10
-13.169181
 20
52.232937
 30
0.0
 11
-13.169181
 21
52.232937
 31
0.0
  0
LINE
  5
520
100
AcDbEntity
  8
0
 62
     0
100
AcDbLine
 10
-17.235741
 20
52.597009
 30
0.0
 11
-17.235741
 21
52.597009
 31
0.0
  0
LINE
  5
521
100
AcDbEntity
  8
0
 62
     0
100
AcDbLine
 10
-16.609892
 20
52.679404
 30
0.0
 11
-16.609892
 21
52.679404
 31
0.0
  0
LINE
  5
522
100
AcDbEntity
  8
0
 62
     0
100
AcDbLine
 10
-15.663062
 20
52.804056
 30
0.0
 11
-15.663062
 21
52.804056
 31
0.0
  0
LINE
  5
523
100
AcDbEntity
  8
0
 62
     0
100
AcDbLine
 10
-14.084186
 20
53.011919
 30
0.0
 11
-14.084186
 21
53.011919
 31
0.0
  0
LINE
  5
524
100
AcDbEntity
  8
0
 62
     0
100
AcDbLine
 10
-13.458337
 20
53.094314
 30
0.0
 11
-13.458337
 21
53.094314
 31
0.0
  0
LINE
  5
525
100
AcDbEntity
  8
0
 62
     0
100
AcDbLine
 10
-12.511507
 20
53.218966
 30
0.0
 11
-12.511507
 21
53.218966
 31
0.0
  0
LINE
  5
526
100
AcDbEntity
  8
0
 62
     0
100
AcDbLine
 10
-18.156944
 20
53.375175
 30
0.0
 11
-18.156944
 21
53.375175
 31
0.0
  0
LINE
  5
527
100
AcDbEntity
  8
0
 62
     0
100
AcDbLine
 10
-16.578068
 20
53.583038
 30
0.0
 11
-16.578068
 21
53.583038
 31
0.0
  0
LINE
  5
528
100
AcDbEntity
  8
0
 62
     0
100
AcDbLine
 10
-15.952218
 20
53.665433
 30
0.0
 11
-15.952218
 21
53.665433
 31
0.0
  0
LINE
  5
529
100
AcDbEntity
  8
0
 62
     0
100
AcDbLine
 10
-15.005388
 20
53.790085
 30
0.0
 11
-15.005388
 21
53.790085
 31
0.0
  0
LINE
  5
52A
100
AcDbEntity
  8
0
 62
     0
100
AcDbLine
 10
-13.426512
 20
53.997948
 30
0.0
 11
-13.426512
 21
53.997948
 31
0.0
  0
LINE
  5
52B
100
AcDbEntity
  8
0
 62
     0
100
AcDbLine
 10
-12.800663
 20
54.080343
 30
0.0
 11
-12.800663
 21
54.080343
 31
0.0
  0
LINE
  5
52C
100
AcDbEntity
  8
0
 62
     0
100
AcDbLine
 10
-17.49927
 20
54.361205
 30
0.0
 11
-17.49927
 21
54.361205
 31
0.0
  0
LINE
  5
52D
100
AcDbEntity
  8
0
 62
     0
100
AcDbLine
 10
-15.920394
 20
54.569068
 30
0.0
 11
-15.920394
 21
54.569068
 31
0.0
  0
LINE
  5
52E
100
AcDbEntity
  8
0
 62
     0
100
AcDbLine
 10
-15.294544
 20
54.651462
 30
0.0
 11
-15.294544
 21
54.651462
 31
0.0
  0
LINE
  5
52F
100
AcDbEntity
  8
0
 62
     0
100
AcDbLine
 10
-14.347714
 20
54.776115
 30
0.0
 11
-14.347714
 21
54.776115
 31
0.0
  0
LINE
  5
530
100
AcDbEntity
  8
0
 62
     0
100
AcDbLine
 10
-12.768838
 20
54.983978
 30
0.0
 11
-12.768838
 21
54.983978
 31
0.0
  0
LINE
  5
531
100
AcDbEntity
  8
0
 62
     0
100
AcDbLine
 10
-17.788426
 20
55.222581
 30
0.0
 11
-17.788426
 21
55.222581
 31
0.0
  0
LINE
  5
532
100
AcDbEntity
  8
0
 62
     0
100
AcDbLine
 10
-16.841596
 20
55.347234
 30
0.0
 11
-16.841596
 21
55.347234
 31
0.0
  0
LINE
  5
533
100
AcDbEntity
  8
0
 62
     0
100
AcDbLine
 10
-15.26272
 20
55.555097
 30
0.0
 11
-15.26272
 21
55.555097
 31
0.0
  0
LINE
  5
534
100
AcDbEntity
  8
0
 62
     0
100
AcDbLine
 10
-14.63687
 20
55.637491
 30
0.0
 11
-14.63687
 21
55.637491
 31
0.0
  0
LINE
  5
535
100
AcDbEntity
  8
0
 62
     0
100
AcDbLine
 10
-13.690041
 20
55.762144
 30
0.0
 11
-13.690041
 21
55.762144
 31
0.0
  0
LINE
  5
536
100
AcDbEntity
  8
0
 62
     0
100
AcDbLine
 10
-17.756601
 20
56.126216
 30
0.0
 11
-17.756601
 21
56.126216
 31
0.0
  0
LINE
  5
537
100
AcDbEntity
  8
0
 62
     0
100
AcDbLine
 10
-17.130752
 20
56.208611
 30
0.0
 11
-17.130752
 21
56.208611
 31
0.0
  0
LINE
  5
538
100
AcDbEntity
  8
0
 62
     0
100
AcDbLine
 10
-16.183922
 20
56.333263
 30
0.0
 11
-16.183922
 21
56.333263
 31
0.0
  0
LINE
  5
539
100
AcDbEntity
  8
0
 62
     0
100
AcDbLine
 10
-14.605046
 20
56.541126
 30
0.0
 11
-14.605046
 21
56.541126
 31
0.0
  0
LINE
  5
53A
100
AcDbEntity
  8
0
 62
     0
100
AcDbLine
 10
-13.979197
 20
56.623521
 30
0.0
 11
-13.979197
 21
56.623521
 31
0.0
  0
LINE
  5
53B
100
AcDbEntity
  8
0
 62
     0
100
AcDbLine
 10
-13.032367
 20
56.748173
 30
0.0
 11
-13.032367
 21
56.748173
 31
0.0
  0
LINE
  5
53C
100
AcDbEntity
  8
0
 62
     0
100
AcDbLine
 10
-17.098928
 20
57.112245
 30
0.0
 11
-17.098928
 21
57.112245
 31
0.0
  0
LINE
  5
53D
100
AcDbEntity
  8
0
 62
     0
100
AcDbLine
 10
-16.473078
 20
57.19464
 30
0.0
 11
-16.473078
 21
57.19464
 31
0.0
  0
LINE
  5
53E
100
AcDbEntity
  8
0
 62
     0
100
AcDbLine
 10
-15.526248
 20
57.319292
 30
0.0
 11
-15.526248
 21
57.319292
 31
0.0
  0
LINE
  5
53F
100
AcDbEntity
  8
0
 62
     0
100
AcDbLine
 10
-13.947372
 20
57.527155
 30
0.0
 11
-13.947372
 21
57.527155
 31
0.0
  0
LINE
  5
540
100
AcDbEntity
  8
0
 62
     0
100
AcDbLine
 10
-13.321523
 20
57.60955
 30
0.0
 11
-13.321523
 21
57.60955
 31
0.0
  0
LINE
  5
541
100
AcDbEntity
  8
0
 62
     0
100
AcDbLine
 10
-12.374693
 20
57.734203
 30
0.0
 11
-12.374693
 21
57.734203
 31
0.0
  0
LINE
  5
542
100
AcDbEntity
  8
0
 62
     0
100
AcDbLine
 10
-18.02013
 20
57.890412
 30
0.0
 11
-18.02013
 21
57.890412
 31
0.0
  0
LINE
  5
543
100
AcDbEntity
  8
0
 62
     0
100
AcDbLine
 10
-16.441254
 20
58.098275
 30
0.0
 11
-16.441254
 21
58.098275
 31
0.0
  0
LINE
  5
544
100
AcDbEntity
  8
0
 62
     0
100
AcDbLine
 10
-15.815404
 20
58.180669
 30
0.0
 11
-15.815404
 21
58.180669
 31
0.0
  0
LINE
  5
545
100
AcDbEntity
  8
0
 62
     0
100
AcDbLine
 10
-14.868574
 20
58.305322
 30
0.0
 11
-14.868574
 21
58.305322
 31
0.0
  0
LINE
  5
546
100
AcDbEntity
  8
0
 62
     0
100
AcDbLine
 10
-13.289698
 20
58.513185
 30
0.0
 11
-13.289698
 21
58.513185
 31
0.0
  0
LINE
  5
547
100
AcDbEntity
  8
0
 62
     0
100
AcDbLine
 10
-12.663849
 20
58.595579
 30
0.0
 11
-12.663849
 21
58.595579
 31
0.0
  0
LINE
  5
548
100
AcDbEntity
  8
0
 62
     0
100
AcDbLine
 10
-17.362456
 20
58.876441
 30
0.0
 11
-17.362456
 21
58.876441
 31
0.0
  0
LINE
  5
549
100
AcDbEntity
  8
0
 62
     0
100
AcDbLine
 10
-15.78358
 20
59.084304
 30
0.0
 11
-15.78358
 21
59.084304
 31
0.0
  0
LINE
  5
54A
100
AcDbEntity
  8
0
 62
     0
100
AcDbLine
 10
-15.15773
 20
59.166698
 30
0.0
 11
-15.15773
 21
59.166698
 31
0.0
  0
LINE
  5
54B
100
AcDbEntity
  8
0
 62
     0
100
AcDbLine
 10
-14.210901
 20
59.291351
 30
0.0
 11
-14.210901
 21
59.291351
 31
0.0
  0
LINE
  5
54C
100
AcDbEntity
  8
0
 62
     0
100
AcDbLine
 10
-12.632025
 20
59.499214
 30
0.0
 11
-12.632025
 21
59.499214
 31
0.0
  0
LINE
  5
54D
100
AcDbEntity
  8
0
 62
     0
100
AcDbLine
 10
-17.651612
 20
59.737818
 30
0.0
 11
-17.651612
 21
59.737818
 31
0.0
  0
LINE
  5
54E
100
AcDbEntity
  8
0
 62
     0
100
AcDbLine
 10
-16.704782
 20
59.86247
 30
0.0
 11
-16.704782
 21
59.86247
 31
0.0
  0
LINE
  5
54F
100
AcDbEntity
  8
0
 62
     0
100
AcDbLine
 10
-15.125906
 20
60.070333
 30
0.0
 11
-15.125906
 21
60.070333
 31
0.0
  0
LINE
  5
550
100
AcDbEntity
  8
0
 62
     0
100
AcDbLine
 10
-14.500056
 20
60.152728
 30
0.0
 11
-14.500056
 21
60.152728
 31
0.0
  0
LINE
  5
551
100
AcDbEntity
  8
0
 62
     0
100
AcDbLine
 10
-13.553227
 20
60.27738
 30
0.0
 11
-13.553227
 21
60.27738
 31
0.0
  0
LINE
  5
552
100
AcDbEntity
  8
0
 62
     0
100
AcDbLine
 10
-17.619788
 20
60.641452
 30
0.0
 11
-17.619788
 21
60.641452
 31
0.0
  0
LINE
  5
553
100
AcDbEntity
  8
0
 62
     0
100
AcDbLine
 10
-16.993938
 20
60.723847
 30
0.0
 11
-16.993938
 21
60.723847
 31
0.0
  0
LINE
  5
554
100
AcDbEntity
  8
0
 62
     0
100
AcDbLine
 10
-16.047108
 20
60.848499
 30
0.0
 11
-16.047108
 21
60.848499
 31
0.0
  0
LINE
  5
555
100
AcDbEntity
  8
0
 62
     0
100
AcDbLine
 10
-14.468232
 20
61.056362
 30
0.0
 11
-14.468232
 21
61.056362
 31
0.0
  0
LINE
  5
556
100
AcDbEntity
  8
0
 62
     0
100
AcDbLine
 10
-13.842383
 20
61.138757
 30
0.0
 11
-13.842383
 21
61.138757
 31
0.0
  0
LINE
  5
557
100
AcDbEntity
  8
0
 62
     0
100
AcDbLine
 10
-12.895553
 20
61.26341
 30
0.0
 11
-12.895553
 21
61.26341
 31
0.0
  0
LINE
  5
558
100
AcDbEntity
  8
0
 62
     0
100
AcDbLine
 10
-16.962114
 20
61.627482
 30
0.0
 11
-16.962114
 21
61.627482
 31
0.0
  0
LINE
  5
559
100
AcDbEntity
  8
0
 62
     0
100
AcDbLine
 10
-16.336264
 20
61.709876
 30
0.0
 11
-16.336264
 21
61.709876
 31
0.0
  0
LINE
  5
55A
100
AcDbEntity
  8
0
 62
     0
100
AcDbLine
 10
-15.389434
 20
61.834529
 30
0.0
 11
-15.389434
 21
61.834529
 31
0.0
  0
LINE
  5
55B
100
AcDbEntity
  8
0
 62
     0
100
AcDbLine
 10
-13.810558
 20
62.042392
 30
0.0
 11
-13.810558
 21
62.042392
 31
0.0
  0
LINE
  5
55C
100
AcDbEntity
  8
0
 62
     0
100
AcDbLine
 10
-13.184709
 20
62.124786
 30
0.0
 11
-13.184709
 21
62.124786
 31
0.0
  0
LINE
  5
55D
100
AcDbEntity
  8
0
 62
     0
100
AcDbLine
 10
-12.237879
 20
62.249439
 30
0.0
 11
-12.237879
 21
62.249439
 31
0.0
  0
LINE
  5
55E
100
AcDbEntity
  8
0
 62
     0
100
AcDbLine
 10
-17.883316
 20
62.405648
 30
0.0
 11
-17.883316
 21
62.405648
 31
0.0
  0
LINE
  5
55F
100
AcDbEntity
  8
0
 62
     0
100
AcDbLine
 10
-16.30444
 20
62.613511
 30
0.0
 11
-16.30444
 21
62.613511
 31
0.0
  0
LINE
  5
560
100
AcDbEntity
  8
0
 62
     0
100
AcDbLine
 10
-15.67859
 20
62.695905
 30
0.0
 11
-15.67859
 21
62.695905
 31
0.0
  0
LINE
  5
561
100
AcDbEntity
  8
0
 62
     0
100
AcDbLine
 10
-14.73176
 20
62.820558
 30
0.0
 11
-14.73176
 21
62.820558
 31
0.0
  0
LINE
  5
562
100
AcDbEntity
  8
0
 62
     0
100
AcDbLine
 10
-13.152885
 20
63.028421
 30
0.0
 11
-13.152885
 21
63.028421
 31
0.0
  0
LINE
  5
563
100
AcDbEntity
  8
0
 62
     0
100
AcDbLine
 10
-12.527035
 20
63.110816
 30
0.0
 11
-12.527035
 21
63.110816
 31
0.0
  0
LINE
  5
564
100
AcDbEntity
  8
0
 62
     0
100
AcDbLine
 10
-17.225642
 20
63.391677
 30
0.0
 11
-17.225642
 21
63.391677
 31
0.0
  0
LINE
  5
565
100
AcDbEntity
  8
0
 62
     0
100
AcDbLine
 10
-15.646766
 20
63.59954
 30
0.0
 11
-15.646766
 21
63.59954
 31
0.0
  0
LINE
  5
566
100
AcDbEntity
  8
0
 62
     0
100
AcDbLine
 10
-15.020916
 20
63.681935
 30
0.0
 11
-15.020916
 21
63.681935
 31
0.0
  0
LINE
  5
567
100
AcDbEntity
  8
0
 62
     0
100
AcDbLine
 10
-14.074087
 20
63.806587
 30
0.0
 11
-14.074087
 21
63.806587
 31
0.0
  0
LINE
  5
568
100
AcDbEntity
  8
0
 62
     0
100
AcDbLine
 10
-12.495211
 20
64.01445
 30
0.0
 11
-12.495211
 21
64.01445
 31
0.0
  0
LINE
  5
569
100
AcDbEntity
  8
0
 62
     0
100
AcDbLine
 10
-18.140648
 20
64.170659
 30
0.0
 11
-18.140648
 21
64.170659
 31
0.0
  0
LINE
  5
56A
100
AcDbEntity
  8
0
 62
     0
100
AcDbLine
 10
-17.514798
 20
64.253054
 30
0.0
 11
-17.514798
 21
64.253054
 31
0.0
  0
LINE
  5
56B
100
AcDbEntity
  8
0
 62
     0
100
AcDbLine
 10
-16.567968
 20
64.377706
 30
0.0
 11
-16.567968
 21
64.377706
 31
0.0
  0
LINE
  5
56C
100
AcDbEntity
  8
0
 62
     0
100
AcDbLine
 10
-14.989092
 20
64.585569
 30
0.0
 11
-14.989092
 21
64.585569
 31
0.0
  0
LINE
  5
56D
100
AcDbEntity
  8
0
 62
     0
100
AcDbLine
 10
-14.363243
 20
64.667964
 30
0.0
 11
-14.363243
 21
64.667964
 31
0.0
  0
LINE
  5
56E
100
AcDbEntity
  8
0
 62
     0
100
AcDbLine
 10
-13.416413
 20
64.792617
 30
0.0
 11
-13.416413
 21
64.792617
 31
0.0
  0
LINE
  5
56F
100
AcDbEntity
  8
0
 62
     0
100
AcDbLine
 10
-17.482974
 20
65.156689
 30
0.0
 11
-17.482974
 21
65.156689
 31
0.0
  0
LINE
  5
570
100
AcDbEntity
  8
0
 62
     0
100
AcDbLine
 10
-16.857124
 20
65.239083
 30
0.0
 11
-16.857124
 21
65.239083
 31
0.0
  0
LINE
  5
571
100
AcDbEntity
  8
0
 62
     0
100
AcDbLine
 10
-15.910294
 20
65.363736
 30
0.0
 11
-15.910294
 21
65.363736
 31
0.0
  0
LINE
  5
572
100
AcDbEntity
  8
0
 62
     0
100
AcDbLine
 10
-14.331418
 20
65.571599
 30
0.0
 11
-14.331418
 21
65.571599
 31
0.0
  0
LINE
  5
573
100
AcDbEntity
  8
0
 62
     0
100
AcDbLine
 10
-13.705569
 20
65.653993
 30
0.0
 11
-13.705569
 21
65.653993
 31
0.0
  0
LINE
  5
574
100
AcDbEntity
  8
0
 62
     0
100
AcDbLine
 10
-12.758739
 20
65.778646
 30
0.0
 11
-12.758739
 21
65.778646
 31
0.0
  0
LINE
  5
575
100
AcDbEntity
  8
0
 62
     0
100
AcDbLine
 10
-16.8253
 20
66.142718
 30
0.0
 11
-16.8253
 21
66.142718
 31
0.0
  0
LINE
  5
576
100
AcDbEntity
  8
0
 62
     0
100
AcDbLine
 10
-16.19945
 20
66.225112
 30
0.0
 11
-16.19945
 21
66.225112
 31
0.0
  0
LINE
  5
577
100
AcDbEntity
  8
0
 62
     0
100
AcDbLine
 10
-15.25262
 20
66.349765
 30
0.0
 11
-15.25262
 21
66.349765
 31
0.0
  0
LINE
  5
578
100
AcDbEntity
  8
0
 62
     0
100
AcDbLine
 10
-13.673745
 20
66.557628
 30
0.0
 11
-13.673745
 21
66.557628
 31
0.0
  0
LINE
  5
579
100
AcDbEntity
  8
0
 62
     0
100
AcDbLine
 10
-13.047895
 20
66.640023
 30
0.0
 11
-13.047895
 21
66.640023
 31
0.0
  0
LINE
  5
57A
100
AcDbEntity
  8
0
 62
     0
100
AcDbLine
 10
-17.746502
 20
66.920884
 30
0.0
 11
-17.746502
 21
66.920884
 31
0.0
  0
LINE
  5
57B
100
AcDbEntity
  8
0
 62
     0
100
AcDbLine
 10
-16.167626
 20
67.128747
 30
0.0
 11
-16.167626
 21
67.128747
 31
0.0
  0
LINE
  5
57C
100
AcDbEntity
  8
0
 62
     0
100
AcDbLine
 10
-15.541776
 20
67.211142
 30
0.0
 11
-15.541776
 21
67.211142
 31
0.0
  0
LINE
  5
57D
100
AcDbEntity
  8
0
 62
     0
100
AcDbLine
 10
-14.594947
 20
67.335794
 30
0.0
 11
-14.594947
 21
67.335794
 31
0.0
  0
LINE
  5
57E
100
AcDbEntity
  8
0
 62
     0
100
AcDbLine
 10
-13.016071
 20
67.543657
 30
0.0
 11
-13.016071
 21
67.543657
 31
0.0
  0
LINE
  5
57F
100
AcDbEntity
  8
0
 62
     0
100
AcDbLine
 10
-12.390221
 20
67.626052
 30
0.0
 11
-12.390221
 21
67.626052
 31
0.0
  0
LINE
  5
580
100
AcDbEntity
  8
0
 62
     0
100
AcDbLine
 10
-18.035658
 20
67.782261
 30
0.0
 11
-18.035658
 21
67.782261
 31
0.0
  0
LINE
  5
581
100
AcDbEntity
  8
0
 62
     0
100
AcDbLine
 10
-17.088828
 20
67.906913
 30
0.0
 11
-17.088828
 21
67.906913
 31
0.0
  0
LINE
  5
582
100
AcDbEntity
  8
0
 62
     0
100
AcDbLine
 10
-15.509952
 20
68.114776
 30
0.0
 11
-15.509952
 21
68.114776
 31
0.0
  0
LINE
  5
583
100
AcDbEntity
  8
0
 62
     0
100
AcDbLine
 10
-14.884103
 20
68.197171
 30
0.0
 11
-14.884103
 21
68.197171
 31
0.0
  0
LINE
  5
584
100
AcDbEntity
  8
0
 62
     0
100
AcDbLine
 10
-13.937273
 20
68.321824
 30
0.0
 11
-13.937273
 21
68.321824
 31
0.0
  0
LINE
  5
585
100
AcDbEntity
  8
0
 62
     0
100
AcDbLine
 10
-12.358397
 20
68.529686
 30
0.0
 11
-12.358397
 21
68.529686
 31
0.0
  0
LINE
  5
586
100
AcDbEntity
  8
0
 62
     0
100
AcDbLine
 10
-18.003834
 20
68.685896
 30
0.0
 11
-18.003834
 21
68.685896
 31
0.0
  0
LINE
  5
587
100
AcDbEntity
  8
0
 62
     0
100
AcDbLine
 10
-17.377984
 20
68.76829
 30
0.0
 11
-17.377984
 21
68.76829
 31
0.0
  0
LINE
  5
588
100
AcDbEntity
  8
0
 62
     0
100
AcDbLine
 10
-16.431154
 20
68.892943
 30
0.0
 11
-16.431154
 21
68.892943
 31
0.0
  0
LINE
  5
589
100
AcDbEntity
  8
0
 62
     0
100
AcDbLine
 10
-14.852278
 20
69.100806
 30
0.0
 11
-14.852278
 21
69.100806
 31
0.0
  0
LINE
  5
58A
100
AcDbEntity
  8
0
 62
     0
100
AcDbLine
 10
-13.279599
 20
69.307853
 30
0.0
 11
-13.279599
 21
69.307853
 31
0.0
  0
LINE
  5
58B
100
AcDbEntity
  8
0
 62
     0
100
AcDbLine
 10
-17.34616
 20
69.671925
 30
0.0
 11
-17.34616
 21
69.671925
 31
0.0
  0
LINE
  5
58C
100
AcDbEntity
  8
0
 62
     0
100
AcDbLine
 10
-16.72031
 20
69.754319
 30
0.0
 11
-16.72031
 21
69.754319
 31
0.0
  0
LINE
  5
58D
100
AcDbEntity
  8
0
 62
     0
100
AcDbLine
 10
-15.77348
 20
69.878972
 30
0.0
 11
-15.77348
 21
69.878972
 31
0.0
  0
LINE
  5
58E
100
AcDbEntity
  8
0
 62
     0
100
AcDbLine
 10
-16.688486
 20
70.657954
 30
0.0
 11
-16.688486
 21
70.657954
 31
0.0
  0
LINE
  5
58F
100
AcDbEntity
  8
0
 62
     0
100
AcDbLine
 10
-16.062636
 20
70.740349
 30
0.0
 11
-16.062636
 21
70.740349
 31
0.0
  0
LINE
  5
590
100
AcDbEntity
  8
0
 62
     0
100
AcDbLine
 10
-17.772897
 20
45.330732
 30
0.0
 11
-17.772897
 21
45.330732
 31
0.0
  0
LINE
  5
591
100
AcDbEntity
  8
0
 62
     0
100
AcDbLine
 10
-17.509369
 20
43.566536
 30
0.0
 11
-17.509369
 21
43.566536
 31
0.0
  0
LINE
  5
592
100
AcDbEntity
  8
0
 62
     0
100
AcDbLine
 10
-17.541193
 20
42.662902
 30
0.0
 11
-17.541193
 21
42.662902
 31
0.0
  0
LINE
  5
593
100
AcDbEntity
  8
0
 62
     0
100
AcDbLine
 10
-17.252037
 20
41.801525
 30
0.0
 11
-17.252037
 21
41.801525
 31
0.0
  0
LINE
  5
594
100
AcDbEntity
  8
0
 62
     0
100
AcDbLine
 10
-17.909711
 20
40.815496
 30
0.0
 11
-17.909711
 21
40.815496
 31
0.0
  0
LINE
  5
595
100
AcDbEntity
  8
0
 62
     0
100
AcDbLine
 10
-16.330835
 20
41.023359
 30
0.0
 11
-16.330835
 21
41.023359
 31
0.0
  0
LINE
  5
596
100
AcDbEntity
  8
0
 62
     0
100
AcDbLine
 10
-15.704986
 20
41.105753
 30
0.0
 11
-15.704986
 21
41.105753
 31
0.0
  0
LINE
  5
597
100
AcDbEntity
  8
0
 62
     0
100
AcDbLine
 10
-14.758156
 20
41.230406
 30
0.0
 11
-14.758156
 21
41.230406
 31
0.0
  0
LINE
  5
598
100
AcDbEntity
  8
0
 62
     0
100
AcDbLine
 10
-13.17928
 20
41.438269
 30
0.0
 11
-13.17928
 21
41.438269
 31
0.0
  0
LINE
  5
599
100
AcDbEntity
  8
0
 62
     0
100
AcDbLine
 10
-12.55343
 20
41.520664
 30
0.0
 11
-12.55343
 21
41.520664
 31
0.0
  0
LINE
  5
59A
100
AcDbEntity
  8
0
 62
     0
100
AcDbLine
 10
-16.988509
 20
40.037329
 30
0.0
 11
-16.988509
 21
40.037329
 31
0.0
  0
LINE
  5
59B
100
AcDbEntity
  8
0
 62
     0
100
AcDbLine
 10
-16.36266
 20
40.119724
 30
0.0
 11
-16.36266
 21
40.119724
 31
0.0
  0
LINE
  5
59C
100
AcDbEntity
  8
0
 62
     0
100
AcDbLine
 10
-15.41583
 20
40.244377
 30
0.0
 11
-15.41583
 21
40.244377
 31
0.0
  0
LINE
  5
59D
100
AcDbEntity
  8
0
 62
     0
100
AcDbLine
 10
-13.836954
 20
40.45224
 30
0.0
 11
-13.836954
 21
40.45224
 31
0.0
  0
LINE
  5
59E
100
AcDbEntity
  8
0
 62
     0
100
AcDbLine
 10
-13.211104
 20
40.534634
 30
0.0
 11
-13.211104
 21
40.534634
 31
0.0
  0
LINE
  5
59F
100
AcDbEntity
  8
0
 62
     0
100
AcDbLine
 10
-12.264274
 20
40.659287
 30
0.0
 11
-12.264274
 21
40.659287
 31
0.0
  0
LINE
  5
5A0
100
AcDbEntity
  8
0
 62
     0
100
AcDbLine
 10
-17.646183
 20
39.0513
 30
0.0
 11
-17.646183
 21
39.0513
 31
0.0
  0
LINE
  5
5A1
100
AcDbEntity
  8
0
 62
     0
100
AcDbLine
 10
-17.020333
 20
39.133695
 30
0.0
 11
-17.020333
 21
39.133695
 31
0.0
  0
LINE
  5
5A2
100
AcDbEntity
  8
0
 62
     0
100
AcDbLine
 10
-16.073504
 20
39.258347
 30
0.0
 11
-16.073504
 21
39.258347
 31
0.0
  0
LINE
  5
5A3
100
AcDbEntity
  8
0
 62
     0
100
AcDbLine
 10
-14.494628
 20
39.46621
 30
0.0
 11
-14.494628
 21
39.46621
 31
0.0
  0
LINE
  5
5A4
100
AcDbEntity
  8
0
 62
     0
100
AcDbLine
 10
-13.868778
 20
39.548605
 30
0.0
 11
-13.868778
 21
39.548605
 31
0.0
  0
LINE
  5
5A5
100
AcDbEntity
  8
0
 62
     0
100
AcDbLine
 10
-12.921948
 20
39.673258
 30
0.0
 11
-12.921948
 21
39.673258
 31
0.0
  0
LINE
  5
5A6
100
AcDbEntity
  8
0
 62
     0
100
AcDbLine
 10
-17.678007
 20
38.147666
 30
0.0
 11
-17.678007
 21
38.147666
 31
0.0
  0
LINE
  5
5A7
100
AcDbEntity
  8
0
 62
     0
100
AcDbLine
 10
-16.731177
 20
38.272318
 30
0.0
 11
-16.731177
 21
38.272318
 31
0.0
  0
LINE
  5
5A8
100
AcDbEntity
  8
0
 62
     0
100
AcDbLine
 10
-15.152302
 20
38.480181
 30
0.0
 11
-15.152302
 21
38.480181
 31
0.0
  0
LINE
  5
5A9
100
AcDbEntity
  8
0
 62
     0
100
AcDbLine
 10
-14.526452
 20
38.562576
 30
0.0
 11
-14.526452
 21
38.562576
 31
0.0
  0
LINE
  5
5AA
100
AcDbEntity
  8
0
 62
     0
100
AcDbLine
 10
-13.579622
 20
38.687228
 30
0.0
 11
-13.579622
 21
38.687228
 31
0.0
  0
LINE
  5
5AB
100
AcDbEntity
  8
0
 62
     0
100
AcDbLine
 10
-17.388851
 20
37.286289
 30
0.0
 11
-17.388851
 21
37.286289
 31
0.0
  0
LINE
  5
5AC
100
AcDbEntity
  8
0
 62
     0
100
AcDbLine
 10
-15.809975
 20
37.494152
 30
0.0
 11
-15.809975
 21
37.494152
 31
0.0
  0
LINE
  5
5AD
100
AcDbEntity
  8
0
 62
     0
100
AcDbLine
 10
-15.184126
 20
37.576546
 30
0.0
 11
-15.184126
 21
37.576546
 31
0.0
  0
LINE
  5
5AE
100
AcDbEntity
  8
0
 62
     0
100
AcDbLine
 10
-14.237296
 20
37.701199
 30
0.0
 11
-14.237296
 21
37.701199
 31
0.0
  0
LINE
  5
5AF
100
AcDbEntity
  8
0
 62
     0
100
AcDbLine
 10
-12.65842
 20
37.909062
 30
0.0
 11
-12.65842
 21
37.909062
 31
0.0
  0
LINE
  5
5B0
100
AcDbEntity
  8
0
 62
     0
100
AcDbLine
 10
-18.046525
 20
36.30026
 30
0.0
 11
-18.046525
 21
36.30026
 31
0.0
  0
LINE
  5
5B1
100
AcDbEntity
  8
0
 62
     0
100
AcDbLine
 10
-16.467649
 20
36.508122
 30
0.0
 11
-16.467649
 21
36.508122
 31
0.0
  0
LINE
  5
5B2
100
AcDbEntity
  8
0
 62
     0
100
AcDbLine
 10
-15.8418
 20
36.590517
 30
0.0
 11
-15.8418
 21
36.590517
 31
0.0
  0
LINE
  5
5B3
100
AcDbEntity
  8
0
 62
     0
100
AcDbLine
 10
-14.89497
 20
36.71517
 30
0.0
 11
-14.89497
 21
36.71517
 31
0.0
  0
LINE
  5
5B4
100
AcDbEntity
  8
0
 62
     0
100
AcDbLine
 10
-13.316094
 20
36.923033
 30
0.0
 11
-13.316094
 21
36.923033
 31
0.0
  0
LINE
  5
5B5
100
AcDbEntity
  8
0
 62
     0
100
AcDbLine
 10
-12.690244
 20
37.005427
 30
0.0
 11
-12.690244
 21
37.005427
 31
0.0
  0
LINE
  5
5B6
100
AcDbEntity
  8
0
 62
     0
100
AcDbLine
 10
-17.125323
 20
35.522093
 30
0.0
 11
-17.125323
 21
35.522093
 31
0.0
  0
LINE
  5
5B7
100
AcDbEntity
  8
0
 62
     0
100
AcDbLine
 10
-16.499474
 20
35.604488
 30
0.0
 11
-16.499474
 21
35.604488
 31
0.0
  0
LINE
  5
5B8
100
AcDbEntity
  8
0
 62
     0
100
AcDbLine
 10
-15.552644
 20
35.72914
 30
0.0
 11
-15.552644
 21
35.72914
 31
0.0
  0
LINE
  5
5B9
100
AcDbEntity
  8
0
 62
     0
100
AcDbLine
 10
-13.973768
 20
35.937003
 30
0.0
 11
-13.973768
 21
35.937003
 31
0.0
  0
LINE
  5
5BA
100
AcDbEntity
  8
0
 62
     0
100
AcDbLine
 10
-13.347918
 20
36.019398
 30
0.0
 11
-13.347918
 21
36.019398
 31
0.0
  0
LINE
  5
5BB
100
AcDbEntity
  8
0
 62
     0
100
AcDbLine
 10
-12.401088
 20
36.144051
 30
0.0
 11
-12.401088
 21
36.144051
 31
0.0
  0
LINE
  5
5BC
100
AcDbEntity
  8
0
 62
     0
100
AcDbLine
 10
-17.782997
 20
34.536064
 30
0.0
 11
-17.782997
 21
34.536064
 31
0.0
  0
LINE
  5
5BD
100
AcDbEntity
  8
0
 62
     0
100
AcDbLine
 10
-17.157147
 20
34.618459
 30
0.0
 11
-17.157147
 21
34.618459
 31
0.0
  0
LINE
  5
5BE
100
AcDbEntity
  8
0
 62
     0
100
AcDbLine
 10
-16.210318
 20
34.743111
 30
0.0
 11
-16.210318
 21
34.743111
 31
0.0
  0
LINE
  5
5BF
100
AcDbEntity
  8
0
 62
     0
100
AcDbLine
 10
-14.631442
 20
34.950974
 30
0.0
 11
-14.631442
 21
34.950974
 31
0.0
  0
LINE
  5
5C0
100
AcDbEntity
  8
0
 62
     0
100
AcDbLine
 10
-14.005592
 20
35.033369
 30
0.0
 11
-14.005592
 21
35.033369
 31
0.0
  0
LINE
  5
5C1
100
AcDbEntity
  8
0
 62
     0
100
AcDbLine
 10
-13.058762
 20
35.158021
 30
0.0
 11
-13.058762
 21
35.158021
 31
0.0
  0
LINE
  5
5C2
100
AcDbEntity
  8
0
 62
     0
100
AcDbLine
 10
-17.814821
 20
33.632429
 30
0.0
 11
-17.814821
 21
33.632429
 31
0.0
  0
LINE
  5
5C3
100
AcDbEntity
  8
0
 62
     0
100
AcDbLine
 10
-16.867991
 20
33.757082
 30
0.0
 11
-16.867991
 21
33.757082
 31
0.0
  0
LINE
  5
5C4
100
AcDbEntity
  8
0
 62
     0
100
AcDbLine
 10
-15.289115
 20
33.964945
 30
0.0
 11
-15.289115
 21
33.964945
 31
0.0
  0
LINE
  5
5C5
100
AcDbEntity
  8
0
 62
     0
100
AcDbLine
 10
-14.663266
 20
34.047339
 30
0.0
 11
-14.663266
 21
34.047339
 31
0.0
  0
LINE
  5
5C6
100
AcDbEntity
  8
0
 62
     0
100
AcDbLine
 10
-13.716436
 20
34.171992
 30
0.0
 11
-13.716436
 21
34.171992
 31
0.0
  0
LINE
  5
5C7
100
AcDbEntity
  8
0
 62
     0
100
AcDbLine
 10
-17.525665
 20
32.771053
 30
0.0
 11
-17.525665
 21
32.771053
 31
0.0
  0
LINE
  5
5C8
100
AcDbEntity
  8
0
 62
     0
100
AcDbLine
 10
-15.946789
 20
32.978916
 30
0.0
 11
-15.946789
 21
32.978916
 31
0.0
  0
LINE
  5
5C9
100
AcDbEntity
  8
0
 62
     0
100
AcDbLine
 10
-15.32094
 20
33.06131
 30
0.0
 11
-15.32094
 21
33.06131
 31
0.0
  0
LINE
  5
5CA
100
AcDbEntity
  8
0
 62
     0
100
AcDbLine
 10
-14.37411
 20
33.185963
 30
0.0
 11
-14.37411
 21
33.185963
 31
0.0
  0
LINE
  5
5CB
100
AcDbEntity
  8
0
 62
     0
100
AcDbLine
 10
-12.795234
 20
33.393826
 30
0.0
 11
-12.795234
 21
33.393826
 31
0.0
  0
LINE
  5
5CC
100
AcDbEntity
  8
0
 62
     0
100
AcDbLine
 10
-12.169384
 20
33.47622
 30
0.0
 11
-12.169384
 21
33.47622
 31
0.0
  0
LINE
  5
5CD
100
AcDbEntity
  8
0
 62
     0
100
AcDbLine
 10
-16.604463
 20
31.992886
 30
0.0
 11
-16.604463
 21
31.992886
 31
0.0
  0
LINE
  5
5CE
100
AcDbEntity
  8
0
 62
     0
100
AcDbLine
 10
-15.978614
 20
32.075281
 30
0.0
 11
-15.978614
 21
32.075281
 31
0.0
  0
LINE
  5
5CF
100
AcDbEntity
  8
0
 62
     0
100
AcDbLine
 10
-15.031784
 20
32.199933
 30
0.0
 11
-15.031784
 21
32.199933
 31
0.0
  0
LINE
  5
5D0
100
AcDbEntity
  8
0
 62
     0
100
AcDbLine
 10
-13.452908
 20
32.407796
 30
0.0
 11
-13.452908
 21
32.407796
 31
0.0
  0
LINE
  5
5D1
100
AcDbEntity
  8
0
 62
     0
100
AcDbLine
 10
-12.827058
 20
32.490191
 30
0.0
 11
-12.827058
 21
32.490191
 31
0.0
  0
LINE
  5
5D2
100
AcDbEntity
  8
0
 62
     0
100
AcDbLine
 10
-17.262137
 20
31.006857
 30
0.0
 11
-17.262137
 21
31.006857
 31
0.0
  0
LINE
  5
5D3
100
AcDbEntity
  8
0
 62
     0
100
AcDbLine
 10
-16.636287
 20
31.089252
 30
0.0
 11
-16.636287
 21
31.089252
 31
0.0
  0
LINE
  5
5D4
100
AcDbEntity
  8
0
 62
     0
100
AcDbLine
 10
-15.689458
 20
31.213904
 30
0.0
 11
-15.689458
 21
31.213904
 31
0.0
  0
LINE
  5
5D5
100
AcDbEntity
  8
0
 62
     0
100
AcDbLine
 10
-14.110582
 20
31.421767
 30
0.0
 11
-14.110582
 21
31.421767
 31
0.0
  0
LINE
  5
5D6
100
AcDbEntity
  8
0
 62
     0
100
AcDbLine
 10
-13.484732
 20
31.504162
 30
0.0
 11
-13.484732
 21
31.504162
 31
0.0
  0
LINE
  5
5D7
100
AcDbEntity
  8
0
 62
     0
100
AcDbLine
 10
-12.537902
 20
31.628814
 30
0.0
 11
-12.537902
 21
31.628814
 31
0.0
  0
LINE
  5
5D8
100
AcDbEntity
  8
0
 62
     0
100
AcDbLine
 10
-17.919811
 20
30.020828
 30
0.0
 11
-17.919811
 21
30.020828
 31
0.0
  0
LINE
  5
5D9
100
AcDbEntity
  8
0
 62
     0
100
AcDbLine
 10
-17.293961
 20
30.103222
 30
0.0
 11
-17.293961
 21
30.103222
 31
0.0
  0
LINE
  5
5DA
100
AcDbEntity
  8
0
 62
     0
100
AcDbLine
 10
-16.347131
 20
30.227875
 30
0.0
 11
-16.347131
 21
30.227875
 31
0.0
  0
LINE
  5
5DB
100
AcDbEntity
  8
0
 62
     0
100
AcDbLine
 10
-14.768255
 20
30.435738
 30
0.0
 11
-14.768255
 21
30.435738
 31
0.0
  0
LINE
  5
5DC
100
AcDbEntity
  8
0
 62
     0
100
AcDbLine
 10
-14.142406
 20
30.518132
 30
0.0
 11
-14.142406
 21
30.518132
 31
0.0
  0
LINE
  5
5DD
100
AcDbEntity
  8
0
 62
     0
100
AcDbLine
 10
-13.195576
 20
30.642785
 30
0.0
 11
-13.195576
 21
30.642785
 31
0.0
  0
LINE
  5
5DE
100
AcDbEntity
  8
0
 62
     0
100
AcDbLine
 10
-17.951635
 20
29.117193
 30
0.0
 11
-17.951635
 21
29.117193
 31
0.0
  0
LINE
  5
5DF
100
AcDbEntity
  8
0
 62
     0
100
AcDbLine
 10
-17.004805
 20
29.241846
 30
0.0
 11
-17.004805
 21
29.241846
 31
0.0
  0
LINE
  5
5E0
100
AcDbEntity
  8
0
 62
     0
100
AcDbLine
 10
-15.425929
 20
29.449709
 30
0.0
 11
-15.425929
 21
29.449709
 31
0.0
  0
LINE
  5
5E1
100
AcDbEntity
  8
0
 62
     0
100
AcDbLine
 10
-14.80008
 20
29.532103
 30
0.0
 11
-14.80008
 21
29.532103
 31
0.0
  0
LINE
  5
5E2
100
AcDbEntity
  8
0
 62
     0
100
AcDbLine
 10
-13.85325
 20
29.656756
 30
0.0
 11
-13.85325
 21
29.656756
 31
0.0
  0
LINE
  5
5E3
100
AcDbEntity
  8
0
 62
     0
100
AcDbLine
 10
-12.274374
 20
29.864619
 30
0.0
 11
-12.274374
 21
29.864619
 31
0.0
  0
LINE
  5
5E4
100
AcDbEntity
  8
0
 62
     0
100
AcDbLine
 10
-17.662479
 20
28.255816
 30
0.0
 11
-17.662479
 21
28.255816
 31
0.0
  0
LINE
  5
5E5
100
AcDbEntity
  8
0
 62
     0
100
AcDbLine
 10
-16.083603
 20
28.463679
 30
0.0
 11
-16.083603
 21
28.463679
 31
0.0
  0
LINE
  5
5E6
100
AcDbEntity
  8
0
 62
     0
100
AcDbLine
 10
-15.457754
 20
28.546074
 30
0.0
 11
-15.457754
 21
28.546074
 31
0.0
  0
LINE
  5
5E7
100
AcDbEntity
  8
0
 62
     0
100
AcDbLine
 10
-14.510924
 20
28.670726
 30
0.0
 11
-14.510924
 21
28.670726
 31
0.0
  0
LINE
  5
5E8
100
AcDbEntity
  8
0
 62
     0
100
AcDbLine
 10
-12.932048
 20
28.878589
 30
0.0
 11
-12.932048
 21
28.878589
 31
0.0
  0
LINE
  5
5E9
100
AcDbEntity
  8
0
 62
     0
100
AcDbLine
 10
-12.306198
 20
28.960984
 30
0.0
 11
-12.306198
 21
28.960984
 31
0.0
  0
LINE
  5
5EA
100
AcDbEntity
  8
0
 62
     0
100
AcDbLine
 10
-16.741277
 20
27.47765
 30
0.0
 11
-16.741277
 21
27.47765
 31
0.0
  0
LINE
  5
5EB
100
AcDbEntity
  8
0
 62
     0
100
AcDbLine
 10
-16.115427
 20
27.560045
 30
0.0
 11
-16.115427
 21
27.560045
 31
0.0
  0
LINE
  5
5EC
100
AcDbEntity
  8
0
 62
     0
100
AcDbLine
 10
-15.168598
 20
27.684697
 30
0.0
 11
-15.168598
 21
27.684697
 31
0.0
  0
LINE
  5
5ED
100
AcDbEntity
  8
0
 62
     0
100
AcDbLine
 10
-13.589722
 20
27.89256
 30
0.0
 11
-13.589722
 21
27.89256
 31
0.0
  0
LINE
  5
5EE
100
AcDbEntity
  8
0
 62
     0
100
AcDbLine
 10
-12.963872
 20
27.974955
 30
0.0
 11
-12.963872
 21
27.974955
 31
0.0
  0
LINE
  5
5EF
100
AcDbEntity
  8
0
 62
     0
100
AcDbLine
 10
-17.398951
 20
26.491621
 30
0.0
 11
-17.398951
 21
26.491621
 31
0.0
  0
LINE
  5
5F0
100
AcDbEntity
  8
0
 62
     0
100
AcDbLine
 10
-16.773101
 20
26.574015
 30
0.0
 11
-16.773101
 21
26.574015
 31
0.0
  0
LINE
  5
5F1
100
AcDbEntity
  8
0
 62
     0
100
AcDbLine
 10
-15.826271
 20
26.698668
 30
0.0
 11
-15.826271
 21
26.698668
 31
0.0
  0
LINE
  5
5F2
100
AcDbEntity
  8
0
 62
     0
100
AcDbLine
 10
-14.247395
 20
26.906531
 30
0.0
 11
-14.247395
 21
26.906531
 31
0.0
  0
LINE
  5
5F3
100
AcDbEntity
  8
0
 62
     0
100
AcDbLine
 10
-13.621546
 20
26.988925
 30
0.0
 11
-13.621546
 21
26.988925
 31
0.0
  0
LINE
  5
5F4
100
AcDbEntity
  8
0
 62
     0
100
AcDbLine
 10
-12.674716
 20
27.113578
 30
0.0
 11
-12.674716
 21
27.113578
 31
0.0
  0
LINE
  5
5F5
100
AcDbEntity
  8
0
 62
     0
100
AcDbLine
 10
-18.056625
 20
25.505591
 30
0.0
 11
-18.056625
 21
25.505591
 31
0.0
  0
LINE
  5
5F6
100
AcDbEntity
  8
0
 62
     0
100
AcDbLine
 10
-17.430775
 20
25.587986
 30
0.0
 11
-17.430775
 21
25.587986
 31
0.0
  0
LINE
  5
5F7
100
AcDbEntity
  8
0
 62
     0
100
AcDbLine
 10
-14.905069
 20
25.920502
 30
0.0
 11
-14.905069
 21
25.920502
 31
0.0
  0
LINE
  5
5F8
100
AcDbEntity
  8
0
 62
     0
100
AcDbLine
 10
-14.27922
 20
26.002896
 30
0.0
 11
-14.27922
 21
26.002896
 31
0.0
  0
LINE
  5
5F9
100
AcDbEntity
  8
0
 62
     0
100
AcDbLine
 10
-13.33239
 20
26.127549
 30
0.0
 11
-13.33239
 21
26.127549
 31
0.0
  0
LINE
  5
5FA
100
AcDbEntity
  8
0
 62
     0
100
AcDbLine
 10
-14.936894
 20
25.016867
 30
0.0
 11
-14.936894
 21
25.016867
 31
0.0
  0
LINE
  5
5FB
100
AcDbEntity
  8
0
 62
     0
100
AcDbLine
 10
-13.990064
 20
25.141519
 30
0.0
 11
-13.990064
 21
25.141519
 31
0.0
  0
LINE
  5
5FC
100
AcDbEntity
  8
0
 62
     0
100
AcDbLine
 10
-12.411188
 20
25.349382
 30
0.0
 11
-12.411188
 21
25.349382
 31
0.0
  0
LINE
  5
5FD
100
AcDbEntity
  8
0
 62
     0
100
AcDbLine
 10
-13.726535
 20
23.377324
 30
0.0
 11
-13.726535
 21
23.377324
 31
0.0
  0
LINE
  5
5FE
100
AcDbEntity
  8
0
 62
     0
100
AcDbLine
 10
-17.89041
 20
49.939404
 30
0.0
 11
-17.89041
 21
49.939404
 31
0.0
  0
LINE
  5
5FF
100
AcDbEntity
  8
0
 62
     0
100
AcDbLine
 10
-17.36329
 20
49.603591
 30
0.0
 11
-17.36329
 21
49.603591
 31
0.0
  0
LINE
  5
600
100
AcDbEntity
  8
0
 62
     0
100
AcDbLine
 10
-17.403573
 20
51.216892
 30
0.0
 11
-17.403573
 21
51.216892
 31
0.0
  0
LINE
  5
601
100
AcDbEntity
  8
0
 62
     0
100
AcDbLine
 10
-17.71363
 20
52.208239
 30
0.0
 11
-17.71363
 21
52.208239
 31
0.0
  0
LINE
  5
602
100
AcDbEntity
  8
0
 62
     0
100
AcDbLine
 10
-16.906194
 20
52.487664
 30
0.0
 11
-16.906194
 21
52.487664
 31
0.0
  0
LINE
  5
603
100
AcDbEntity
  8
0
 62
     0
100
AcDbLine
 10
-16.379074
 20
52.151852
 30
0.0
 11
-16.379074
 21
52.151852
 31
0.0
  0
LINE
  5
604
100
AcDbEntity
  8
0
 62
     0
100
AcDbLine
 10
-17.753913
 20
53.82154
 30
0.0
 11
-17.753913
 21
53.82154
 31
0.0
  0
LINE
  5
605
100
AcDbEntity
  8
0
 62
     0
100
AcDbLine
 10
-15.571638
 20
52.431277
 30
0.0
 11
-15.571638
 21
52.431277
 31
0.0
  0
LINE
  5
606
100
AcDbEntity
  8
0
 62
     0
100
AcDbLine
 10
-15.044518
 20
52.095465
 30
0.0
 11
-15.044518
 21
52.095465
 31
0.0
  0
LINE
  5
607
100
AcDbEntity
  8
0
 62
     0
100
AcDbLine
 10
-18.06397
 20
54.812887
 30
0.0
 11
-18.06397
 21
54.812887
 31
0.0
  0
LINE
  5
608
100
AcDbEntity
  8
0
 62
     0
100
AcDbLine
 10
-16.419357
 20
53.765152
 30
0.0
 11
-16.419357
 21
53.765152
 31
0.0
  0
LINE
  5
609
100
AcDbEntity
  8
0
 62
     0
100
AcDbLine
 10
-14.237082
 20
52.37489
 30
0.0
 11
-14.237082
 21
52.37489
 31
0.0
  0
LINE
  5
60A
100
AcDbEntity
  8
0
 62
     0
100
AcDbLine
 10
-13.709962
 20
52.039077
 30
0.0
 11
-13.709962
 21
52.039077
 31
0.0
  0
LINE
  5
60B
100
AcDbEntity
  8
0
 62
     0
100
AcDbLine
 10
-17.256534
 20
55.092312
 30
0.0
 11
-17.256534
 21
55.092312
 31
0.0
  0
LINE
  5
60C
100
AcDbEntity
  8
0
 62
     0
100
AcDbLine
 10
-16.729414
 20
54.756499
 30
0.0
 11
-16.729414
 21
54.756499
 31
0.0
  0
LINE
  5
60D
100
AcDbEntity
  8
0
 62
     0
100
AcDbLine
 10
-15.084801
 20
53.708765
 30
0.0
 11
-15.084801
 21
53.708765
 31
0.0
  0
LINE
  5
60E
100
AcDbEntity
  8
0
 62
     0
100
AcDbLine
 10
-12.902526
 20
52.318503
 30
0.0
 11
-12.902526
 21
52.318503
 31
0.0
  0
LINE
  5
60F
100
AcDbEntity
  8
0
 62
     0
100
AcDbLine
 10
-12.375406
 20
51.98269
 30
0.0
 11
-12.375406
 21
51.98269
 31
0.0
  0
LINE
  5
610
100
AcDbEntity
  8
0
 62
     0
100
AcDbLine
 10
-18.104253
 20
56.426187
 30
0.0
 11
-18.104253
 21
56.426187
 31
0.0
  0
LINE
  5
611
100
AcDbEntity
  8
0
 62
     0
100
AcDbLine
 10
-15.921978
 20
55.035925
 30
0.0
 11
-15.921978
 21
55.035925
 31
0.0
  0
LINE
  5
612
100
AcDbEntity
  8
0
 62
     0
100
AcDbLine
 10
-15.394858
 20
54.700112
 30
0.0
 11
-15.394858
 21
54.700112
 31
0.0
  0
LINE
  5
613
100
AcDbEntity
  8
0
 62
     0
100
AcDbLine
 10
-13.750245
 20
53.652378
 30
0.0
 11
-13.750245
 21
53.652378
 31
0.0
  0
LINE
  5
614
100
AcDbEntity
  8
0
 62
     0
100
AcDbLine
 10
-16.769697
 20
56.3698
 30
0.0
 11
-16.769697
 21
56.3698
 31
0.0
  0
LINE
  5
615
100
AcDbEntity
  8
0
 62
     0
100
AcDbLine
 10
-14.587422
 20
54.979537
 30
0.0
 11
-14.587422
 21
54.979537
 31
0.0
  0
LINE
  5
616
100
AcDbEntity
  8
0
 62
     0
100
AcDbLine
 10
-14.060302
 20
54.643725
 30
0.0
 11
-14.060302
 21
54.643725
 31
0.0
  0
LINE
  5
617
100
AcDbEntity
  8
0
 62
     0
100
AcDbLine
 10
-12.415689
 20
53.595991
 30
0.0
 11
-12.415689
 21
53.595991
 31
0.0
  0
LINE
  5
618
100
AcDbEntity
  8
0
 62
     0
100
AcDbLine
 10
-17.606874
 20
57.696959
 30
0.0
 11
-17.606874
 21
57.696959
 31
0.0
  0
LINE
  5
619
100
AcDbEntity
  8
0
 62
     0
100
AcDbLine
 10
-17.079754
 20
57.361147
 30
0.0
 11
-17.079754
 21
57.361147
 31
0.0
  0
LINE
  5
61A
100
AcDbEntity
  8
0
 62
     0
100
AcDbLine
 10
-15.435141
 20
56.313413
 30
0.0
 11
-15.435141
 21
56.313413
 31
0.0
  0
LINE
  5
61B
100
AcDbEntity
  8
0
 62
     0
100
AcDbLine
 10
-13.252866
 20
54.92315
 30
0.0
 11
-13.252866
 21
54.92315
 31
0.0
  0
LINE
  5
61C
100
AcDbEntity
  8
0
 62
     0
100
AcDbLine
 10
-12.725746
 20
54.587338
 30
0.0
 11
-12.725746
 21
54.587338
 31
0.0
  0
LINE
  5
61D
100
AcDbEntity
  8
0
 62
     0
100
AcDbLine
 10
-16.272318
 20
57.640572
 30
0.0
 11
-16.272318
 21
57.640572
 31
0.0
  0
LINE
  5
61E
100
AcDbEntity
  8
0
 62
     0
100
AcDbLine
 10
-15.745198
 20
57.30476
 30
0.0
 11
-15.745198
 21
57.30476
 31
0.0
  0
LINE
  5
61F
100
AcDbEntity
  8
0
 62
     0
100
AcDbLine
 10
-14.100585
 20
56.257026
 30
0.0
 11
-14.100585
 21
56.257026
 31
0.0
  0
LINE
  5
620
100
AcDbEntity
  8
0
 62
     0
100
AcDbLine
 10
-17.120037
 20
58.974448
 30
0.0
 11
-17.120037
 21
58.974448
 31
0.0
  0
LINE
  5
621
100
AcDbEntity
  8
0
 62
     0
100
AcDbLine
 10
-14.937762
 20
57.584185
 30
0.0
 11
-14.937762
 21
57.584185
 31
0.0
  0
LINE
  5
622
100
AcDbEntity
  8
0
 62
     0
100
AcDbLine
 10
-14.410642
 20
57.248373
 30
0.0
 11
-14.410642
 21
57.248373
 31
0.0
  0
LINE
  5
623
100
AcDbEntity
  8
0
 62
     0
100
AcDbLine
 10
-12.766029
 20
56.200639
 30
0.0
 11
-12.766029
 21
56.200639
 31
0.0
  0
LINE
  5
624
100
AcDbEntity
  8
0
 62
     0
100
AcDbLine
 10
-17.957214
 20
60.301607
 30
0.0
 11
-17.957214
 21
60.301607
 31
0.0
  0
LINE
  5
625
100
AcDbEntity
  8
0
 62
     0
100
AcDbLine
 10
-17.430095
 20
59.965795
 30
0.0
 11
-17.430095
 21
59.965795
 31
0.0
  0
LINE
  5
626
100
AcDbEntity
  8
0
 62
     0
100
AcDbLine
 10
-15.785481
 20
58.918061
 30
0.0
 11
-15.785481
 21
58.918061
 31
0.0
  0
LINE
  5
627
100
AcDbEntity
  8
0
 62
     0
100
AcDbLine
 10
-13.603206
 20
57.527798
 30
0.0
 11
-13.603206
 21
57.527798
 31
0.0
  0
LINE
  5
628
100
AcDbEntity
  8
0
 62
     0
100
AcDbLine
 10
-13.076086
 20
57.191986
 30
0.0
 11
-13.076086
 21
57.191986
 31
0.0
  0
LINE
  5
629
100
AcDbEntity
  8
0
 62
     0
100
AcDbLine
 10
-16.622658
 20
60.24522
 30
0.0
 11
-16.622658
 21
60.24522
 31
0.0
  0
LINE
  5
62A
100
AcDbEntity
  8
0
 62
     0
100
AcDbLine
 10
-16.095538
 20
59.909408
 30
0.0
 11
-16.095538
 21
59.909408
 31
0.0
  0
LINE
  5
62B
100
AcDbEntity
  8
0
 62
     0
100
AcDbLine
 10
-14.450925
 20
58.861673
 30
0.0
 11
-14.450925
 21
58.861673
 31
0.0
  0
LINE
  5
62C
100
AcDbEntity
  8
0
 62
     0
100
AcDbLine
 10
-12.26865
 20
57.471411
 30
0.0
 11
-12.26865
 21
57.471411
 31
0.0
  0
LINE
  5
62D
100
AcDbEntity
  8
0
 62
     0
100
AcDbLine
 10
-17.470377
 20
61.579096
 30
0.0
 11
-17.470377
 21
61.579096
 31
0.0
  0
LINE
  5
62E
100
AcDbEntity
  8
0
 62
     0
100
AcDbLine
 10
-15.288102
 20
60.188833
 30
0.0
 11
-15.288102
 21
60.188833
 31
0.0
  0
LINE
  5
62F
100
AcDbEntity
  8
0
 62
     0
100
AcDbLine
 10
-14.760982
 20
59.853021
 30
0.0
 11
-14.760982
 21
59.853021
 31
0.0
  0
LINE
  5
630
100
AcDbEntity
  8
0
 62
     0
100
AcDbLine
 10
-13.116369
 20
58.805286
 30
0.0
 11
-13.116369
 21
58.805286
 31
0.0
  0
LINE
  5
631
100
AcDbEntity
  8
0
 62
     0
100
AcDbLine
 10
-17.780435
 20
62.570443
 30
0.0
 11
-17.780435
 21
62.570443
 31
0.0
  0
LINE
  5
632
100
AcDbEntity
  8
0
 62
     0
100
AcDbLine
 10
-16.135821
 20
61.522708
 30
0.0
 11
-16.135821
 21
61.522708
 31
0.0
  0
LINE
  5
633
100
AcDbEntity
  8
0
 62
     0
100
AcDbLine
 10
-13.953546
 20
60.132446
 30
0.0
 11
-13.953546
 21
60.132446
 31
0.0
  0
LINE
  5
634
100
AcDbEntity
  8
0
 62
     0
100
AcDbLine
 10
-13.426426
 20
59.796633
 30
0.0
 11
-13.426426
 21
59.796633
 31
0.0
  0
LINE
  5
635
100
AcDbEntity
  8
0
 62
     0
100
AcDbLine
 10
-16.972998
 20
62.849868
 30
0.0
 11
-16.972998
 21
62.849868
 31
0.0
  0
LINE
  5
636
100
AcDbEntity
  8
0
 62
     0
100
AcDbLine
 10
-16.445879
 20
62.514055
 30
0.0
 11
-16.445879
 21
62.514055
 31
0.0
  0
LINE
  5
637
100
AcDbEntity
  8
0
 62
     0
100
AcDbLine
 10
-14.801265
 20
61.466321
 30
0.0
 11
-14.801265
 21
61.466321
 31
0.0
  0
LINE
  5
638
100
AcDbEntity
  8
0
 62
     0
100
AcDbLine
 10
-12.61899
 20
60.076058
 30
0.0
 11
-12.61899
 21
60.076058
 31
0.0
  0
LINE
  5
639
100
AcDbEntity
  8
0
 62
     0
100
AcDbLine
 10
-17.820717
 20
64.183743
 30
0.0
 11
-17.820717
 21
64.183743
 31
0.0
  0
LINE
  5
63A
100
AcDbEntity
  8
0
 62
     0
100
AcDbLine
 10
-15.638442
 20
62.79348
 30
0.0
 11
-15.638442
 21
62.79348
 31
0.0
  0
LINE
  5
63B
100
AcDbEntity
  8
0
 62
     0
100
AcDbLine
 10
-15.111322
 20
62.457668
 30
0.0
 11
-15.111322
 21
62.457668
 31
0.0
  0
LINE
  5
63C
100
AcDbEntity
  8
0
 62
     0
100
AcDbLine
 10
-13.466709
 20
61.409934
 30
0.0
 11
-13.466709
 21
61.409934
 31
0.0
  0
LINE
  5
63D
100
AcDbEntity
  8
0
 62
     0
100
AcDbLine
 10
-18.130775
 20
65.17509
 30
0.0
 11
-18.130775
 21
65.17509
 31
0.0
  0
LINE
  5
63E
100
AcDbEntity
  8
0
 62
     0
100
AcDbLine
 10
-16.486161
 20
64.127356
 30
0.0
 11
-16.486161
 21
64.127356
 31
0.0
  0
LINE
  5
63F
100
AcDbEntity
  8
0
 62
     0
100
AcDbLine
 10
-14.303886
 20
62.737093
 30
0.0
 11
-14.303886
 21
62.737093
 31
0.0
  0
LINE
  5
640
100
AcDbEntity
  8
0
 62
     0
100
AcDbLine
 10
-13.776766
 20
62.401281
 30
0.0
 11
-13.776766
 21
62.401281
 31
0.0
  0
LINE
  5
641
100
AcDbEntity
  8
0
 62
     0
100
AcDbLine
 10
-17.323338
 20
65.454515
 30
0.0
 11
-17.323338
 21
65.454515
 31
0.0
  0
LINE
  5
642
100
AcDbEntity
  8
0
 62
     0
100
AcDbLine
 10
-16.796219
 20
65.118703
 30
0.0
 11
-16.796219
 21
65.118703
 31
0.0
  0
LINE
  5
643
100
AcDbEntity
  8
0
 62
     0
100
AcDbLine
 10
-15.151605
 20
64.070969
 30
0.0
 11
-15.151605
 21
64.070969
 31
0.0
  0
LINE
  5
644
100
AcDbEntity
  8
0
 62
     0
100
AcDbLine
 10
-12.96933
 20
62.680706
 30
0.0
 11
-12.96933
 21
62.680706
 31
0.0
  0
LINE
  5
645
100
AcDbEntity
  8
0
 62
     0
100
AcDbLine
 10
-12.44221
 20
62.344894
 30
0.0
 11
-12.44221
 21
62.344894
 31
0.0
  0
LINE
  5
646
100
AcDbEntity
  8
0
 62
     0
100
AcDbLine
 10
-15.988782
 20
65.398128
 30
0.0
 11
-15.988782
 21
65.398128
 31
0.0
  0
LINE
  5
647
100
AcDbEntity
  8
0
 62
     0
100
AcDbLine
 10
-15.461662
 20
65.062316
 30
0.0
 11
-15.461662
 21
65.062316
 31
0.0
  0
LINE
  5
648
100
AcDbEntity
  8
0
 62
     0
100
AcDbLine
 10
-13.817049
 20
64.014582
 30
0.0
 11
-13.817049
 21
64.014582
 31
0.0
  0
LINE
  5
649
100
AcDbEntity
  8
0
 62
     0
100
AcDbLine
 10
-16.836501
 20
66.732004
 30
0.0
 11
-16.836501
 21
66.732004
 31
0.0
  0
LINE
  5
64A
100
AcDbEntity
  8
0
 62
     0
100
AcDbLine
 10
-14.654226
 20
65.341741
 30
0.0
 11
-14.654226
 21
65.341741
 31
0.0
  0
LINE
  5
64B
100
AcDbEntity
  8
0
 62
     0
100
AcDbLine
 10
-14.127106
 20
65.005929
 30
0.0
 11
-14.127106
 21
65.005929
 31
0.0
  0
LINE
  5
64C
100
AcDbEntity
  8
0
 62
     0
100
AcDbLine
 10
-12.482493
 20
63.958194
 30
0.0
 11
-12.482493
 21
63.958194
 31
0.0
  0
LINE
  5
64D
100
AcDbEntity
  8
0
 62
     0
100
AcDbLine
 10
-17.673678
 20
68.059163
 30
0.0
 11
-17.673678
 21
68.059163
 31
0.0
  0
LINE
  5
64E
100
AcDbEntity
  8
0
 62
     0
100
AcDbLine
 10
-17.146559
 20
67.723351
 30
0.0
 11
-17.146559
 21
67.723351
 31
0.0
  0
LINE
  5
64F
100
AcDbEntity
  8
0
 62
     0
100
AcDbLine
 10
-15.501945
 20
66.675617
 30
0.0
 11
-15.501945
 21
66.675617
 31
0.0
  0
LINE
  5
650
100
AcDbEntity
  8
0
 62
     0
100
AcDbLine
 10
-13.31967
 20
65.285354
 30
0.0
 11
-13.31967
 21
65.285354
 31
0.0
  0
LINE
  5
651
100
AcDbEntity
  8
0
 62
     0
100
AcDbLine
 10
-12.79255
 20
64.949542
 30
0.0
 11
-12.79255
 21
64.949542
 31
0.0
  0
LINE
  5
652
100
AcDbEntity
  8
0
 62
     0
100
AcDbLine
 10
-16.339122
 20
68.002776
 30
0.0
 11
-16.339122
 21
68.002776
 31
0.0
  0
LINE
  5
653
100
AcDbEntity
  8
0
 62
     0
100
AcDbLine
 10
-15.812003
 20
67.666964
 30
0.0
 11
-15.812003
 21
67.666964
 31
0.0
  0
LINE
  5
654
100
AcDbEntity
  8
0
 62
     0
100
AcDbLine
 10
-14.167389
 20
66.619229
 30
0.0
 11
-14.167389
 21
66.619229
 31
0.0
  0
LINE
  5
655
100
AcDbEntity
  8
0
 62
     0
100
AcDbLine
 10
-17.186841
 20
69.336651
 30
0.0
 11
-17.186841
 21
69.336651
 31
0.0
  0
LINE
  5
656
100
AcDbEntity
  8
0
 62
     0
100
AcDbLine
 10
-15.004566
 20
67.946389
 30
0.0
 11
-15.004566
 21
67.946389
 31
0.0
  0
LINE
  5
657
100
AcDbEntity
  8
0
 62
     0
100
AcDbLine
 10
-14.477446
 20
67.610576
 30
0.0
 11
-14.477446
 21
67.610576
 31
0.0
  0
LINE
  5
658
100
AcDbEntity
  8
0
 62
     0
100
AcDbLine
 10
-12.832833
 20
66.562842
 30
0.0
 11
-12.832833
 21
66.562842
 31
0.0
  0
LINE
  5
659
100
AcDbEntity
  8
0
 62
     0
100
AcDbLine
 10
-15.852285
 20
69.280264
 30
0.0
 11
-15.852285
 21
69.280264
 31
0.0
  0
LINE
  5
65A
100
AcDbEntity
  8
0
 62
     0
100
AcDbLine
 10
-13.67001
 20
67.890001
 30
0.0
 11
-13.67001
 21
67.890001
 31
0.0
  0
LINE
  5
65B
100
AcDbEntity
  8
0
 62
     0
100
AcDbLine
 10
-13.14289
 20
67.554189
 30
0.0
 11
-13.14289
 21
67.554189
 31
0.0
  0
LINE
  5
65C
100
AcDbEntity
  8
0
 62
     0
100
AcDbLine
 10
-16.689462
 20
70.607424
 30
0.0
 11
-16.689462
 21
70.607424
 31
0.0
  0
LINE
  5
65D
100
AcDbEntity
  8
0
 62
     0
100
AcDbLine
 10
-16.162343
 20
70.271611
 30
0.0
 11
-16.162343
 21
70.271611
 31
0.0
  0
LINE
  5
65E
100
AcDbEntity
  8
0
 62
     0
100
AcDbLine
 10
-12.335454
 20
67.833614
 30
0.0
 11
-12.335454
 21
67.833614
 31
0.0
  0
LINE
  5
65F
100
AcDbEntity
  8
0
 62
     0
100
AcDbLine
 10
-13.183173
 20
69.16749
 30
0.0
 11
-13.183173
 21
69.16749
 31
0.0
  0
LINE
  5
660
100
AcDbEntity
  8
0
 62
     0
100
AcDbLine
 10
-17.54007
 20
47.334756
 30
0.0
 11
-17.54007
 21
47.334756
 31
0.0
  0
LINE
  5
661
100
AcDbEntity
  8
0
 62
     0
100
AcDbLine
 10
-18.037449
 20
46.063984
 30
0.0
 11
-18.037449
 21
46.063984
 31
0.0
  0
LINE
  5
662
100
AcDbEntity
  8
0
 62
     0
100
AcDbLine
 10
-17.18973
 20
44.730108
 30
0.0
 11
-17.18973
 21
44.730108
 31
0.0
  0
LINE
  5
663
100
AcDbEntity
  8
0
 62
     0
100
AcDbLine
 10
-12.835722
 20
41.956299
 30
0.0
 11
-12.835722
 21
41.956299
 31
0.0
  0
LINE
  5
664
100
AcDbEntity
  8
0
 62
     0
100
AcDbLine
 10
-12.308602
 20
41.620487
 30
0.0
 11
-12.308602
 21
41.620487
 31
0.0
  0
LINE
  5
665
100
AcDbEntity
  8
0
 62
     0
100
AcDbLine
 10
-17.997166
 20
44.450683
 30
0.0
 11
-17.997166
 21
44.450683
 31
0.0
  0
LINE
  5
666
100
AcDbEntity
  8
0
 62
     0
100
AcDbLine
 10
-13.643158
 20
41.676874
 30
0.0
 11
-13.643158
 21
41.676874
 31
0.0
  0
LINE
  5
667
100
AcDbEntity
  8
0
 62
     0
100
AcDbLine
 10
-17.687109
 20
43.459336
 30
0.0
 11
-17.687109
 21
43.459336
 31
0.0
  0
LINE
  5
668
100
AcDbEntity
  8
0
 62
     0
100
AcDbLine
 10
-14.977714
 20
41.733261
 30
0.0
 11
-14.977714
 21
41.733261
 31
0.0
  0
LINE
  5
669
100
AcDbEntity
  8
0
 62
     0
100
AcDbLine
 10
-13.333101
 20
40.685527
 30
0.0
 11
-13.333101
 21
40.685527
 31
0.0
  0
LINE
  5
66A
100
AcDbEntity
  8
0
 62
     0
100
AcDbLine
 10
-16.31227
 20
41.789648
 30
0.0
 11
-16.31227
 21
41.789648
 31
0.0
  0
LINE
  5
66B
100
AcDbEntity
  8
0
 62
     0
100
AcDbLine
 10
-14.667657
 20
40.741914
 30
0.0
 11
-14.667657
 21
40.741914
 31
0.0
  0
LINE
  5
66C
100
AcDbEntity
  8
0
 62
     0
100
AcDbLine
 10
-12.485381
 20
39.351651
 30
0.0
 11
-12.485381
 21
39.351651
 31
0.0
  0
LINE
  5
66D
100
AcDbEntity
  8
0
 62
     0
100
AcDbLine
 10
-17.646826
 20
41.846035
 30
0.0
 11
-17.646826
 21
41.846035
 31
0.0
  0
LINE
  5
66E
100
AcDbEntity
  8
0
 62
     0
100
AcDbLine
 10
-16.002213
 20
40.798301
 30
0.0
 11
-16.002213
 21
40.798301
 31
0.0
  0
LINE
  5
66F
100
AcDbEntity
  8
0
 62
     0
100
AcDbLine
 10
-13.819938
 20
39.408038
 30
0.0
 11
-13.819938
 21
39.408038
 31
0.0
  0
LINE
  5
670
100
AcDbEntity
  8
0
 62
     0
100
AcDbLine
 10
-13.292818
 20
39.072226
 30
0.0
 11
-13.292818
 21
39.072226
 31
0.0
  0
LINE
  5
671
100
AcDbEntity
  8
0
 62
     0
100
AcDbLine
 10
-17.336769
 20
40.854688
 30
0.0
 11
-17.336769
 21
40.854688
 31
0.0
  0
LINE
  5
672
100
AcDbEntity
  8
0
 62
     0
100
AcDbLine
 10
-15.154494
 20
39.464426
 30
0.0
 11
-15.154494
 21
39.464426
 31
0.0
  0
LINE
  5
673
100
AcDbEntity
  8
0
 62
     0
100
AcDbLine
 10
-14.627374
 20
39.128613
 30
0.0
 11
-14.627374
 21
39.128613
 31
0.0
  0
LINE
  5
674
100
AcDbEntity
  8
0
 62
     0
100
AcDbLine
 10
-12.982761
 20
38.080879
 30
0.0
 11
-12.982761
 21
38.080879
 31
0.0
  0
LINE
  5
675
100
AcDbEntity
  8
0
 62
     0
100
AcDbLine
 10
-16.48905
 20
39.520813
 30
0.0
 11
-16.48905
 21
39.520813
 31
0.0
  0
LINE
  5
676
100
AcDbEntity
  8
0
 62
     0
100
AcDbLine
 10
-15.96193
 20
39.185001
 30
0.0
 11
-15.96193
 21
39.185001
 31
0.0
  0
LINE
  5
677
100
AcDbEntity
  8
0
 62
     0
100
AcDbLine
 10
-14.317317
 20
38.137266
 30
0.0
 11
-14.317317
 21
38.137266
 31
0.0
  0
LINE
  5
678
100
AcDbEntity
  8
0
 62
     0
100
AcDbLine
 10
-17.823606
 20
39.5772
 30
0.0
 11
-17.823606
 21
39.5772
 31
0.0
  0
LINE
  5
679
100
AcDbEntity
  8
0
 62
     0
100
AcDbLine
 10
-17.296486
 20
39.241388
 30
0.0
 11
-17.296486
 21
39.241388
 31
0.0
  0
LINE
  5
67A
100
AcDbEntity
  8
0
 62
     0
100
AcDbLine
 10
-15.651873
 20
38.193653
 30
0.0
 11
-15.651873
 21
38.193653
 31
0.0
  0
LINE
  5
67B
100
AcDbEntity
  8
0
 62
     0
100
AcDbLine
 10
-13.469597
 20
36.803391
 30
0.0
 11
-13.469597
 21
36.803391
 31
0.0
  0
LINE
  5
67C
100
AcDbEntity
  8
0
 62
     0
100
AcDbLine
 10
-12.942478
 20
36.467578
 30
0.0
 11
-12.942478
 21
36.467578
 31
0.0
  0
LINE
  5
67D
100
AcDbEntity
  8
0
 62
     0
100
AcDbLine
 10
-16.986429
 20
38.250041
 30
0.0
 11
-16.986429
 21
38.250041
 31
0.0
  0
LINE
  5
67E
100
AcDbEntity
  8
0
 62
     0
100
AcDbLine
 10
-14.804154
 20
36.859778
 30
0.0
 11
-14.804154
 21
36.859778
 31
0.0
  0
LINE
  5
67F
100
AcDbEntity
  8
0
 62
     0
100
AcDbLine
 10
-14.277034
 20
36.523966
 30
0.0
 11
-14.277034
 21
36.523966
 31
0.0
  0
LINE
  5
680
100
AcDbEntity
  8
0
 62
     0
100
AcDbLine
 10
-12.632421
 20
35.476231
 30
0.0
 11
-12.632421
 21
35.476231
 31
0.0
  0
LINE
  5
681
100
AcDbEntity
  8
0
 62
     0
100
AcDbLine
 10
-16.13871
 20
36.916165
 30
0.0
 11
-16.13871
 21
36.916165
 31
0.0
  0
LINE
  5
682
100
AcDbEntity
  8
0
 62
     0
100
AcDbLine
 10
-15.61159
 20
36.580353
 30
0.0
 11
-15.61159
 21
36.580353
 31
0.0
  0
LINE
  5
683
100
AcDbEntity
  8
0
 62
     0
100
AcDbLine
 10
-13.966977
 20
35.532619
 30
0.0
 11
-13.966977
 21
35.532619
 31
0.0
  0
LINE
  5
684
100
AcDbEntity
  8
0
 62
     0
100
AcDbLine
 10
-17.473266
 20
36.972552
 30
0.0
 11
-17.473266
 21
36.972552
 31
0.0
  0
LINE
  5
685
100
AcDbEntity
  8
0
 62
     0
100
AcDbLine
 10
-16.946146
 20
36.63674
 30
0.0
 11
-16.946146
 21
36.63674
 31
0.0
  0
LINE
  5
686
100
AcDbEntity
  8
0
 62
     0
100
AcDbLine
 10
-15.301533
 20
35.589006
 30
0.0
 11
-15.301533
 21
35.589006
 31
0.0
  0
LINE
  5
687
100
AcDbEntity
  8
0
 62
     0
100
AcDbLine
 10
-13.119257
 20
34.198743
 30
0.0
 11
-13.119257
 21
34.198743
 31
0.0
  0
LINE
  5
688
100
AcDbEntity
  8
0
 62
     0
100
AcDbLine
 10
-12.592138
 20
33.862931
 30
0.0
 11
-12.592138
 21
33.862931
 31
0.0
  0
LINE
  5
689
100
AcDbEntity
  8
0
 62
     0
100
AcDbLine
 10
-16.636089
 20
35.645393
 30
0.0
 11
-16.636089
 21
35.645393
 31
0.0
  0
LINE
  5
68A
100
AcDbEntity
  8
0
 62
     0
100
AcDbLine
 10
-14.453814
 20
34.25513
 30
0.0
 11
-14.453814
 21
34.25513
 31
0.0
  0
LINE
  5
68B
100
AcDbEntity
  8
0
 62
     0
100
AcDbLine
 10
-13.926694
 20
33.919318
 30
0.0
 11
-13.926694
 21
33.919318
 31
0.0
  0
LINE
  5
68C
100
AcDbEntity
  8
0
 62
     0
100
AcDbLine
 10
-12.282081
 20
32.871584
 30
0.0
 11
-12.282081
 21
32.871584
 31
0.0
  0
LINE
  5
68D
100
AcDbEntity
  8
0
 62
     0
100
AcDbLine
 10
-17.970645
 20
35.70178
 30
0.0
 11
-17.970645
 21
35.70178
 31
0.0
  0
LINE
  5
68E
100
AcDbEntity
  8
0
 62
     0
100
AcDbLine
 10
-15.78837
 20
34.311517
 30
0.0
 11
-15.78837
 21
34.311517
 31
0.0
  0
LINE
  5
68F
100
AcDbEntity
  8
0
 62
     0
100
AcDbLine
 10
-15.26125
 20
33.975705
 30
0.0
 11
-15.26125
 21
33.975705
 31
0.0
  0
LINE
  5
690
100
AcDbEntity
  8
0
 62
     0
100
AcDbLine
 10
-13.616637
 20
32.927971
 30
0.0
 11
-13.616637
 21
32.927971
 31
0.0
  0
LINE
  5
691
100
AcDbEntity
  8
0
 62
     0
100
AcDbLine
 10
-17.122926
 20
34.367905
 30
0.0
 11
-17.122926
 21
34.367905
 31
0.0
  0
LINE
  5
692
100
AcDbEntity
  8
0
 62
     0
100
AcDbLine
 10
-16.595806
 20
34.032092
 30
0.0
 11
-16.595806
 21
34.032092
 31
0.0
  0
LINE
  5
693
100
AcDbEntity
  8
0
 62
     0
100
AcDbLine
 10
-14.951193
 20
32.984358
 30
0.0
 11
-14.951193
 21
32.984358
 31
0.0
  0
LINE
  5
694
100
AcDbEntity
  8
0
 62
     0
100
AcDbLine
 10
-12.768917
 20
31.594095
 30
0.0
 11
-12.768917
 21
31.594095
 31
0.0
  0
LINE
  5
695
100
AcDbEntity
  8
0
 62
     0
100
AcDbLine
 10
-12.241798
 20
31.258283
 30
0.0
 11
-12.241798
 21
31.258283
 31
0.0
  0
LINE
  5
696
100
AcDbEntity
  8
0
 62
     0
100
AcDbLine
 10
-17.930362
 20
34.08848
 30
0.0
 11
-17.930362
 21
34.08848
 31
0.0
  0
LINE
  5
697
100
AcDbEntity
  8
0
 62
     0
100
AcDbLine
 10
-16.285749
 20
33.040745
 30
0.0
 11
-16.285749
 21
33.040745
 31
0.0
  0
LINE
  5
698
100
AcDbEntity
  8
0
 62
     0
100
AcDbLine
 10
-14.103473
 20
31.650483
 30
0.0
 11
-14.103473
 21
31.650483
 31
0.0
  0
LINE
  5
699
100
AcDbEntity
  8
0
 62
     0
100
AcDbLine
 10
-13.576354
 20
31.31467
 30
0.0
 11
-13.576354
 21
31.31467
 31
0.0
  0
LINE
  5
69A
100
AcDbEntity
  8
0
 62
     0
100
AcDbLine
 10
-17.620305
 20
33.097132
 30
0.0
 11
-17.620305
 21
33.097132
 31
0.0
  0
LINE
  5
69B
100
AcDbEntity
  8
0
 62
     0
100
AcDbLine
 10
-15.43803
 20
31.70687
 30
0.0
 11
-15.43803
 21
31.70687
 31
0.0
  0
LINE
  5
69C
100
AcDbEntity
  8
0
 62
     0
100
AcDbLine
 10
-14.91091
 20
31.371057
 30
0.0
 11
-14.91091
 21
31.371057
 31
0.0
  0
LINE
  5
69D
100
AcDbEntity
  8
0
 62
     0
100
AcDbLine
 10
-13.266297
 20
30.323323
 30
0.0
 11
-13.266297
 21
30.323323
 31
0.0
  0
LINE
  5
69E
100
AcDbEntity
  8
0
 62
     0
100
AcDbLine
 10
-16.772586
 20
31.763257
 30
0.0
 11
-16.772586
 21
31.763257
 31
0.0
  0
LINE
  5
69F
100
AcDbEntity
  8
0
 62
     0
100
AcDbLine
 10
-16.245466
 20
31.427445
 30
0.0
 11
-16.245466
 21
31.427445
 31
0.0
  0
LINE
  5
6A0
100
AcDbEntity
  8
0
 62
     0
100
AcDbLine
 10
-14.600853
 20
30.37971
 30
0.0
 11
-14.600853
 21
30.37971
 31
0.0
  0
LINE
  5
6A1
100
AcDbEntity
  8
0
 62
     0
100
AcDbLine
 10
-12.418577
 20
28.989448
 30
0.0
 11
-12.418577
 21
28.989448
 31
0.0
  0
LINE
  5
6A2
100
AcDbEntity
  8
0
 62
     0
100
AcDbLine
 10
-18.107142
 20
31.819644
 30
0.0
 11
-18.107142
 21
31.819644
 31
0.0
  0
LINE
  5
6A3
100
AcDbEntity
  8
0
 62
     0
100
AcDbLine
 10
-17.580022
 20
31.483832
 30
0.0
 11
-17.580022
 21
31.483832
 31
0.0
  0
LINE
  5
6A4
100
AcDbEntity
  8
0
 62
     0
100
AcDbLine
 10
-15.935409
 20
30.436098
 30
0.0
 11
-15.935409
 21
30.436098
 31
0.0
  0
LINE
  5
6A5
100
AcDbEntity
  8
0
 62
     0
100
AcDbLine
 10
-13.753133
 20
29.045835
 30
0.0
 11
-13.753133
 21
29.045835
 31
0.0
  0
LINE
  5
6A6
100
AcDbEntity
  8
0
 62
     0
100
AcDbLine
 10
-13.226014
 20
28.710023
 30
0.0
 11
-13.226014
 21
28.710023
 31
0.0
  0
LINE
  5
6A7
100
AcDbEntity
  8
0
 62
     0
100
AcDbLine
 10
-17.269965
 20
30.492485
 30
0.0
 11
-17.269965
 21
30.492485
 31
0.0
  0
LINE
  5
6A8
100
AcDbEntity
  8
0
 62
     0
100
AcDbLine
 10
-15.087689
 20
29.102222
 30
0.0
 11
-15.087689
 21
29.102222
 31
0.0
  0
LINE
  5
6A9
100
AcDbEntity
  8
0
 62
     0
100
AcDbLine
 10
-14.56057
 20
28.76641
 30
0.0
 11
-14.56057
 21
28.76641
 31
0.0
  0
LINE
  5
6AA
100
AcDbEntity
  8
0
 62
     0
100
AcDbLine
 10
-12.915956
 20
27.718676
 30
0.0
 11
-12.915956
 21
27.718676
 31
0.0
  0
LINE
  5
6AB
100
AcDbEntity
  8
0
 62
     0
100
AcDbLine
 10
-16.422246
 20
29.158609
 30
0.0
 11
-16.422246
 21
29.158609
 31
0.0
  0
LINE
  5
6AC
100
AcDbEntity
  8
0
 62
     0
100
AcDbLine
 10
-15.895126
 20
28.822797
 30
0.0
 11
-15.895126
 21
28.822797
 31
0.0
  0
LINE
  5
6AD
100
AcDbEntity
  8
0
 62
     0
100
AcDbLine
 10
-14.250513
 20
27.775063
 30
0.0
 11
-14.250513
 21
27.775063
 31
0.0
  0
LINE
  5
6AE
100
AcDbEntity
  8
0
 62
     0
100
AcDbLine
 10
-17.756802
 20
29.214996
 30
0.0
 11
-17.756802
 21
29.214996
 31
0.0
  0
LINE
  5
6AF
100
AcDbEntity
  8
0
 62
     0
100
AcDbLine
 10
-17.229682
 20
28.879184
 30
0.0
 11
-17.229682
 21
28.879184
 31
0.0
  0
LINE
  5
6B0
100
AcDbEntity
  8
0
 62
     0
100
AcDbLine
 10
-15.585069
 20
27.83145
 30
0.0
 11
-15.585069
 21
27.83145
 31
0.0
  0
LINE
  5
6B1
100
AcDbEntity
  8
0
 62
     0
100
AcDbLine
 10
-13.402793
 20
26.441187
 30
0.0
 11
-13.402793
 21
26.441187
 31
0.0
  0
LINE
  5
6B2
100
AcDbEntity
  8
0
 62
     0
100
AcDbLine
 10
-12.875674
 20
26.105375
 30
0.0
 11
-12.875674
 21
26.105375
 31
0.0
  0
LINE
  5
6B3
100
AcDbEntity
  8
0
 62
     0
100
AcDbLine
 10
-16.919625
 20
27.887837
 30
0.0
 11
-16.919625
 21
27.887837
 31
0.0
  0
LINE
  5
6B4
100
AcDbEntity
  8
0
 62
     0
100
AcDbLine
 10
-14.737349
 20
26.497574
 30
0.0
 11
-14.737349
 21
26.497574
 31
0.0
  0
LINE
  5
6B5
100
AcDbEntity
  8
0
 62
     0
100
AcDbLine
 10
-14.21023
 20
26.161762
 30
0.0
 11
-14.21023
 21
26.161762
 31
0.0
  0
LINE
  5
6B6
100
AcDbEntity
  8
0
 62
     0
100
AcDbLine
 10
-12.565616
 20
25.114028
 30
0.0
 11
-12.565616
 21
25.114028
 31
0.0
  0
LINE
  5
6B7
100
AcDbEntity
  8
0
 62
     0
100
AcDbLine
 10
-16.071905
 20
26.553962
 30
0.0
 11
-16.071905
 21
26.553962
 31
0.0
  0
LINE
  5
6B8
100
AcDbEntity
  8
0
 62
     0
100
AcDbLine
 10
-15.544786
 20
26.218149
 30
0.0
 11
-15.544786
 21
26.218149
 31
0.0
  0
LINE
  5
6B9
100
AcDbEntity
  8
0
 62
     0
100
AcDbLine
 10
-13.900173
 20
25.170415
 30
0.0
 11
-13.900173
 21
25.170415
 31
0.0
  0
LINE
  5
6BA
100
AcDbEntity
  8
0
 62
     0
100
AcDbLine
 10
-17.406462
 20
26.610349
 30
0.0
 11
-17.406462
 21
26.610349
 31
0.0
  0
LINE
  5
6BB
100
AcDbEntity
  8
0
 62
     0
100
AcDbLine
 10
-15.234729
 20
25.226802
 30
0.0
 11
-15.234729
 21
25.226802
 31
0.0
  0
LINE
  5
6BC
100
AcDbEntity
  8
0
 62
     0
100
AcDbLine
 10
-13.85989
 20
23.557114
 30
0.0
 11
-13.85989
 21
23.557114
 31
0.0
  0
LINE
  5
6BD
100
AcDbEntity
  8
0
 62
     0
100
AcDbLine
 10
-17.903841
 20
25.339577
 30
0.0
 11
-17.903841
 21
25.339577
 31
0.0
  0
LINE
  5
6BE
100
AcDbEntity
  8
0
 62
     0
100
AcDbLine
 10
-18.081919
 20
49.140162
 30
0.0
 11
-18.081919
 21
49.140162
 31
0.0
  0
LINE
  5
6BF
100
AcDbEntity
  8
0
 62
     0
100
AcDbLine
 10
-17.578727
 20
50.265314
 30
0.0
 11
-17.578727
 21
50.265314
 31
0.0
  0
LINE
  5
6C0
100
AcDbEntity
  8
0
 62
     0
100
AcDbLine
 10
-18.074547
 20
52.305891
 30
0.0
 11
-18.074547
 21
52.305891
 31
0.0
  0
LINE
  5
6C1
100
AcDbEntity
  8
0
 62
     0
100
AcDbLine
 10
-17.571356
 20
53.431043
 30
0.0
 11
-17.571356
 21
53.431043
 31
0.0
  0
LINE
  5
6C2
100
AcDbEntity
  8
0
 62
     0
100
AcDbLine
 10
-16.616582
 20
52.556153
 30
0.0
 11
-16.616582
 21
52.556153
 31
0.0
  0
LINE
  5
6C3
100
AcDbEntity
  8
0
 62
     0
100
AcDbLine
 10
-18.067175
 20
55.471619
 30
0.0
 11
-18.067175
 21
55.471619
 31
0.0
  0
LINE
  5
6C4
100
AcDbEntity
  8
0
 62
     0
100
AcDbLine
 10
-16.712428
 20
54.230222
 30
0.0
 11
-16.712428
 21
54.230222
 31
0.0
  0
LINE
  5
6C5
100
AcDbEntity
  8
0
 62
     0
100
AcDbLine
 10
-16.11339
 20
53.681305
 30
0.0
 11
-16.11339
 21
53.681305
 31
0.0
  0
LINE
  5
6C6
100
AcDbEntity
  8
0
 62
     0
100
AcDbLine
 10
-15.158616
 20
52.806416
 30
0.0
 11
-15.158616
 21
52.806416
 31
0.0
  0
LINE
  5
6C7
100
AcDbEntity
  8
0
 62
     0
100
AcDbLine
 10
-17.563984
 20
56.596771
 30
0.0
 11
-17.563984
 21
56.596771
 31
0.0
  0
LINE
  5
6C8
100
AcDbEntity
  8
0
 62
     0
100
AcDbLine
 10
-16.60921
 20
55.721882
 30
0.0
 11
-16.60921
 21
55.721882
 31
0.0
  0
LINE
  5
6C9
100
AcDbEntity
  8
0
 62
     0
100
AcDbLine
 10
-15.254463
 20
54.480484
 30
0.0
 11
-15.254463
 21
54.480484
 31
0.0
  0
LINE
  5
6CA
100
AcDbEntity
  8
0
 62
     0
100
AcDbLine
 10
-14.655425
 20
53.931567
 30
0.0
 11
-14.655425
 21
53.931567
 31
0.0
  0
LINE
  5
6CB
100
AcDbEntity
  8
0
 62
     0
100
AcDbLine
 10
-13.700651
 20
53.056678
 30
0.0
 11
-13.700651
 21
53.056678
 31
0.0
  0
LINE
  5
6CC
100
AcDbEntity
  8
0
 62
     0
100
AcDbLine
 10
-18.059803
 20
58.637347
 30
0.0
 11
-18.059803
 21
58.637347
 31
0.0
  0
LINE
  5
6CD
100
AcDbEntity
  8
0
 62
     0
100
AcDbLine
 10
-16.705056
 20
57.39595
 30
0.0
 11
-16.705056
 21
57.39595
 31
0.0
  0
LINE
  5
6CE
100
AcDbEntity
  8
0
 62
     0
100
AcDbLine
 10
-16.106019
 20
56.847033
 30
0.0
 11
-16.106019
 21
56.847033
 31
0.0
  0
LINE
  5
6CF
100
AcDbEntity
  8
0
 62
     0
100
AcDbLine
 10
-15.151244
 20
55.972144
 30
0.0
 11
-15.151244
 21
55.972144
 31
0.0
  0
LINE
  5
6D0
100
AcDbEntity
  8
0
 62
     0
100
AcDbLine
 10
-13.796497
 20
54.730747
 30
0.0
 11
-13.796497
 21
54.730747
 31
0.0
  0
LINE
  5
6D1
100
AcDbEntity
  8
0
 62
     0
100
AcDbLine
 10
-13.197459
 20
54.18183
 30
0.0
 11
-13.197459
 21
54.18183
 31
0.0
  0
LINE
  5
6D2
100
AcDbEntity
  8
0
 62
     0
100
AcDbLine
 10
-12.242685
 20
53.306941
 30
0.0
 11
-12.242685
 21
53.306941
 31
0.0
  0
LINE
  5
6D3
100
AcDbEntity
  8
0
 62
     0
100
AcDbLine
 10
-18.15565
 20
60.311416
 30
0.0
 11
-18.15565
 21
60.311416
 31
0.0
  0
LINE
  5
6D4
100
AcDbEntity
  8
0
 62
     0
100
AcDbLine
 10
-17.556612
 20
59.762499
 30
0.0
 11
-17.556612
 21
59.762499
 31
0.0
  0
LINE
  5
6D5
100
AcDbEntity
  8
0
 62
     0
100
AcDbLine
 10
-16.601838
 20
58.88761
 30
0.0
 11
-16.601838
 21
58.88761
 31
0.0
  0
LINE
  5
6D6
100
AcDbEntity
  8
0
 62
     0
100
AcDbLine
 10
-15.247091
 20
57.646213
 30
0.0
 11
-15.247091
 21
57.646213
 31
0.0
  0
LINE
  5
6D7
100
AcDbEntity
  8
0
 62
     0
100
AcDbLine
 10
-14.648053
 20
57.097296
 30
0.0
 11
-14.648053
 21
57.097296
 31
0.0
  0
LINE
  5
6D8
100
AcDbEntity
  8
0
 62
     0
100
AcDbLine
 10
-13.693279
 20
56.222406
 30
0.0
 11
-13.693279
 21
56.222406
 31
0.0
  0
LINE
  5
6D9
100
AcDbEntity
  8
0
 62
     0
100
AcDbLine
 10
-12.338532
 20
54.981009
 30
0.0
 11
-12.338532
 21
54.981009
 31
0.0
  0
LINE
  5
6DA
100
AcDbEntity
  8
0
 62
     0
100
AcDbLine
 10
-18.052432
 20
61.803076
 30
0.0
 11
-18.052432
 21
61.803076
 31
0.0
  0
LINE
  5
6DB
100
AcDbEntity
  8
0
 62
     0
100
AcDbLine
 10
-16.697685
 20
60.561679
 30
0.0
 11
-16.697685
 21
60.561679
 31
0.0
  0
LINE
  5
6DC
100
AcDbEntity
  8
0
 62
     0
100
AcDbLine
 10
-16.098647
 20
60.012762
 30
0.0
 11
-16.098647
 21
60.012762
 31
0.0
  0
LINE
  5
6DD
100
AcDbEntity
  8
0
 62
     0
100
AcDbLine
 10
-15.143873
 20
59.137872
 30
0.0
 11
-15.143873
 21
59.137872
 31
0.0
  0
LINE
  5
6DE
100
AcDbEntity
  8
0
 62
     0
100
AcDbLine
 10
-13.789126
 20
57.896475
 30
0.0
 11
-13.789126
 21
57.896475
 31
0.0
  0
LINE
  5
6DF
100
AcDbEntity
  8
0
 62
     0
100
AcDbLine
 10
-13.190088
 20
57.347558
 30
0.0
 11
-13.190088
 21
57.347558
 31
0.0
  0
LINE
  5
6E0
100
AcDbEntity
  8
0
 62
     0
100
AcDbLine
 10
-12.235314
 20
56.472669
 30
0.0
 11
-12.235314
 21
56.472669
 31
0.0
  0
LINE
  5
6E1
100
AcDbEntity
  8
0
 62
     0
100
AcDbLine
 10
-18.148278
 20
63.477144
 30
0.0
 11
-18.148278
 21
63.477144
 31
0.0
  0
LINE
  5
6E2
100
AcDbEntity
  8
0
 62
     0
100
AcDbLine
 10
-17.54924
 20
62.928227
 30
0.0
 11
-17.54924
 21
62.928227
 31
0.0
  0
LINE
  5
6E3
100
AcDbEntity
  8
0
 62
     0
100
AcDbLine
 10
-16.594466
 20
62.053338
 30
0.0
 11
-16.594466
 21
62.053338
 31
0.0
  0
LINE
  5
6E4
100
AcDbEntity
  8
0
 62
     0
100
AcDbLine
 10
-15.239719
 20
60.811941
 30
0.0
 11
-15.239719
 21
60.811941
 31
0.0
  0
LINE
  5
6E5
100
AcDbEntity
  8
0
 62
     0
100
AcDbLine
 10
-14.640681
 20
60.263024
 30
0.0
 11
-14.640681
 21
60.263024
 31
0.0
  0
LINE
  5
6E6
100
AcDbEntity
  8
0
 62
     0
100
AcDbLine
 10
-13.685907
 20
59.388135
 30
0.0
 11
-13.685907
 21
59.388135
 31
0.0
  0
LINE
  5
6E7
100
AcDbEntity
  8
0
 62
     0
100
AcDbLine
 10
-12.33116
 20
58.146738
 30
0.0
 11
-12.33116
 21
58.146738
 31
0.0
  0
LINE
  5
6E8
100
AcDbEntity
  8
0
 62
     0
100
AcDbLine
 10
-18.04506
 20
64.968804
 30
0.0
 11
-18.04506
 21
64.968804
 31
0.0
  0
LINE
  5
6E9
100
AcDbEntity
  8
0
 62
     0
100
AcDbLine
 10
-16.690313
 20
63.727407
 30
0.0
 11
-16.690313
 21
63.727407
 31
0.0
  0
LINE
  5
6EA
100
AcDbEntity
  8
0
 62
     0
100
AcDbLine
 10
-16.091275
 20
63.17849
 30
0.0
 11
-16.091275
 21
63.17849
 31
0.0
  0
LINE
  5
6EB
100
AcDbEntity
  8
0
 62
     0
100
AcDbLine
 10
-15.136501
 20
62.303601
 30
0.0
 11
-15.136501
 21
62.303601
 31
0.0
  0
LINE
  5
6EC
100
AcDbEntity
  8
0
 62
     0
100
AcDbLine
 10
-13.781754
 20
61.062204
 30
0.0
 11
-13.781754
 21
61.062204
 31
0.0
  0
LINE
  5
6ED
100
AcDbEntity
  8
0
 62
     0
100
AcDbLine
 10
-13.182716
 20
60.513286
 30
0.0
 11
-13.182716
 21
60.513286
 31
0.0
  0
LINE
  5
6EE
100
AcDbEntity
  8
0
 62
     0
100
AcDbLine
 10
-12.227942
 20
59.638397
 30
0.0
 11
-12.227942
 21
59.638397
 31
0.0
  0
LINE
  5
6EF
100
AcDbEntity
  8
0
 62
     0
100
AcDbLine
 10
-18.140907
 20
66.642873
 30
0.0
 11
-18.140907
 21
66.642873
 31
0.0
  0
LINE
  5
6F0
100
AcDbEntity
  8
0
 62
     0
100
AcDbLine
 10
-17.541869
 20
66.093956
 30
0.0
 11
-17.541869
 21
66.093956
 31
0.0
  0
LINE
  5
6F1
100
AcDbEntity
  8
0
 62
     0
100
AcDbLine
 10
-16.587095
 20
65.219066
 30
0.0
 11
-16.587095
 21
65.219066
 31
0.0
  0
LINE
  5
6F2
100
AcDbEntity
  8
0
 62
     0
100
AcDbLine
 10
-15.232347
 20
63.977669
 30
0.0
 11
-15.232347
 21
63.977669
 31
0.0
  0
LINE
  5
6F3
100
AcDbEntity
  8
0
 62
     0
100
AcDbLine
 10
-14.63331
 20
63.428752
 30
0.0
 11
-14.63331
 21
63.428752
 31
0.0
  0
LINE
  5
6F4
100
AcDbEntity
  8
0
 62
     0
100
AcDbLine
 10
-13.678535
 20
62.553863
 30
0.0
 11
-13.678535
 21
62.553863
 31
0.0
  0
LINE
  5
6F5
100
AcDbEntity
  8
0
 62
     0
100
AcDbLine
 10
-12.323788
 20
61.312466
 30
0.0
 11
-12.323788
 21
61.312466
 31
0.0
  0
LINE
  5
6F6
100
AcDbEntity
  8
0
 62
     0
100
AcDbLine
 10
-18.037688
 20
68.134532
 30
0.0
 11
-18.037688
 21
68.134532
 31
0.0
  0
LINE
  5
6F7
100
AcDbEntity
  8
0
 62
     0
100
AcDbLine
 10
-16.682941
 20
66.893135
 30
0.0
 11
-16.682941
 21
66.893135
 31
0.0
  0
LINE
  5
6F8
100
AcDbEntity
  8
0
 62
     0
100
AcDbLine
 10
-16.083903
 20
66.344218
 30
0.0
 11
-16.083903
 21
66.344218
 31
0.0
  0
LINE
  5
6F9
100
AcDbEntity
  8
0
 62
     0
100
AcDbLine
 10
-15.129129
 20
65.469329
 30
0.0
 11
-15.129129
 21
65.469329
 31
0.0
  0
LINE
  5
6FA
100
AcDbEntity
  8
0
 62
     0
100
AcDbLine
 10
-13.774382
 20
64.227932
 30
0.0
 11
-13.774382
 21
64.227932
 31
0.0
  0
LINE
  5
6FB
100
AcDbEntity
  8
0
 62
     0
100
AcDbLine
 10
-13.175344
 20
63.679015
 30
0.0
 11
-13.175344
 21
63.679015
 31
0.0
  0
LINE
  5
6FC
100
AcDbEntity
  8
0
 62
     0
100
AcDbLine
 10
-12.22057
 20
62.804125
 30
0.0
 11
-12.22057
 21
62.804125
 31
0.0
  0
LINE
  5
6FD
100
AcDbEntity
  8
0
 62
     0
100
AcDbLine
 10
-18.133535
 20
69.808601
 30
0.0
 11
-18.133535
 21
69.808601
 31
0.0
  0
LINE
  5
6FE
100
AcDbEntity
  8
0
 62
     0
100
AcDbLine
 10
-17.534497
 20
69.259684
 30
0.0
 11
-17.534497
 21
69.259684
 31
0.0
  0
LINE
  5
6FF
100
AcDbEntity
  8
0
 62
     0
100
AcDbLine
 10
-16.579723
 20
68.384795
 30
0.0
 11
-16.579723
 21
68.384795
 31
0.0
  0
LINE
  5
700
100
AcDbEntity
  8
0
 62
     0
100
AcDbLine
 10
-15.224976
 20
67.143398
 30
0.0
 11
-15.224976
 21
67.143398
 31
0.0
  0
LINE
  5
701
100
AcDbEntity
  8
0
 62
     0
100
AcDbLine
 10
-14.625938
 20
66.594481
 30
0.0
 11
-14.625938
 21
66.594481
 31
0.0
  0
LINE
  5
702
100
AcDbEntity
  8
0
 62
     0
100
AcDbLine
 10
-13.671164
 20
65.719591
 30
0.0
 11
-13.671164
 21
65.719591
 31
0.0
  0
LINE
  5
703
100
AcDbEntity
  8
0
 62
     0
100
AcDbLine
 10
-12.316417
 20
64.478194
 30
0.0
 11
-12.316417
 21
64.478194
 31
0.0
  0
LINE
  5
704
100
AcDbEntity
  8
0
 62
     0
100
AcDbLine
 10
-16.675569
 20
70.058863
 30
0.0
 11
-16.675569
 21
70.058863
 31
0.0
  0
LINE
  5
705
100
AcDbEntity
  8
0
 62
     0
100
AcDbLine
 10
-16.076532
 20
69.509946
 30
0.0
 11
-16.076532
 21
69.509946
 31
0.0
  0
LINE
  5
706
100
AcDbEntity
  8
0
 62
     0
100
AcDbLine
 10
-15.121757
 20
68.635057
 30
0.0
 11
-15.121757
 21
68.635057
 31
0.0
  0
LINE
  5
707
100
AcDbEntity
  8
0
 62
     0
100
AcDbLine
 10
-13.76701
 20
67.39366
 30
0.0
 11
-13.76701
 21
67.39366
 31
0.0
  0
LINE
  5
708
100
AcDbEntity
  8
0
 62
     0
100
AcDbLine
 10
-13.167972
 20
66.844743
 30
0.0
 11
-13.167972
 21
66.844743
 31
0.0
  0
LINE
  5
709
100
AcDbEntity
  8
0
 62
     0
100
AcDbLine
 10
-12.213198
 20
65.969854
 30
0.0
 11
-12.213198
 21
65.969854
 31
0.0
  0
LINE
  5
70A
100
AcDbEntity
  8
0
 62
     0
100
AcDbLine
 10
-12.309045
 20
67.643923
 30
0.0
 11
-12.309045
 21
67.643923
 31
0.0
  0
LINE
  5
70B
100
AcDbEntity
  8
0
 62
     0
100
AcDbLine
 10
-12.205827
 20
69.135582
 30
0.0
 11
-12.205827
 21
69.135582
 31
0.0
  0
LINE
  5
70C
100
AcDbEntity
  8
0
 62
     0
100
AcDbLine
 10
-17.586099
 20
47.099586
 30
0.0
 11
-17.586099
 21
47.099586
 31
0.0
  0
LINE
  5
70D
100
AcDbEntity
  8
0
 62
     0
100
AcDbLine
 10
-18.08929
 20
45.974434
 30
0.0
 11
-18.08929
 21
45.974434
 31
0.0
  0
LINE
  5
70E
100
AcDbEntity
  8
0
 62
     0
100
AcDbLine
 10
-13.226946
 20
41.518917
 30
0.0
 11
-13.226946
 21
41.518917
 31
0.0
  0
LINE
  5
70F
100
AcDbEntity
  8
0
 62
     0
100
AcDbLine
 10
-12.272172
 20
40.644027
 30
0.0
 11
-12.272172
 21
40.644027
 31
0.0
  0
LINE
  5
710
100
AcDbEntity
  8
0
 62
     0
100
AcDbLine
 10
-17.593471
 20
43.933858
 30
0.0
 11
-17.593471
 21
43.933858
 31
0.0
  0
LINE
  5
711
100
AcDbEntity
  8
0
 62
     0
100
AcDbLine
 10
-15.28395
 20
41.817571
 30
0.0
 11
-15.28395
 21
41.817571
 31
0.0
  0
LINE
  5
712
100
AcDbEntity
  8
0
 62
     0
100
AcDbLine
 10
-14.684912
 20
41.268654
 30
0.0
 11
-14.684912
 21
41.268654
 31
0.0
  0
LINE
  5
713
100
AcDbEntity
  8
0
 62
     0
100
AcDbLine
 10
-13.730138
 20
40.393765
 30
0.0
 11
-13.730138
 21
40.393765
 31
0.0
  0
LINE
  5
714
100
AcDbEntity
  8
0
 62
     0
100
AcDbLine
 10
-12.375391
 20
39.152368
 30
0.0
 11
-12.375391
 21
39.152368
 31
0.0
  0
LINE
  5
715
100
AcDbEntity
  8
0
 62
     0
100
AcDbLine
 10
-18.096662
 20
42.808706
 30
0.0
 11
-18.096662
 21
42.808706
 31
0.0
  0
LINE
  5
716
100
AcDbEntity
  8
0
 62
     0
100
AcDbLine
 10
-16.741915
 20
41.567309
 30
0.0
 11
-16.741915
 21
41.567309
 31
0.0
  0
LINE
  5
717
100
AcDbEntity
  8
0
 62
     0
100
AcDbLine
 10
-16.142877
 20
41.018392
 30
0.0
 11
-16.142877
 21
41.018392
 31
0.0
  0
LINE
  5
718
100
AcDbEntity
  8
0
 62
     0
100
AcDbLine
 10
-15.188103
 20
40.143503
 30
0.0
 11
-15.188103
 21
40.143503
 31
0.0
  0
LINE
  5
719
100
AcDbEntity
  8
0
 62
     0
100
AcDbLine
 10
-13.833356
 20
38.902106
 30
0.0
 11
-13.833356
 21
38.902106
 31
0.0
  0
LINE
  5
71A
100
AcDbEntity
  8
0
 62
     0
100
AcDbLine
 10
-13.234318
 20
38.353189
 30
0.0
 11
-13.234318
 21
38.353189
 31
0.0
  0
LINE
  5
71B
100
AcDbEntity
  8
0
 62
     0
100
AcDbLine
 10
-12.279544
 20
37.478299
 30
0.0
 11
-12.279544
 21
37.478299
 31
0.0
  0
LINE
  5
71C
100
AcDbEntity
  8
0
 62
     0
100
AcDbLine
 10
-17.600843
 20
40.768129
 30
0.0
 11
-17.600843
 21
40.768129
 31
0.0
  0
LINE
  5
71D
100
AcDbEntity
  8
0
 62
     0
100
AcDbLine
 10
-16.646069
 20
39.89324
 30
0.0
 11
-16.646069
 21
39.89324
 31
0.0
  0
LINE
  5
71E
100
AcDbEntity
  8
0
 62
     0
100
AcDbLine
 10
-15.291321
 20
38.651843
 30
0.0
 11
-15.291321
 21
38.651843
 31
0.0
  0
LINE
  5
71F
100
AcDbEntity
  8
0
 62
     0
100
AcDbLine
 10
-14.692284
 20
38.102926
 30
0.0
 11
-14.692284
 21
38.102926
 31
0.0
  0
LINE
  5
720
100
AcDbEntity
  8
0
 62
     0
100
AcDbLine
 10
-13.737509
 20
37.228037
 30
0.0
 11
-13.737509
 21
37.228037
 31
0.0
  0
LINE
  5
721
100
AcDbEntity
  8
0
 62
     0
100
AcDbLine
 10
-12.382762
 20
35.98664
 30
0.0
 11
-12.382762
 21
35.98664
 31
0.0
  0
LINE
  5
722
100
AcDbEntity
  8
0
 62
     0
100
AcDbLine
 10
-18.104034
 20
39.642978
 30
0.0
 11
-18.104034
 21
39.642978
 31
0.0
  0
LINE
  5
723
100
AcDbEntity
  8
0
 62
     0
100
AcDbLine
 10
-16.749287
 20
38.401581
 30
0.0
 11
-16.749287
 21
38.401581
 31
0.0
  0
LINE
  5
724
100
AcDbEntity
  8
0
 62
     0
100
AcDbLine
 10
-16.150249
 20
37.852664
 30
0.0
 11
-16.150249
 21
37.852664
 31
0.0
  0
LINE
  5
725
100
AcDbEntity
  8
0
 62
     0
100
AcDbLine
 10
-15.195475
 20
36.977774
 30
0.0
 11
-15.195475
 21
36.977774
 31
0.0
  0
LINE
  5
726
100
AcDbEntity
  8
0
 62
     0
100
AcDbLine
 10
-13.840728
 20
35.736377
 30
0.0
 11
-13.840728
 21
35.736377
 31
0.0
  0
LINE
  5
727
100
AcDbEntity
  8
0
 62
     0
100
AcDbLine
 10
-13.24169
 20
35.18746
 30
0.0
 11
-13.24169
 21
35.18746
 31
0.0
  0
LINE
  5
728
100
AcDbEntity
  8
0
 62
     0
100
AcDbLine
 10
-12.286916
 20
34.312571
 30
0.0
 11
-12.286916
 21
34.312571
 31
0.0
  0
LINE
  5
729
100
AcDbEntity
  8
0
 62
     0
100
AcDbLine
 10
-17.608214
 20
37.602401
 30
0.0
 11
-17.608214
 21
37.602401
 31
0.0
  0
LINE
  5
72A
100
AcDbEntity
  8
0
 62
     0
100
AcDbLine
 10
-16.65344
 20
36.727512
 30
0.0
 11
-16.65344
 21
36.727512
 31
0.0
  0
LINE
  5
72B
100
AcDbEntity
  8
0
 62
     0
100
AcDbLine
 10
-15.298693
 20
35.486115
 30
0.0
 11
-15.298693
 21
35.486115
 31
0.0
  0
LINE
  5
72C
100
AcDbEntity
  8
0
 62
     0
100
AcDbLine
 10
-14.699655
 20
34.937198
 30
0.0
 11
-14.699655
 21
34.937198
 31
0.0
  0
LINE
  5
72D
100
AcDbEntity
  8
0
 62
     0
100
AcDbLine
 10
-13.744881
 20
34.062308
 30
0.0
 11
-13.744881
 21
34.062308
 31
0.0
  0
LINE
  5
72E
100
AcDbEntity
  8
0
 62
     0
100
AcDbLine
 10
-12.390134
 20
32.820911
 30
0.0
 11
-12.390134
 21
32.820911
 31
0.0
  0
LINE
  5
72F
100
AcDbEntity
  8
0
 62
     0
100
AcDbLine
 10
-18.111406
 20
36.477249
 30
0.0
 11
-18.111406
 21
36.477249
 31
0.0
  0
LINE
  5
730
100
AcDbEntity
  8
0
 62
     0
100
AcDbLine
 10
-16.756659
 20
35.235852
 30
0.0
 11
-16.756659
 21
35.235852
 31
0.0
  0
LINE
  5
731
100
AcDbEntity
  8
0
 62
     0
100
AcDbLine
 10
-16.157621
 20
34.686935
 30
0.0
 11
-16.157621
 21
34.686935
 31
0.0
  0
LINE
  5
732
100
AcDbEntity
  8
0
 62
     0
100
AcDbLine
 10
-15.202847
 20
33.812046
 30
0.0
 11
-15.202847
 21
33.812046
 31
0.0
  0
LINE
  5
733
100
AcDbEntity
  8
0
 62
     0
100
AcDbLine
 10
-13.8481
 20
32.570649
 30
0.0
 11
-13.8481
 21
32.570649
 31
0.0
  0
LINE
  5
734
100
AcDbEntity
  8
0
 62
     0
100
AcDbLine
 10
-13.249062
 20
32.021732
 30
0.0
 11
-13.249062
 21
32.021732
 31
0.0
  0
LINE
  5
735
100
AcDbEntity
  8
0
 62
     0
100
AcDbLine
 10
-12.294288
 20
31.146843
 30
0.0
 11
-12.294288
 21
31.146843
 31
0.0
  0
LINE
  5
736
100
AcDbEntity
  8
0
 62
     0
100
AcDbLine
 10
-17.615586
 20
34.436673
 30
0.0
 11
-17.615586
 21
34.436673
 31
0.0
  0
LINE
  5
737
100
AcDbEntity
  8
0
 62
     0
100
AcDbLine
 10
-16.660812
 20
33.561784
 30
0.0
 11
-16.660812
 21
33.561784
 31
0.0
  0
LINE
  5
738
100
AcDbEntity
  8
0
 62
     0
100
AcDbLine
 10
-15.306065
 20
32.320387
 30
0.0
 11
-15.306065
 21
32.320387
 31
0.0
  0
LINE
  5
739
100
AcDbEntity
  8
0
 62
     0
100
AcDbLine
 10
-14.707027
 20
31.771469
 30
0.0
 11
-14.707027
 21
31.771469
 31
0.0
  0
LINE
  5
73A
100
AcDbEntity
  8
0
 62
     0
100
AcDbLine
 10
-13.752253
 20
30.89658
 30
0.0
 11
-13.752253
 21
30.89658
 31
0.0
  0
LINE
  5
73B
100
AcDbEntity
  8
0
 62
     0
100
AcDbLine
 10
-12.397506
 20
29.655183
 30
0.0
 11
-12.397506
 21
29.655183
 31
0.0
  0
LINE
  5
73C
100
AcDbEntity
  8
0
 62
     0
100
AcDbLine
 10
-18.118777
 20
33.311521
 30
0.0
 11
-18.118777
 21
33.311521
 31
0.0
  0
LINE
  5
73D
100
AcDbEntity
  8
0
 62
     0
100
AcDbLine
 10
-16.76403
 20
32.070124
 30
0.0
 11
-16.76403
 21
32.070124
 31
0.0
  0
LINE
  5
73E
100
AcDbEntity
  8
0
 62
     0
100
AcDbLine
 10
-16.164993
 20
31.521207
 30
0.0
 11
-16.164993
 21
31.521207
 31
0.0
  0
LINE
  5
73F
100
AcDbEntity
  8
0
 62
     0
100
AcDbLine
 10
-15.210218
 20
30.646318
 30
0.0
 11
-15.210218
 21
30.646318
 31
0.0
  0
LINE
  5
740
100
AcDbEntity
  8
0
 62
     0
100
AcDbLine
 10
-13.855471
 20
29.404921
 30
0.0
 11
-13.855471
 21
29.404921
 31
0.0
  0
LINE
  5
741
100
AcDbEntity
  8
0
 62
     0
100
AcDbLine
 10
-13.256433
 20
28.856004
 30
0.0
 11
-13.256433
 21
28.856004
 31
0.0
  0
LINE
  5
742
100
AcDbEntity
  8
0
 62
     0
100
AcDbLine
 10
-12.301659
 20
27.981114
 30
0.0
 11
-12.301659
 21
27.981114
 31
0.0
  0
LINE
  5
743
100
AcDbEntity
  8
0
 62
     0
100
AcDbLine
 10
-17.622958
 20
31.270945
 30
0.0
 11
-17.622958
 21
31.270945
 31
0.0
  0
LINE
  5
744
100
AcDbEntity
  8
0
 62
     0
100
AcDbLine
 10
-16.668184
 20
30.396055
 30
0.0
 11
-16.668184
 21
30.396055
 31
0.0
  0
LINE
  5
745
100
AcDbEntity
  8
0
 62
     0
100
AcDbLine
 10
-15.313437
 20
29.154658
 30
0.0
 11
-15.313437
 21
29.154658
 31
0.0
  0
LINE
  5
746
100
AcDbEntity
  8
0
 62
     0
100
AcDbLine
 10
-14.714399
 20
28.605741
 30
0.0
 11
-14.714399
 21
28.605741
 31
0.0
  0
LINE
  5
747
100
AcDbEntity
  8
0
 62
     0
100
AcDbLine
 10
-13.759625
 20
27.730852
 30
0.0
 11
-13.759625
 21
27.730852
 31
0.0
  0
LINE
  5
748
100
AcDbEntity
  8
0
 62
     0
100
AcDbLine
 10
-12.404878
 20
26.489455
 30
0.0
 11
-12.404878
 21
26.489455
 31
0.0
  0
LINE
  5
749
100
AcDbEntity
  8
0
 62
     0
100
AcDbLine
 10
-18.126149
 20
30.145793
 30
0.0
 11
-18.126149
 21
30.145793
 31
0.0
  0
LINE
  5
74A
100
AcDbEntity
  8
0
 62
     0
100
AcDbLine
 10
-16.771402
 20
28.904396
 30
0.0
 11
-16.771402
 21
28.904396
 31
0.0
  0
LINE
  5
74B
100
AcDbEntity
  8
0
 62
     0
100
AcDbLine
 10
-16.172364
 20
28.355479
 30
0.0
 11
-16.172364
 21
28.355479
 31
0.0
  0
LINE
  5
74C
100
AcDbEntity
  8
0
 62
     0
100
AcDbLine
 10
-15.21759
 20
27.480589
 30
0.0
 11
-15.21759
 21
27.480589
 31
0.0
  0
LINE
  5
74D
100
AcDbEntity
  8
0
 62
     0
100
AcDbLine
 10
-13.862843
 20
26.239192
 30
0.0
 11
-13.862843
 21
26.239192
 31
0.0
  0
LINE
  5
74E
100
AcDbEntity
  8
0
 62
     0
100
AcDbLine
 10
-13.263805
 20
25.690275
 30
0.0
 11
-13.263805
 21
25.690275
 31
0.0
  0
LINE
  5
74F
100
AcDbEntity
  8
0
 62
     0
100
AcDbLine
 10
-17.63033
 20
28.105216
 30
0.0
 11
-17.63033
 21
28.105216
 31
0.0
  0
LINE
  5
750
100
AcDbEntity
  8
0
 62
     0
100
AcDbLine
 10
-16.675556
 20
27.230327
 30
0.0
 11
-16.675556
 21
27.230327
 31
0.0
  0
LINE
  5
751
100
AcDbEntity
  8
0
 62
     0
100
AcDbLine
 10
-15.320808
 20
25.98893
 30
0.0
 11
-15.320808
 21
25.98893
 31
0.0
  0
LINE
  5
752
100
AcDbEntity
  8
0
 62
     0
100
AcDbLine
 10
-14.721771
 20
25.440013
 30
0.0
 11
-14.721771
 21
25.440013
 31
0.0
  0
LINE
  5
753
100
AcDbEntity
  8
0
 62
     0
100
AcDbLine
 10
-13.766996
 20
24.565124
 30
0.0
 11
-13.766996
 21
24.565124
 31
0.0
  0
LINE
  5
754
100
AcDbEntity
  8
0
 62
     0
100
AcDbLine
 10
-18.133521
 20
26.980065
 30
0.0
 11
-18.133521
 21
26.980065
 31
0.0
  0
ENDBLK
  5
755
100
AcDbEntity
  8
0
100
AcDbBlockEnd
  0
ENDSEC
  0
SECTION
  2
ENTITIES
  0
LWPOLYLINE
  5
756
100
AcDbEntity
  8
HATCH
100
AcDbPolyline
 90
        6
 70
     0
 43
0.5
 10
9.992785
 20
52.589726
 10
9.534711
 20
50.904686
 42
0.416437
 10
9.889701
 20
50.290052
 10
19.107372
 20
47.859174
 42
0.064552
 10
19.234872
 20
47.842645
 10
32.354083
 20
47.842645
  0
LWPOLYLINE
  5
75E
100
AcDbEntity
  8
DRAWING
100
AcDbPolyline
 90
        3
 70
     0
 43
0.0
 10
9.354083
 20
37.592645
 10
9.354083
 20
47.592645
 10
36.154078
 20
47.592645
  0
LWPOLYLINE
  5
763
100
AcDbEntity
  8
DRAWING
100
AcDbPolyline
 90
        2
 70
     0
 43
0.0
 10
34.648931
 20
37.592645
 10
9.354083
 20
37.592645
  0
TEXT
  5
767
100
AcDbEntity
  8
TITLE
100
AcDbText
 10
22.856542
 20
10.592645
 30
0.0
 40
2.5
  1
BEAM TO WALL
  7
TITLE
 72
     1
 11
37.856542
 21
10.592645
 31
0.0
100
AcDbText
  0
TEXT
  5
769
100
AcDbEntity
  8
TITLE
100
AcDbText
 10
31.189875
 20
5.735502
 30
0.0
 40
2.5
  1
DETAIL
  7
TITLE
 72
     1
 11
37.856542
 21
5.735502
 31
0.0
100
AcDbText
  0
LINE
  5
76A
100
AcDbEntity
  8
DRAWING
100
AcDbLine
 10
17.354083
 20
49.092645
 30
0.0
 11
40.848912
 21
49.092645
 31
0.0
  0
LINE
  5
76B
100
AcDbEntity
  8
DRAWING
100
AcDbLine
 10
17.354083
 20
53.100452
 30
0.0
 11
44.336356
 21
53.100452
 31
0.0
  0
LINE
  5
76C
100
AcDbEntity
  8
DRAWING
100
AcDbLine
 10
17.354083
 20
53.850452
 30
0.0
 11
44.413807
 21
53.850452
 31
0.0
  0
INSERT
  5
76D
100
AcDbEntity
  8
HATCH
100
AcDbBlockReference
  2
*X0
 10
-57.672714
 20
-10.369996
 30
0.0
1001
ACAD
1000
HATCH
1002
{
1070
    16
1000
ANSI32
1040
3.0
1040
1.570796
1002
}
  0
INSERT
  5
76E
100
AcDbEntity
  8
HATCH
100
AcDbBlockReference
  2
*X1
 10
-57.672714
 20
-10.369996
 30
0.0
1001
ACAD
1000
HATCH
1002
{
1070
    16
1000
LINE
1040
3.0
1040
2.356194
1002
}
  0
INSERT
  5
76F
100
AcDbEntity
  8
HATCH
100
AcDbBlockReference
  2
*X2
 10
-57.672714
 20
-10.369996
 30
0.0
1001
ACAD
1000
HATCH
1002
{
1070
    16
1000
INSUL
1040
4.0
1040
0.785398
1002
}
  0
LINE
  5
770
100
AcDbEntity
  8
DIM_TEXT
100
AcDbLine
 10
12.342114
 20
36.763
 30
0.0
 11
29.327286
 21
25.630004
 31
0.0
  0
TEXT
  5
771
100
AcDbEntity
  8
DIM_TEXT
100
AcDbText
 10
22.506005
 20
73.650592
 30
0.0
 40
1.08
  1
or 1/2 @ 1/2 or any position
 51
15.0
  7
INFO
100
AcDbText
  0
TEXT
  5
773
100
AcDbEntity
  8
DIM_TEXT
100
AcDbText
 10
22.506005
 20
75.399164
 30
0.0
 40
1.08
  1
full vert. cell or on horz. cell
 51
15.0
  7
INFO
100
AcDbText
  0
TEXT
  5
774
100
AcDbEntity
  8
DIM_TEXT
100
AcDbText
 10
22.506005
 20
77.147735
 30
0.0
 40
1.08
  1
Bearing on beam can be on
 51
15.0
  7
INFO
100
AcDbText
  0
TEXT
  5
775
100
AcDbEntity
  8
DIM_TEXT
100
AcDbText
 10
22.506005
 20
82.393449
 30
0.0
 40
1.08
  1
Beams can be placed in walls
 51
15.0
  7
INFO
100
AcDbText
  0
LINE
  5
776
100
AcDbEntity
  8
DRAWING
100
AcDbLine
 10
17.354083
 20
20.592645
 30
0.0
 11
17.354083
 21
37.592645
 31
0.0
  0
LINE
  5
777
100
AcDbEntity
  8
DRAWING
100
AcDbLine
 10
5.354083
 20
20.592645
 30
0.0
 11
5.354083
 21
65.592645
 31
0.0
  0
LINE
  5
778
100
AcDbEntity
  8
DRAWING
100
AcDbLine
 10
8.354083
 20
20.592645
 30
0.0
 11
8.354083
 21
65.592645
 31
0.0
  0
ARC
  5
779
100
AcDbEntity
  8
DRAWING
100
AcDbCircle
 10
11.354083
 20
35.592645
 30
0.0
 40
3.0
100
AcDbArc
 50
131.810315
 51
41.810315
  0
LINE
  5
77A
100
AcDbEntity
  8
DRAWING
100
AcDbLine
 10
14.354083
 20
37.592645
 30
0.0
 11
14.354083
 21
20.592645
 31
0.0
  0
INSERT
  5
77B
100
AcDbEntity
  8
HATCH
100
AcDbBlockReference
  2
*X3
 10
-57.672714
 20
-10.369996
 30
0.0
1001
ACAD
1000
HATCH
1002
{
1070
    16
1000
ANSI33
1040
5.0
1040
0.0
1002
}
  0
LINE
  5
77C
100
AcDbEntity
  8
DRAWING
100
AcDbLine
 10
8.354083
 20
35.592645
 30
0.0
 11
5.354083
 21
35.592645
 31
0.0
  0
ARC
  5
77D
100
AcDbEntity
  8
DRAWING
100
AcDbCircle
 10
11.354083
 20
20.592645
 30
0.0
 40
3.0
100
AcDbArc
 50
0.0
 51
180.0
  0
LINE
  5
77E
100
AcDbEntity
  8
DRAWING
100
AcDbLine
 10
14.354083
 20
35.592645
 30
0.0
 11
17.354083
 21
35.592645
 31
0.0
  0
ARC
  5
77F
100
AcDbEntity
  8
DRAWING
100
AcDbCircle
 10
11.354083
 20
65.592645
 30
0.0
 40
3.0
100
AcDbArc
 50
180.0
 51
0.0
  0
LINE
  5
780
100
AcDbEntity
  8
DRAWING
100
AcDbLine
 10
14.354083
 20
65.592645
 30
0.0
 11
14.354083
 21
47.592645
 31
0.0
  0
LINE
  5
781
100
AcDbEntity
  8
DRAWING
100
AcDbLine
 10
17.354083
 20
47.592645
 30
0.0
 11
17.354083
 21
65.592645
 31
0.0
  0
LINE
  5
782
100
AcDbEntity
  8
DRAWING
100
AcDbLine
 10
8.354083
 20
50.592645
 30
0.0
 11
5.354083
 21
50.592645
 31
0.0
  0
CIRCLE
  5
783
100
AcDbEntity
  8
DRAWING
100
AcDbCircle
 10
11.354083
 20
50.592645
 30
0.0
 40
3.0
  0
LINE
  5
784
100
AcDbEntity
  8
DIM_TEXT
100
AcDbLine
 10
21.740916
 20
49.342995
 30
0.0
 11
26.327286
 21
61.630004
 31
0.0
  0
SOLID
  5
785
100
AcDbEntity
  8
DIM_TEXT
100
AcDbTrace
 10
12.24344
 20
36.612457
 30
0.0
 11
12.440789
 21
36.913544
 31
0.0
 12
11.438853
 22
37.355047
 32
0.0
 13
11.438853
 23
37.355047
 33
0.0
  0
SOLID
  5
786
100
AcDbEntity
  8
DIM_TEXT
100
AcDbTrace
 10
21.909551
 20
49.280049
 30
0.0
 11
21.572281
 21
49.405941
 31
0.0
 12
21.363237
 22
48.331185
 32
0.0
 13
21.363237
 23
48.331185
 33
0.0
  0
LINE
  5
787
100
AcDbEntity
  8
DRAWING
100
AcDbLine
 10
14.354083
 20
50.592645
 30
0.0
 11
17.354083
 21
50.592645
 31
0.0
  0
LINE
  5
788
100
AcDbEntity
  8
DIM_TEXT
100
AcDbLine
 10
26.327286
 20
61.630004
 30
0.0
 11
27.407286
 21
61.630004
 31
0.0
  0
TEXT
  5
789
100
AcDbEntity
  8
DIM_TEXT
100
AcDbText
 10
22.506005
 20
71.902021
 30
0.0
 40
1.08
  1
approved by engineer
 51
15.0
  7
INFO
100
AcDbText
  0
TEXT
  5
78A
100
AcDbEntity
  8
DIM_TEXT
100
AcDbText
 10
22.506005
 20
78.896307
 30
0.0
 40
1.08
  1
Notch wall for beam.
 51
15.0
  7
INFO
100
AcDbText
  0
TEXT
  5
78B
100
AcDbEntity
  8
DIM_TEXT
100
AcDbText
 10
22.506005
 20
80.644878
 30
0.0
 40
1.08
  1
as needed for design.
 51
15.0
  7
INFO
100
AcDbText
  0
TEXT
  5
78C
100
AcDbEntity
  8
DIM_TEXT
100
AcDbText
 10
22.506005
 20
70.153449
 30
0.0
 40
1.08
  1
for load bearing.
 51
15.0
  7
INFO
100
AcDbText
  0
TEXT
  5
78D
100
AcDbEntity
  8
DIM_TEXT
100
AcDbText
 10
51.947286
 20
35.22956
 30
0.0
 40
1.08
  1
(See Plan for Size & Spacing)
 51
15.0
  7
INFO
 11
51.947286
 21
35.76956
 31
0.0
100
AcDbText
 73
     2
  0
TEXT
  5
78E
100
AcDbEntity
  8
DIM_TEXT
100
AcDbText
 10
30.947286
 20
25.098754
 30
0.0
 40
1.0625
  1
Tar around portion of beam in wall
 51
15.0
  7
INFO
 11
30.947286
 21
25.630004
 31
0.0
100
AcDbText
 73
     2
  0
TEXT
  5
78F
100
AcDbEntity
  8
DIM_TEXT
100
AcDbText
 10
30.947286
 20
23.682126
 30
0.0
 40
1.0625
  1
that is in contact w/ concrete
 51
15.0
  7
INFO
 11
30.947286
 21
24.213376
 31
0.0
100
AcDbText
 73
     2
  0
LINE
  5
790
100
AcDbEntity
  8
DIM_TEXT
100
AcDbLine
 10
29.327286
 20
25.630004
 30
0.0
 11
30.407286
 21
25.630004
 31
0.0
  0
TEXT
  5
791
100
AcDbEntity
  8
DIM_TEXT
100
AcDbText
 10
51.947286
 20
55.090004
 30
0.0
 40
1.08
  1
Plywood Roof Sheathing
 51
15.0
  7
INFO
 11
51.947286
 21
55.630004
 31
0.0
100
AcDbText
 73
     2
  0
TEXT
  5
792
100
AcDbEntity
  8
DIM_TEXT
100
AcDbText
 10
51.947286
 20
43.090004
 30
0.0
 40
1.08
  1
2X T&G Roof Decking
 51
15.0
  7
INFO
 11
51.947286
 21
43.630004
 31
0.0
100
AcDbText
 73
     2
  0
TEXT
  5
793
100
AcDbEntity
  8
DIM_TEXT
100
AcDbText
 10
27.947286
 20
61.090004
 30
0.0
 40
1.08
  1
PA Holddown in wall to beam
 51
15.0
  7
INFO
 11
27.947286
 21
61.630004
 31
0.0
100
AcDbText
 73
     2
  0
LINE
  5
794
100
AcDbEntity
  8
DIM_TEXT
100
AcDbLine
 10
45.873955
 20
54.18041
 30
0.0
 11
50.327286
 21
55.630004
 31
0.0
  0
LINE
  5
795
100
AcDbEntity
  8
DIM_TEXT
100
AcDbLine
 10
43.322688
 20
50.914131
 30
0.0
 11
50.327286
 21
49.630004
 31
0.0
  0
LINE
  5
796
100
AcDbEntity
  8
DIM_TEXT
100
AcDbLine
 10
39.917875
 20
47.814333
 30
0.0
 11
50.327286
 21
43.630004
 31
0.0
  0
LINE
  5
797
100
AcDbEntity
  8
DIM_TEXT
100
AcDbLine
 10
37.281652
 20
42.916543
 30
0.0
 11
50.327286
 21
37.630004
 31
0.0
  0
LWPOLYLINE
  5
798
100
AcDbEntity
  8
DRAWING
100
AcDbPolyline
 90
        5
 70
     0
 43
0.0
 10
40.848912
 20
49.092645
 10
41.037181
 20
49.58183
 10
42.079095
 20
50.062406
 10
41.838653
 20
52.191557
 10
42.188451
 20
53.100452
  0
LINE
  5
79F
100
AcDbEntity
  8
DRAWING
100
AcDbLine
 10
36.154078
 20
47.592645
 30
0.0
 11
38.489043
 21
47.592645
 31
0.0
  0
LWPOLYLINE
  5
7A0
100
AcDbEntity
  8
DRAWING
100
AcDbPolyline
 90
        4
 70
     0
 43
0.0
 10
38.489043
 20
47.592645
 10
38.638087
 20
47.979911
 10
38.317498
 20
49.021159
 10
38.365186
 20
49.092645
  0
LWPOLYLINE
  5
7A6
100
AcDbEntity
  8
HATCH
100
AcDbPolyline
 90
        7
 70
     0
 43
0.0
 10
36.154078
 20
47.592645
 10
35.555904
 20
46.738656
 10
36.82432
 20
45.108877
 10
35.737106
 20
43.479098
 10
35.555904
 20
41.84932
 10
34.106285
 20
40.219541
 10
34.649892
 20
37.589762
  0
SOLID
  5
7AF
100
AcDbEntity
  8
DIM_TEXT
100
AcDbTrace
 10
37.214049
 20
42.74972
 30
0.0
 11
37.349254
 21
43.083366
 31
0.0
 12
36.280714
 22
43.322157
 32
0.0
 13
36.280714
 23
43.322157
 33
0.0
  0
SOLID
  5
7B0
100
AcDbEntity
  8
DIM_TEXT
100
AcDbTrace
 10
39.85074
 20
47.647321
 30
0.0
 11
39.98501
 21
47.981345
 31
0.0
 12
38.915804
 22
48.217141
 32
0.0
 13
38.915804
 23
48.217141
 33
0.0
  0
SOLID
  5
7B1
100
AcDbEntity
  8
DIM_TEXT
100
AcDbTrace
 10
43.29023
 20
50.737081
 30
0.0
 11
43.355146
 21
51.09118
 31
0.0
 12
42.260391
 22
51.108877
 32
0.0
 13
42.260391
 23
51.108877
 33
0.0
  0
LWPOLYLINE
  5
7B2
100
AcDbEntity
  8
DRAWING
100
AcDbPolyline
 90
        3
 70
     0
 43
0.0
 10
44.336356
 20
53.100452
 10
44.162115
 20
53.553188
 10
44.413807
 20
53.850452
  0
SOLID
  5
7B7
100
AcDbEntity
  8
DIM_TEXT
100
AcDbTrace
 10
45.929669
 20
54.00925
 30
0.0
 11
45.818241
 21
54.351571
 31
0.0
 12
44.846992
 22
53.846126
 32
0.0
 13
44.846992
 23
53.846126
 33
0.0
  0
TEXT
  5
7B8
100
AcDbEntity
  8
DIM_TEXT
100
AcDbText
 10
50.867286
 20
49.090004
 30
0.0
 40
1.08
  1
Foam Insulation
 51
15.0
  7
INFO
 11
50.867286
 21
49.630004
 31
0.0
100
AcDbText
 73
     2
  0
TEXT
  5
7B9
100
AcDbEntity
  8
DIM_TEXT
100
AcDbText
 10
51.947286
 20
37.090004
 30
0.0
 40
1.08
  1
Beam
 51
15.0
  7
INFO
 11
51.947286
 21
37.630004
 31
0.0
100
AcDbText
 73
     2
  0
LINE
  5
7BA
100
AcDbEntity
  8
DIM_TEXT
100
AcDbLine
 10
50.327286
 20
37.630004
 30
0.0
 11
51.407286
 21
37.630004
 31
0.0
  0
LINE
  5
7BB
100
AcDbEntity
  8
DIM_TEXT
100
AcDbLine
 10
50.327286
 20
43.630004
 30
0.0
 11
51.407286
 21
43.630004
 31
0.0
  0
LINE
  5
7BC
100
AcDbEntity
  8
DIM_TEXT
100
AcDbLine
 10
50.327286
 20
55.630004
 30
0.0
 11
51.407286
 21
55.630004
 31
0.0
  0
LINE
  5
7BD
100
AcDbEntity
  8
DIM_TEXT
100
AcDbLine
 10
50.327286
 20
61.630004
 30
0.0
 11
51.407286
 21
61.630004
 31
0.0
  0
TEXT
  5
7BE
100
AcDbEntity
  8
DIM_TEXT
100
AcDbText
 10
51.947286
 20
41.214898
 30
0.0
 40
1.08
  1
exposed (optional)
 51
15.0
  7
INFO
 11
51.947286
 21
41.754898
 31
0.0
100
AcDbText
 73
     2
  0
LWPOLYLINE
  5
7BF
100
AcDbEntity
  8
HATCH
100
AcDbPolyline
 90
        6
 70
     0
 43
0.0
 10
3.080218
 20
20.592645
 10
9.785392
 20
20.592645
 10
9.348069
 20
22.592645
 10
13.172572
 20
18.592645
 10
12.791507
 20
20.592645
 10
19.904131
 20
20.592645
  0
LWPOLYLINE
  5
7C7
100
AcDbEntity
  8
HATCH
100
AcDbPolyline
 90
        6
 70
     0
 43
0.0
 10
3.080218
 20
65.592645
 10
9.785392
 20
65.592645
 10
9.348069
 20
67.592645
 10
13.172572
 20
63.592645
 10
12.791507
 20
65.592645
 10
19.973176
 20
65.592645
  0
INSERT
  5
7CF
100
AcDbEntity
  8
HATCH
100
AcDbBlockReference
  2
*X4
 10
26.513429
 20
-4.375
 30
0.0
1001
ACAD
1000
HATCH
1002
{
1070
    16
1000
AR-CONC
1040
0.25
1040
0.0
1002
}
  0
ENDSEC
  0
SECTION
  2
OBJECTS
  0
DICTIONARY
  5
C
100
AcDbDictionary
  3
ACAD_GROUP
350
D
  3
ACAD_MLINESTYLE
350
1A
  3
ACDBVARIABLEDICTIONARY
350
2F
  0
DICTIONARY
  5
D
102
{ACAD_REACTORS
330
C
102
}
100
AcDbDictionary
  0
DICTIONARY
  5
1A
102
{ACAD_REACTORS
330
C
102
}
100
AcDbDictionary
  3
STANDARD
350
1B
  0
DICTIONARY
  5
2F
102
{ACAD_REACTORS
330
C
102
}
100
AcDbDictionary
  3
DIMADEC
350
30
  0
MLINESTYLE
  5
1B
102
{ACAD_REACTORS
330
1A
102
}
100
AcDbMlineStyle
  2
STANDARD
 70
     0
  3

 62
   256
 51
90.0
 52
90.0
 71
     2
 49
0.5
 62
   256
  6
BYLAYER
 49
-0.5
 62
   256
  6
BYLAYER
  0
DICTIONARYVAR
  5
30
102
{ACAD_REACTORS
330
2F
102
}
100
DictionaryVariables
280
     0
  1
0
  0
ENDSEC
  0
EOF
