  0
SECTION
  2
HEADER
  9
$ACADVER
  1
AC1014
  9
$ACADMAINTVER
 70
     8
  9
$DWGCODEPAGE
  3
ANSI_1252
  9
$INSBASE
 10
0.0
 20
0.0
 30
0.0
  9
$EXTMIN
 10
6.669648
 20
4.856694
 30
0.0
  9
$EXTMAX
 10
82.033582
 20
60.856694
 30
0.0
  9
$LIMMIN
 10
0.0
 20
0.0
  9
$LIMMAX
 10
85.0
 20
110.0
  9
$ORTHOMODE
 70
     1
  9
$REGENMODE
 70
     1
  9
$FILLMODE
 70
     1
  9
$QTEXTMODE
 70
     0
  9
$MIRRTEXT
 70
     1
  9
$DRAGMODE
 70
     2
  9
$LTSCALE
 40
3.0
  9
$OSMODE
 70
    37
  9
$ATTMODE
 70
     1
  9
$TEXTSIZE
 40
0.2
  9
$TRACEWID
 40
0.05
  9
$TEXTSTYLE
  7
STANDARD
  9
$CLAYER
  8
0
  9
$CELTYPE
  6
BYLAYER
  9
$CECOLOR
 62
   256
  9
$CELTSCALE
 40
1.0
  9
$DELOBJ
 70
     1
  9
$DISPSILH
 70
     0
  9
$DIMSCALE
 40
1.0
  9
$DIMASZ
 40
0.18
  9
$DIMEXO
 40
0.0625
  9
$DIMDLI
 40
0.38
  9
$DIMRND
 40
0.0
  9
$DIMDLE
 40
0.0
  9
$DIMEXE
 40
0.18
  9
$DIMTP
 40
0.0
  9
$DIMTM
 40
0.0
  9
$DIMTXT
 40
0.18
  9
$DIMCEN
 40
0.09
  9
$DIMTSZ
 40
0.0
  9
$DIMTOL
 70
     0
  9
$DIMLIM
 70
     0
  9
$DIMTIH
 70
     1
  9
$DIMTOH
 70
     1
  9
$DIMSE1
 70
     0
  9
$DIMSE2
 70
     0
  9
$DIMTAD
 70
     0
  9
$DIMZIN
 70
     0
  9
$DIMBLK
  1

  9
$DIMASO
 70
     1
  9
$DIMSHO
 70
     1
  9
$DIMPOST
  1

  9
$DIMAPOST
  1

  9
$DIMALT
 70
     0
  9
$DIMALTD
 70
     2
  9
$DIMALTF
 40
25.4
  9
$DIMLFAC
 40
1.0
  9
$DIMTOFL
 70
     0
  9
$DIMTVP
 40
0.0
  9
$DIMTIX
 70
     0
  9
$DIMSOXD
 70
     0
  9
$DIMSAH
 70
     0
  9
$DIMBLK1
  1

  9
$DIMBLK2
  1

  9
$DIMSTYLE
  2
STANDARD
  9
$DIMCLRD
 70
     0
  9
$DIMCLRE
 70
     0
  9
$DIMCLRT
 70
     0
  9
$DIMTFAC
 40
1.0
  9
$DIMGAP
 40
0.09
  9
$DIMJUST
 70
     0
  9
$DIMSD1
 70
     0
  9
$DIMSD2
 70
     0
  9
$DIMTOLJ
 70
     1
  9
$DIMTZIN
 70
     0
  9
$DIMALTZ
 70
     0
  9
$DIMALTTZ
 70
     0
  9
$DIMFIT
 70
     5
  9
$DIMUPT
 70
     0
  9
$DIMUNIT
 70
     4
  9
$DIMDEC
 70
     4
  9
$DIMTDEC
 70
     4
  9
$DIMALTU
 70
     4
  9
$DIMALTTD
 70
     2
  9
$DIMTXSTY
  7
STANDARD
  9
$DIMAUNIT
 70
     2
  9
$LUNITS
 70
     4
  9
$LUPREC
 70
     4
  9
$SKETCHINC
 40
0.1
  9
$FILLETRAD
 40
0.0
  9
$AUNITS
 70
     2
  9
$AUPREC
 70
     0
  9
$MENU
  1
acad
  9
$ELEVATION
 40
0.0
  9
$PELEVATION
 40
0.0
  9
$THICKNESS
 40
0.0
  9
$LIMCHECK
 70
     0
  9
$BLIPMODE
 70
     1
  9
$CHAMFERA
 40
0.0
  9
$CHAMFERB
 40
0.0
  9
$CHAMFERC
 40
0.0
  9
$CHAMFERD
 40
0.0
  9
$SKPOLY
 70
     0
  9
$TDCREATE
 40
2451169.706740972
  9
$TDUPDATE
 40
2452249.413755439
  9
$TDINDWG
 40
0.0307659722
  9
$TDUSRTIMER
 40
0.0307659722
  9
$USRTIMER
 70
     1
  9
$ANGBASE
 50
0.0
  9
$ANGDIR
 70
     0
  9
$PDMODE
 70
     0
  9
$PDSIZE
 40
0.0
  9
$PLINEWID
 40
0.0
  9
$COORDS
 70
     1
  9
$SPLFRAME
 70
     0
  9
$SPLINETYPE
 70
     6
  9
$SPLINESEGS
 70
     8
  9
$ATTDIA
 70
     0
  9
$ATTREQ
 70
     1
  9
$HANDLING
 70
     1
  9
$HANDSEED
  5
65D
  9
$SURFTAB1
 70
     6
  9
$SURFTAB2
 70
     6
  9
$SURFTYPE
 70
     6
  9
$SURFU
 70
     6
  9
$SURFV
 70
     6
  9
$UCSNAME
  2

  9
$UCSORG
 10
0.0
 20
0.0
 30
0.0
  9
$UCSXDIR
 10
1.0
 20
0.0
 30
0.0
  9
$UCSYDIR
 10
0.0
 20
1.0
 30
0.0
  9
$PUCSNAME
  2

  9
$PUCSORG
 10
0.0
 20
0.0
 30
0.0
  9
$PUCSXDIR
 10
1.0
 20
0.0
 30
0.0
  9
$PUCSYDIR
 10
0.0
 20
1.0
 30
0.0
  9
$USERI1
 70
     0
  9
$USERI2
 70
     0
  9
$USERI3
 70
     0
  9
$USERI4
 70
     0
  9
$USERI5
 70
     0
  9
$USERR1
 40
0.0
  9
$USERR2
 40
0.0
  9
$USERR3
 40
0.0
  9
$USERR4
 40
0.0
  9
$USERR5
 40
0.0
  9
$WORLDVIEW
 70
     1
  9
$SHADEDGE
 70
     3
  9
$SHADEDIF
 70
    70
  9
$TILEMODE
 70
     1
  9
$MAXACTVP
 70
    16
  9
$PINSBASE
 10
0.0
 20
0.0
 30
0.0
  9
$PLIMCHECK
 70
     0
  9
$PEXTMIN
 10
1.000000E+20
 20
1.000000E+20
 30
1.000000E+20
  9
$PEXTMAX
 10
-1.000000E+20
 20
-1.000000E+20
 30
-1.000000E+20
  9
$PLIMMIN
 10
0.0
 20
0.0
  9
$PLIMMAX
 10
12.0
 20
9.0
  9
$UNITMODE
 70
     0
  9
$VISRETAIN
 70
     0
  9
$PLINEGEN
 70
     0
  9
$PSLTSCALE
 70
     1
  9
$TREEDEPTH
 70
  3020
  9
$PICKSTYLE
 70
     1
  9
$CMLSTYLE
  2
STANDARD
  9
$CMLJUST
 70
     0
  9
$CMLSCALE
 40
1.0
  9
$PROXYGRAPHICS
 70
     1
  9
$MEASUREMENT
 70
     0
  0
ENDSEC
  0
SECTION
  2
CLASSES
  0
CLASS
  1
DICTIONARYVAR
  2
AcDbDictionaryVar
  3
"AutoCAD"
 90
        0
280
     0
281
     0
  0
CLASS
  1
LWPOLYLINE
  2
AcDbPolyline
  3
"AutoCAD"
 90
        0
280
     0
281
     1
  0
ENDSEC
  0
SECTION
  2
TABLES
  0
TABLE
  2
VPORT
  5
8
100
AcDbSymbolTable
 70
     1
  0
VPORT
  5
657
100
AcDbSymbolTableRecord
100
AcDbViewportTableRecord
  2
*ACTIVE
 70
     0
 10
0.0
 20
0.0
 11
1.0
 21
1.0
 12
44.627261
 22
32.4879
 13
0.0
 23
0.0
 14
1.0
 24
1.0
 15
1.0
 25
1.0
 16
0.0
 26
0.0
 36
1.0
 17
0.0
 27
0.0
 37
0.0
 40
62.1618
 41
1.474388
 42
50.0
 43
0.0
 44
0.0
 50
0.0
 51
0.0
 71
     0
 72
   100
 73
     1
 74
     1
 75
     0
 76
     0
 77
     0
 78
     0
  0
ENDTAB
  0
TABLE
  2
LTYPE
  5
5
100
AcDbSymbolTable
 70
     1
  0
LTYPE
  5
11
100
AcDbSymbolTableRecord
100
AcDbLinetypeTableRecord
  2
BYBLOCK
 70
     0
  3

 72
    65
 73
     0
 40
0.0
  0
LTYPE
  5
12
100
AcDbSymbolTableRecord
100
AcDbLinetypeTableRecord
  2
BYLAYER
 70
     0
  3

 72
    65
 73
     0
 40
0.0
  0
LTYPE
  5
13
100
AcDbSymbolTableRecord
100
AcDbLinetypeTableRecord
  2
CONTINUOUS
 70
     0
  3
Solid line
 72
    65
 73
     0
 40
0.0
  0
ENDTAB
  0
TABLE
  2
LAYER
  5
2
100
AcDbSymbolTable
 70
     4
  0
LAYER
  5
E
100
AcDbSymbolTableRecord
100
AcDbLayerTableRecord
  2
0
 70
     0
 62
     7
  6
CONTINUOUS
  0
LAYER
  5
25
100
AcDbSymbolTableRecord
100
AcDbLayerTableRecord
  2
DRAWING
 70
     0
 62
     7
  6
CONTINUOUS
  0
LAYER
  5
26
100
AcDbSymbolTableRecord
100
AcDbLayerTableRecord
  2
HATCH
 70
     0
 62
     3
  6
CONTINUOUS
  0
LAYER
  5
27
100
AcDbSymbolTableRecord
100
AcDbLayerTableRecord
  2
DIM_TEXT
 70
     0
 62
     6
  6
CONTINUOUS
  0
ENDTAB
  0
TABLE
  2
STYLE
  5
3
100
AcDbSymbolTable
 70
     3
  0
STYLE
  5
F
100
AcDbSymbolTableRecord
100
AcDbTextStyleTableRecord
  2
STANDARD
 70
     0
 40
0.0
 41
1.0
 50
0.0
 71
     0
 42
0.2
  3
txt
  4

  0
STYLE
  5
1F
100
AcDbSymbolTableRecord
100
AcDbTextStyleTableRecord
  2
INFO
 70
     0
 40
0.0
 41
1.0
 50
15.0
 71
     0
 42
1.08
  3
C:\ACADWIN\FONTS\ROMANS.SHX
  4

  0
STYLE
  5
20
100
AcDbSymbolTableRecord
100
AcDbTextStyleTableRecord
  2
TITLE
 70
     0
 40
0.0
 41
1.0
 50
0.0
 71
     0
 42
2.8
  3
C:\ACADWIN\FONTS\ROMANC.SHX
  4

  0
ENDTAB
  0
TABLE
  2
VIEW
  5
6
100
AcDbSymbolTable
 70
     0
  0
ENDTAB
  0
TABLE
  2
UCS
  5
7
100
AcDbSymbolTable
 70
     0
  0
ENDTAB
  0
TABLE
  2
APPID
  5
9
100
AcDbSymbolTable
 70
     2
  0
APPID
  5
10
100
AcDbSymbolTableRecord
100
AcDbRegAppTableRecord
  2
ACAD
 70
     0
  0
APPID
  5
24
100
AcDbSymbolTableRecord
100
AcDbRegAppTableRecord
  2
ZIMM
 70
     0
  0
ENDTAB
  0
TABLE
  2
DIMSTYLE
  5
A
100
AcDbSymbolTable
 70
     1
  0
DIMSTYLE
105
646
100
AcDbSymbolTableRecord
100
AcDbDimStyleTableRecord
  2
STANDARD
 70
     0
  3

  4

  5

  6

  7

 40
1.0
 41
0.18
 42
0.0625
 43
0.38
 44
0.18
 45
0.0
 46
0.0
 47
0.0
 48
0.0
140
0.18
141
0.09
142
0.0
143
25.4
144
1.0
145
0.0
146
1.0
147
0.09
 71
     0
 72
     0
 73
     1
 74
     1
 75
     0
 76
     0
 77
     0
 78
     0
170
     0
171
     2
172
     0
173
     0
174
     0
175
     0
176
     0
177
     0
178
     0
270
     2
271
     4
272
     4
273
     2
274
     2
340
F
275
     0
280
     0
281
     0
282
     0
283
     1
284
     0
285
     0
286
     0
287
     3
288
     0
  0
ENDTAB
  0
TABLE
  2
BLOCK_RECORD
  5
1
100
AcDbSymbolTable
 70
     3
  0
BLOCK_RECORD
  5
17
100
AcDbSymbolTableRecord
100
AcDbBlockTableRecord
  2
*MODEL_SPACE
  0
BLOCK_RECORD
  5
14
100
AcDbSymbolTableRecord
100
AcDbBlockTableRecord
  2
*PAPER_SPACE
  0
BLOCK_RECORD
  5
1C
100
AcDbSymbolTableRecord
100
AcDbBlockTableRecord
  2
*X0
  0
BLOCK_RECORD
  5
1D
100
AcDbSymbolTableRecord
100
AcDbBlockTableRecord
  2
*X1
  0
BLOCK_RECORD
  5
1E
100
AcDbSymbolTableRecord
100
AcDbBlockTableRecord
  2
*X2
  0
ENDTAB
  0
ENDSEC
  0
SECTION
  2
BLOCKS
  0
BLOCK
  5
2A
100
AcDbEntity
  8
0
100
AcDbBlockBegin
  2
*MODEL_SPACE
 70
     0
 10
0.0
 20
0.0
 30
0.0
  3
*MODEL_SPACE
  1

  0
ENDBLK
  5
2B
100
AcDbEntity
  8
0
100
AcDbBlockEnd
  0
BLOCK
  5
28
100
AcDbEntity
 67
     1
  8
0
100
AcDbBlockBegin
  2
*PAPER_SPACE
 70
     0
 10
0.0
 20
0.0
 30
0.0
  3
*PAPER_SPACE
  1

  0
ENDBLK
  5
29
100
AcDbEntity
 67
     1
  8
0
100
AcDbBlockEnd
  0
BLOCK
  5
2E
100
AcDbEntity
  8
0
100
AcDbBlockBegin
  2
*X0
 70
     1
 10
0.0
 20
0.0
 30
0.0
  3
*X0
  1

  0
LINE
  5
2F
100
AcDbEntity
  8
0
 62
     0
100
AcDbLine
 10
63.026797
 20
52.420195
 30
0.0
 11
66.026797
 21
55.420195
 31
0.0
  0
LINE
  5
30
100
AcDbEntity
  8
0
 62
     0
100
AcDbLine
 10
72.026797
 20
61.420195
 30
0.0
 11
75.026797
 21
64.420195
 31
0.0
  0
LINE
  5
31
100
AcDbEntity
  8
0
 62
     0
100
AcDbLine
 10
63.026797
 20
54.187962
 30
0.0
 11
66.026797
 21
57.187962
 31
0.0
  0
LINE
  5
32
100
AcDbEntity
  8
0
 62
     0
100
AcDbLine
 10
72.026797
 20
63.187962
 30
0.0
 11
75.026797
 21
66.187962
 31
0.0
  0
LINE
  5
33
100
AcDbEntity
  8
0
 62
     0
100
AcDbLine
 10
63.026797
 20
55.955729
 30
0.0
 11
65.033708
 21
57.962641
 31
0.0
  0
LINE
  5
34
100
AcDbEntity
  8
0
 62
     0
100
AcDbLine
 10
72.026797
 20
64.955729
 30
0.0
 11
75.026797
 21
67.955729
 31
0.0
  0
LINE
  5
35
100
AcDbEntity
  8
0
 62
     0
100
AcDbLine
 10
65.033708
 20
57.962641
 30
0.0
 11
66.026797
 21
58.955729
 31
0.0
  0
LINE
  5
36
100
AcDbEntity
  8
0
 62
     0
100
AcDbLine
 10
63.026797
 20
57.723496
 30
0.0
 11
63.265941
 21
57.962641
 31
0.0
  0
LINE
  5
37
100
AcDbEntity
  8
0
 62
     0
100
AcDbLine
 10
72.026797
 20
66.723496
 30
0.0
 11
75.026797
 21
69.723496
 31
0.0
  0
LINE
  5
38
100
AcDbEntity
  8
0
 62
     0
100
AcDbLine
 10
63.265941
 20
57.962641
 30
0.0
 11
66.026797
 21
60.723496
 31
0.0
  0
LINE
  5
39
100
AcDbEntity
  8
0
 62
     0
100
AcDbLine
 10
63.026797
 20
59.491263
 30
0.0
 11
66.026797
 21
62.491263
 31
0.0
  0
LINE
  5
3A
100
AcDbEntity
  8
0
 62
     0
100
AcDbLine
 10
72.026797
 20
68.491263
 30
0.0
 11
75.026797
 21
71.491263
 31
0.0
  0
LINE
  5
3B
100
AcDbEntity
  8
0
 62
     0
100
AcDbLine
 10
63.026797
 20
61.25903
 30
0.0
 11
66.026797
 21
64.25903
 31
0.0
  0
LINE
  5
3C
100
AcDbEntity
  8
0
 62
     0
100
AcDbLine
 10
72.026797
 20
70.25903
 30
0.0
 11
74.730408
 21
72.962641
 31
0.0
  0
LINE
  5
3D
100
AcDbEntity
  8
0
 62
     0
100
AcDbLine
 10
63.026797
 20
63.026797
 30
0.0
 11
66.026797
 21
66.026797
 31
0.0
  0
LINE
  5
3E
100
AcDbEntity
  8
0
 62
     0
100
AcDbLine
 10
72.026797
 20
72.026797
 30
0.0
 11
72.962641
 21
72.962641
 31
0.0
  0
LINE
  5
3F
100
AcDbEntity
  8
0
 62
     0
100
AcDbLine
 10
63.026797
 20
64.794564
 30
0.0
 11
66.026797
 21
67.794564
 31
0.0
  0
LINE
  5
40
100
AcDbEntity
  8
0
 62
     0
100
AcDbLine
 10
63.026797
 20
66.562331
 30
0.0
 11
66.026797
 21
69.562331
 31
0.0
  0
LINE
  5
41
100
AcDbEntity
  8
0
 62
     0
100
AcDbLine
 10
63.026797
 20
68.330098
 30
0.0
 11
66.026797
 21
71.330098
 31
0.0
  0
LINE
  5
42
100
AcDbEntity
  8
0
 62
     0
100
AcDbLine
 10
63.026797
 20
70.097865
 30
0.0
 11
65.891573
 21
72.962641
 31
0.0
  0
LINE
  5
43
100
AcDbEntity
  8
0
 62
     0
100
AcDbLine
 10
63.026797
 20
71.865632
 30
0.0
 11
64.123806
 21
72.962641
 31
0.0
  0
LINE
  5
44
100
AcDbEntity
  8
0
 62
     0
100
AcDbLine
 10
63.026797
 20
50.652428
 30
0.0
 11
66.026797
 21
53.652428
 31
0.0
  0
LINE
  5
45
100
AcDbEntity
  8
0
 62
     0
100
AcDbLine
 10
72.970788
 20
60.596419
 30
0.0
 11
75.026797
 21
62.652428
 31
0.0
  0
LINE
  5
46
100
AcDbEntity
  8
0
 62
     0
100
AcDbLine
 10
63.026797
 20
48.884661
 30
0.0
 11
66.026797
 21
51.884661
 31
0.0
  0
LINE
  5
47
100
AcDbEntity
  8
0
 62
     0
100
AcDbLine
 10
74.738555
 20
60.596419
 30
0.0
 11
75.026797
 21
60.884661
 31
0.0
  0
LINE
  5
48
100
AcDbEntity
  8
0
 62
     0
100
AcDbLine
 10
63.026797
 20
47.116895
 30
0.0
 11
66.026797
 21
50.116895
 31
0.0
  0
LINE
  5
49
100
AcDbEntity
  8
0
 62
     0
100
AcDbLine
 10
63.026797
 20
45.349128
 30
0.0
 11
66.026797
 21
48.349128
 31
0.0
  0
LINE
  5
4A
100
AcDbEntity
  8
0
 62
     0
100
AcDbLine
 10
72.026797
 20
54.349128
 30
0.0
 11
72.274089
 21
54.596419
 31
0.0
  0
LINE
  5
4B
100
AcDbEntity
  8
0
 62
     0
100
AcDbLine
 10
63.026797
 20
43.581361
 30
0.0
 11
66.026797
 21
46.581361
 31
0.0
  0
LINE
  5
4C
100
AcDbEntity
  8
0
 62
     0
100
AcDbLine
 10
72.026797
 20
52.581361
 30
0.0
 11
74.041856
 21
54.596419
 31
0.0
  0
LINE
  5
4D
100
AcDbEntity
  8
0
 62
     0
100
AcDbLine
 10
64.175844
 20
42.962641
 30
0.0
 11
66.026797
 21
44.813594
 31
0.0
  0
LINE
  5
4E
100
AcDbEntity
  8
0
 62
     0
100
AcDbLine
 10
72.026797
 20
50.813594
 30
0.0
 11
75.026797
 21
53.813594
 31
0.0
  0
LINE
  5
4F
100
AcDbEntity
  8
0
 62
     0
100
AcDbLine
 10
65.943611
 20
42.962641
 30
0.0
 11
66.026797
 21
43.045827
 31
0.0
  0
LINE
  5
50
100
AcDbEntity
  8
0
 62
     0
100
AcDbLine
 10
72.026797
 20
49.045827
 30
0.0
 11
75.026797
 21
52.045827
 31
0.0
  0
LINE
  5
51
100
AcDbEntity
  8
0
 62
     0
100
AcDbLine
 10
72.026797
 20
47.27806
 30
0.0
 11
75.026797
 21
50.27806
 31
0.0
  0
LINE
  5
52
100
AcDbEntity
  8
0
 62
     0
100
AcDbLine
 10
72.026797
 20
45.510293
 30
0.0
 11
75.026797
 21
48.510293
 31
0.0
  0
LINE
  5
53
100
AcDbEntity
  8
0
 62
     0
100
AcDbLine
 10
72.026797
 20
43.742526
 30
0.0
 11
75.026797
 21
46.742526
 31
0.0
  0
LINE
  5
54
100
AcDbEntity
  8
0
 62
     0
100
AcDbLine
 10
73.014679
 20
42.962641
 30
0.0
 11
75.026797
 21
44.974759
 31
0.0
  0
LINE
  5
55
100
AcDbEntity
  8
0
 62
     0
100
AcDbLine
 10
74.782446
 20
42.962641
 30
0.0
 11
75.026797
 21
43.206992
 31
0.0
  0
LINE
  5
56
100
AcDbEntity
  8
0
 62
     0
100
AcDbLine
 10
63.026797
 20
53.304079
 30
0.0
 11
63.418639
 21
53.695921
 31
0.0
  0
LINE
  5
57
100
AcDbEntity
  8
0
 62
     0
100
AcDbLine
 10
63.63961
 20
53.916892
 30
0.0
 11
64.081552
 21
54.358834
 31
0.0
  0
LINE
  5
58
100
AcDbEntity
  8
0
 62
     0
100
AcDbLine
 10
64.302523
 20
54.579805
 30
0.0
 11
64.744465
 21
55.021746
 31
0.0
  0
LINE
  5
59
100
AcDbEntity
  8
0
 62
     0
100
AcDbLine
 10
64.965436
 20
55.242717
 30
0.0
 11
65.407377
 21
55.684659
 31
0.0
  0
LINE
  5
5A
100
AcDbEntity
  8
0
 62
     0
100
AcDbLine
 10
65.628348
 20
55.90563
 30
0.0
 11
66.026797
 21
56.304079
 31
0.0
  0
LINE
  5
5B
100
AcDbEntity
  8
0
 62
     0
100
AcDbLine
 10
72.026797
 20
62.304079
 30
0.0
 11
72.036503
 21
62.313785
 31
0.0
  0
LINE
  5
5C
100
AcDbEntity
  8
0
 62
     0
100
AcDbLine
 10
72.257474
 20
62.534756
 30
0.0
 11
72.699416
 21
62.976698
 31
0.0
  0
LINE
  5
5D
100
AcDbEntity
  8
0
 62
     0
100
AcDbLine
 10
72.920387
 20
63.197669
 30
0.0
 11
73.362329
 21
63.63961
 31
0.0
  0
LINE
  5
5E
100
AcDbEntity
  8
0
 62
     0
100
AcDbLine
 10
73.583299
 20
63.860581
 30
0.0
 11
74.025241
 21
64.302523
 31
0.0
  0
LINE
  5
5F
100
AcDbEntity
  8
0
 62
     0
100
AcDbLine
 10
74.246212
 20
64.523494
 30
0.0
 11
74.688154
 21
64.965436
 31
0.0
  0
LINE
  5
60
100
AcDbEntity
  8
0
 62
     0
100
AcDbLine
 10
74.909125
 20
65.186406
 30
0.0
 11
75.026797
 21
65.304079
 31
0.0
  0
LINE
  5
61
100
AcDbEntity
  8
0
 62
     0
100
AcDbLine
 10
63.026797
 20
55.071846
 30
0.0
 11
63.197669
 21
55.242717
 31
0.0
  0
LINE
  5
62
100
AcDbEntity
  8
0
 62
     0
100
AcDbLine
 10
63.418639
 20
55.463688
 30
0.0
 11
63.860581
 21
55.90563
 31
0.0
  0
LINE
  5
63
100
AcDbEntity
  8
0
 62
     0
100
AcDbLine
 10
64.081552
 20
56.126601
 30
0.0
 11
64.523494
 21
56.568542
 31
0.0
  0
LINE
  5
64
100
AcDbEntity
  8
0
 62
     0
100
AcDbLine
 10
64.744465
 20
56.789513
 30
0.0
 11
65.186406
 21
57.231455
 31
0.0
  0
LINE
  5
65
100
AcDbEntity
  8
0
 62
     0
100
AcDbLine
 10
65.407377
 20
57.452426
 30
0.0
 11
65.849319
 21
57.894368
 31
0.0
  0
LINE
  5
66
100
AcDbEntity
  8
0
 62
     0
100
AcDbLine
 10
72.036503
 20
64.081552
 30
0.0
 11
72.478445
 21
64.523494
 31
0.0
  0
LINE
  5
67
100
AcDbEntity
  8
0
 62
     0
100
AcDbLine
 10
72.699416
 20
64.744465
 30
0.0
 11
73.141358
 21
65.186406
 31
0.0
  0
LINE
  5
68
100
AcDbEntity
  8
0
 62
     0
100
AcDbLine
 10
73.362329
 20
65.407377
 30
0.0
 11
73.80427
 21
65.849319
 31
0.0
  0
LINE
  5
69
100
AcDbEntity
  8
0
 62
     0
100
AcDbLine
 10
74.025241
 20
66.07029
 30
0.0
 11
74.467183
 21
66.512232
 31
0.0
  0
LINE
  5
6A
100
AcDbEntity
  8
0
 62
     0
100
AcDbLine
 10
74.688154
 20
66.733202
 30
0.0
 11
75.026797
 21
67.071846
 31
0.0
  0
LINE
  5
6B
100
AcDbEntity
  8
0
 62
     0
100
AcDbLine
 10
63.197669
 20
57.010484
 30
0.0
 11
63.63961
 21
57.452426
 31
0.0
  0
LINE
  5
6C
100
AcDbEntity
  8
0
 62
     0
100
AcDbLine
 10
63.860581
 20
57.673397
 30
0.0
 11
64.149825
 21
57.962641
 31
0.0
  0
LINE
  5
6D
100
AcDbEntity
  8
0
 62
     0
100
AcDbLine
 10
72.026797
 20
65.839613
 30
0.0
 11
72.257474
 21
66.07029
 31
0.0
  0
LINE
  5
6E
100
AcDbEntity
  8
0
 62
     0
100
AcDbLine
 10
72.478445
 20
66.291261
 30
0.0
 11
72.920387
 21
66.733202
 31
0.0
  0
LINE
  5
6F
100
AcDbEntity
  8
0
 62
     0
100
AcDbLine
 10
73.141358
 20
66.954173
 30
0.0
 11
73.583299
 21
67.396115
 31
0.0
  0
LINE
  5
70
100
AcDbEntity
  8
0
 62
     0
100
AcDbLine
 10
73.80427
 20
67.617086
 30
0.0
 11
74.246212
 21
68.059028
 31
0.0
  0
LINE
  5
71
100
AcDbEntity
  8
0
 62
     0
100
AcDbLine
 10
74.467183
 20
68.279999
 30
0.0
 11
74.909125
 21
68.72194
 31
0.0
  0
LINE
  5
72
100
AcDbEntity
  8
0
 62
     0
100
AcDbLine
 10
64.149825
 20
57.962641
 30
0.0
 11
64.302523
 21
58.115339
 31
0.0
  0
LINE
  5
73
100
AcDbEntity
  8
0
 62
     0
100
AcDbLine
 10
64.523494
 20
58.336309
 30
0.0
 11
64.965436
 21
58.778251
 31
0.0
  0
LINE
  5
74
100
AcDbEntity
  8
0
 62
     0
100
AcDbLine
 10
65.186406
 20
58.999222
 30
0.0
 11
65.628348
 21
59.441164
 31
0.0
  0
LINE
  5
75
100
AcDbEntity
  8
0
 62
     0
100
AcDbLine
 10
65.849319
 20
59.662135
 30
0.0
 11
66.026797
 21
59.839613
 31
0.0
  0
LINE
  5
76
100
AcDbEntity
  8
0
 62
     0
100
AcDbLine
 10
63.026797
 20
58.60738
 30
0.0
 11
63.418639
 21
58.999222
 31
0.0
  0
LINE
  5
77
100
AcDbEntity
  8
0
 62
     0
100
AcDbLine
 10
63.63961
 20
59.220193
 30
0.0
 11
64.081552
 21
59.662135
 31
0.0
  0
LINE
  5
78
100
AcDbEntity
  8
0
 62
     0
100
AcDbLine
 10
64.302523
 20
59.883106
 30
0.0
 11
64.744465
 21
60.325047
 31
0.0
  0
LINE
  5
79
100
AcDbEntity
  8
0
 62
     0
100
AcDbLine
 10
64.965436
 20
60.546018
 30
0.0
 11
65.407377
 21
60.98796
 31
0.0
  0
LINE
  5
7A
100
AcDbEntity
  8
0
 62
     0
100
AcDbLine
 10
65.628348
 20
61.208931
 30
0.0
 11
66.026797
 21
61.60738
 31
0.0
  0
LINE
  5
7B
100
AcDbEntity
  8
0
 62
     0
100
AcDbLine
 10
72.026797
 20
67.60738
 30
0.0
 11
72.036503
 21
67.617086
 31
0.0
  0
LINE
  5
7C
100
AcDbEntity
  8
0
 62
     0
100
AcDbLine
 10
72.257474
 20
67.838057
 30
0.0
 11
72.699416
 21
68.279999
 31
0.0
  0
LINE
  5
7D
100
AcDbEntity
  8
0
 62
     0
100
AcDbLine
 10
72.920387
 20
68.500969
 30
0.0
 11
73.362329
 21
68.942911
 31
0.0
  0
LINE
  5
7E
100
AcDbEntity
  8
0
 62
     0
100
AcDbLine
 10
73.583299
 20
69.163882
 30
0.0
 11
74.025241
 21
69.605824
 31
0.0
  0
LINE
  5
7F
100
AcDbEntity
  8
0
 62
     0
100
AcDbLine
 10
74.246212
 20
69.826795
 30
0.0
 11
74.688154
 21
70.268736
 31
0.0
  0
LINE
  5
80
100
AcDbEntity
  8
0
 62
     0
100
AcDbLine
 10
74.909125
 20
70.489707
 30
0.0
 11
75.026797
 21
70.60738
 31
0.0
  0
LINE
  5
81
100
AcDbEntity
  8
0
 62
     0
100
AcDbLine
 10
63.026797
 20
60.375147
 30
0.0
 11
63.197669
 21
60.546018
 31
0.0
  0
LINE
  5
82
100
AcDbEntity
  8
0
 62
     0
100
AcDbLine
 10
63.418639
 20
60.766989
 30
0.0
 11
63.860581
 21
61.208931
 31
0.0
  0
LINE
  5
83
100
AcDbEntity
  8
0
 62
     0
100
AcDbLine
 10
64.081552
 20
61.429902
 30
0.0
 11
64.523494
 21
61.871843
 31
0.0
  0
LINE
  5
84
100
AcDbEntity
  8
0
 62
     0
100
AcDbLine
 10
64.744465
 20
62.092814
 30
0.0
 11
65.186406
 21
62.534756
 31
0.0
  0
LINE
  5
85
100
AcDbEntity
  8
0
 62
     0
100
AcDbLine
 10
65.407377
 20
62.755727
 30
0.0
 11
65.849319
 21
63.197669
 31
0.0
  0
LINE
  5
86
100
AcDbEntity
  8
0
 62
     0
100
AcDbLine
 10
72.036503
 20
69.384853
 30
0.0
 11
72.478445
 21
69.826795
 31
0.0
  0
LINE
  5
87
100
AcDbEntity
  8
0
 62
     0
100
AcDbLine
 10
72.699416
 20
70.047766
 30
0.0
 11
73.141358
 21
70.489707
 31
0.0
  0
LINE
  5
88
100
AcDbEntity
  8
0
 62
     0
100
AcDbLine
 10
73.362329
 20
70.710678
 30
0.0
 11
73.80427
 21
71.15262
 31
0.0
  0
LINE
  5
89
100
AcDbEntity
  8
0
 62
     0
100
AcDbLine
 10
74.025241
 20
71.373591
 30
0.0
 11
74.467183
 21
71.815532
 31
0.0
  0
LINE
  5
8A
100
AcDbEntity
  8
0
 62
     0
100
AcDbLine
 10
74.688154
 20
72.036503
 30
0.0
 11
75.026797
 21
72.375147
 31
0.0
  0
LINE
  5
8B
100
AcDbEntity
  8
0
 62
     0
100
AcDbLine
 10
63.197669
 20
62.313785
 30
0.0
 11
63.63961
 21
62.755727
 31
0.0
  0
LINE
  5
8C
100
AcDbEntity
  8
0
 62
     0
100
AcDbLine
 10
63.860581
 20
62.976698
 30
0.0
 11
64.302523
 21
63.418639
 31
0.0
  0
LINE
  5
8D
100
AcDbEntity
  8
0
 62
     0
100
AcDbLine
 10
64.523494
 20
63.63961
 30
0.0
 11
64.965436
 21
64.081552
 31
0.0
  0
LINE
  5
8E
100
AcDbEntity
  8
0
 62
     0
100
AcDbLine
 10
65.186406
 20
64.302523
 30
0.0
 11
65.628348
 21
64.744465
 31
0.0
  0
LINE
  5
8F
100
AcDbEntity
  8
0
 62
     0
100
AcDbLine
 10
65.849319
 20
64.965436
 30
0.0
 11
66.026797
 21
65.142914
 31
0.0
  0
LINE
  5
90
100
AcDbEntity
  8
0
 62
     0
100
AcDbLine
 10
72.026797
 20
71.142914
 30
0.0
 11
72.257474
 21
71.373591
 31
0.0
  0
LINE
  5
91
100
AcDbEntity
  8
0
 62
     0
100
AcDbLine
 10
72.478445
 20
71.594562
 30
0.0
 11
72.920387
 21
72.036503
 31
0.0
  0
LINE
  5
92
100
AcDbEntity
  8
0
 62
     0
100
AcDbLine
 10
73.141358
 20
72.257474
 30
0.0
 11
73.583299
 21
72.699416
 31
0.0
  0
LINE
  5
93
100
AcDbEntity
  8
0
 62
     0
100
AcDbLine
 10
73.80427
 20
72.920387
 30
0.0
 11
73.846524
 21
72.962641
 31
0.0
  0
LINE
  5
94
100
AcDbEntity
  8
0
 62
     0
100
AcDbLine
 10
63.026797
 20
63.910681
 30
0.0
 11
63.418639
 21
64.302523
 31
0.0
  0
LINE
  5
95
100
AcDbEntity
  8
0
 62
     0
100
AcDbLine
 10
63.63961
 20
64.523494
 30
0.0
 11
64.081552
 21
64.965436
 31
0.0
  0
LINE
  5
96
100
AcDbEntity
  8
0
 62
     0
100
AcDbLine
 10
64.302523
 20
65.186406
 30
0.0
 11
64.744465
 21
65.628348
 31
0.0
  0
LINE
  5
97
100
AcDbEntity
  8
0
 62
     0
100
AcDbLine
 10
64.965436
 20
65.849319
 30
0.0
 11
65.407377
 21
66.291261
 31
0.0
  0
LINE
  5
98
100
AcDbEntity
  8
0
 62
     0
100
AcDbLine
 10
65.628348
 20
66.512232
 30
0.0
 11
66.026797
 21
66.910681
 31
0.0
  0
LINE
  5
99
100
AcDbEntity
  8
0
 62
     0
100
AcDbLine
 10
72.026797
 20
72.910681
 30
0.0
 11
72.036503
 21
72.920387
 31
0.0
  0
LINE
  5
9A
100
AcDbEntity
  8
0
 62
     0
100
AcDbLine
 10
63.026797
 20
65.678448
 30
0.0
 11
63.197669
 21
65.849319
 31
0.0
  0
LINE
  5
9B
100
AcDbEntity
  8
0
 62
     0
100
AcDbLine
 10
63.418639
 20
66.07029
 30
0.0
 11
63.860581
 21
66.512232
 31
0.0
  0
LINE
  5
9C
100
AcDbEntity
  8
0
 62
     0
100
AcDbLine
 10
64.081552
 20
66.733202
 30
0.0
 11
64.523494
 21
67.175144
 31
0.0
  0
LINE
  5
9D
100
AcDbEntity
  8
0
 62
     0
100
AcDbLine
 10
64.744465
 20
67.396115
 30
0.0
 11
65.186406
 21
67.838057
 31
0.0
  0
LINE
  5
9E
100
AcDbEntity
  8
0
 62
     0
100
AcDbLine
 10
65.407377
 20
68.059028
 30
0.0
 11
65.849319
 21
68.500969
 31
0.0
  0
LINE
  5
9F
100
AcDbEntity
  8
0
 62
     0
100
AcDbLine
 10
63.197669
 20
67.617086
 30
0.0
 11
63.63961
 21
68.059028
 31
0.0
  0
LINE
  5
A0
100
AcDbEntity
  8
0
 62
     0
100
AcDbLine
 10
63.860581
 20
68.279999
 30
0.0
 11
64.302523
 21
68.72194
 31
0.0
  0
LINE
  5
A1
100
AcDbEntity
  8
0
 62
     0
100
AcDbLine
 10
64.523494
 20
68.942911
 30
0.0
 11
64.965436
 21
69.384853
 31
0.0
  0
LINE
  5
A2
100
AcDbEntity
  8
0
 62
     0
100
AcDbLine
 10
65.186406
 20
69.605824
 30
0.0
 11
65.628348
 21
70.047766
 31
0.0
  0
LINE
  5
A3
100
AcDbEntity
  8
0
 62
     0
100
AcDbLine
 10
65.849319
 20
70.268736
 30
0.0
 11
66.026797
 21
70.446214
 31
0.0
  0
LINE
  5
A4
100
AcDbEntity
  8
0
 62
     0
100
AcDbLine
 10
63.026797
 20
69.213981
 30
0.0
 11
63.418639
 21
69.605824
 31
0.0
  0
LINE
  5
A5
100
AcDbEntity
  8
0
 62
     0
100
AcDbLine
 10
63.63961
 20
69.826795
 30
0.0
 11
64.081552
 21
70.268736
 31
0.0
  0
LINE
  5
A6
100
AcDbEntity
  8
0
 62
     0
100
AcDbLine
 10
64.302523
 20
70.489707
 30
0.0
 11
64.744465
 21
70.931649
 31
0.0
  0
LINE
  5
A7
100
AcDbEntity
  8
0
 62
     0
100
AcDbLine
 10
64.965436
 20
71.15262
 30
0.0
 11
65.407377
 21
71.594562
 31
0.0
  0
LINE
  5
A8
100
AcDbEntity
  8
0
 62
     0
100
AcDbLine
 10
65.628348
 20
71.815532
 30
0.0
 11
66.026797
 21
72.213981
 31
0.0
  0
LINE
  5
A9
100
AcDbEntity
  8
0
 62
     0
100
AcDbLine
 10
63.026797
 20
70.981748
 30
0.0
 11
63.197669
 21
71.15262
 31
0.0
  0
LINE
  5
AA
100
AcDbEntity
  8
0
 62
     0
100
AcDbLine
 10
63.418639
 20
71.373591
 30
0.0
 11
63.860581
 21
71.815532
 31
0.0
  0
LINE
  5
AB
100
AcDbEntity
  8
0
 62
     0
100
AcDbLine
 10
64.081552
 20
72.036503
 30
0.0
 11
64.523494
 21
72.478445
 31
0.0
  0
LINE
  5
AC
100
AcDbEntity
  8
0
 62
     0
100
AcDbLine
 10
64.744465
 20
72.699416
 30
0.0
 11
65.007689
 21
72.962641
 31
0.0
  0
LINE
  5
AD
100
AcDbEntity
  8
0
 62
     0
100
AcDbLine
 10
63.197669
 20
72.920387
 30
0.0
 11
63.239922
 21
72.962641
 31
0.0
  0
LINE
  5
AE
100
AcDbEntity
  8
0
 62
     0
100
AcDbLine
 10
63.197669
 20
51.707183
 30
0.0
 11
63.63961
 21
52.149125
 31
0.0
  0
LINE
  5
AF
100
AcDbEntity
  8
0
 62
     0
100
AcDbLine
 10
63.860581
 20
52.370096
 30
0.0
 11
64.302523
 21
52.812038
 31
0.0
  0
LINE
  5
B0
100
AcDbEntity
  8
0
 62
     0
100
AcDbLine
 10
64.523494
 20
53.033009
 30
0.0
 11
64.965436
 21
53.47495
 31
0.0
  0
LINE
  5
B1
100
AcDbEntity
  8
0
 62
     0
100
AcDbLine
 10
65.186406
 20
53.695921
 30
0.0
 11
65.628348
 21
54.137863
 31
0.0
  0
LINE
  5
B2
100
AcDbEntity
  8
0
 62
     0
100
AcDbLine
 10
65.849319
 20
54.358834
 30
0.0
 11
66.026797
 21
54.536312
 31
0.0
  0
LINE
  5
B3
100
AcDbEntity
  8
0
 62
     0
100
AcDbLine
 10
72.086905
 20
60.596419
 30
0.0
 11
72.257474
 21
60.766989
 31
0.0
  0
LINE
  5
B4
100
AcDbEntity
  8
0
 62
     0
100
AcDbLine
 10
72.478445
 20
60.98796
 30
0.0
 11
72.920387
 21
61.429902
 31
0.0
  0
LINE
  5
B5
100
AcDbEntity
  8
0
 62
     0
100
AcDbLine
 10
73.141358
 20
61.650872
 30
0.0
 11
73.583299
 21
62.092814
 31
0.0
  0
LINE
  5
B6
100
AcDbEntity
  8
0
 62
     0
100
AcDbLine
 10
73.80427
 20
62.313785
 30
0.0
 11
74.246212
 21
62.755727
 31
0.0
  0
LINE
  5
B7
100
AcDbEntity
  8
0
 62
     0
100
AcDbLine
 10
74.467183
 20
62.976698
 30
0.0
 11
74.909125
 21
63.418639
 31
0.0
  0
LINE
  5
B8
100
AcDbEntity
  8
0
 62
     0
100
AcDbLine
 10
63.026797
 20
49.768545
 30
0.0
 11
63.197669
 21
49.939416
 31
0.0
  0
LINE
  5
B9
100
AcDbEntity
  8
0
 62
     0
100
AcDbLine
 10
63.418639
 20
50.160387
 30
0.0
 11
63.860581
 21
50.602329
 31
0.0
  0
LINE
  5
BA
100
AcDbEntity
  8
0
 62
     0
100
AcDbLine
 10
64.081552
 20
50.8233
 30
0.0
 11
64.523494
 21
51.265242
 31
0.0
  0
LINE
  5
BB
100
AcDbEntity
  8
0
 62
     0
100
AcDbLine
 10
64.744465
 20
51.486213
 30
0.0
 11
65.186406
 21
51.928154
 31
0.0
  0
LINE
  5
BC
100
AcDbEntity
  8
0
 62
     0
100
AcDbLine
 10
65.407377
 20
52.149125
 30
0.0
 11
65.849319
 21
52.591067
 31
0.0
  0
LINE
  5
BD
100
AcDbEntity
  8
0
 62
     0
100
AcDbLine
 10
74.025241
 20
60.766989
 30
0.0
 11
74.467183
 21
61.208931
 31
0.0
  0
LINE
  5
BE
100
AcDbEntity
  8
0
 62
     0
100
AcDbLine
 10
74.688154
 20
61.429902
 30
0.0
 11
75.026797
 21
61.768545
 31
0.0
  0
LINE
  5
BF
100
AcDbEntity
  8
0
 62
     0
100
AcDbLine
 10
63.026797
 20
48.000778
 30
0.0
 11
63.418639
 21
48.39262
 31
0.0
  0
LINE
  5
C0
100
AcDbEntity
  8
0
 62
     0
100
AcDbLine
 10
63.63961
 20
48.613591
 30
0.0
 11
64.081552
 21
49.055533
 31
0.0
  0
LINE
  5
C1
100
AcDbEntity
  8
0
 62
     0
100
AcDbLine
 10
64.302523
 20
49.276504
 30
0.0
 11
64.744465
 21
49.718446
 31
0.0
  0
LINE
  5
C2
100
AcDbEntity
  8
0
 62
     0
100
AcDbLine
 10
64.965436
 20
49.939416
 30
0.0
 11
65.407377
 21
50.381358
 31
0.0
  0
LINE
  5
C3
100
AcDbEntity
  8
0
 62
     0
100
AcDbLine
 10
65.628348
 20
50.602329
 30
0.0
 11
66.026797
 21
51.000778
 31
0.0
  0
LINE
  5
C4
100
AcDbEntity
  8
0
 62
     0
100
AcDbLine
 10
63.197669
 20
46.403883
 30
0.0
 11
63.63961
 21
46.845824
 31
0.0
  0
LINE
  5
C5
100
AcDbEntity
  8
0
 62
     0
100
AcDbLine
 10
63.860581
 20
47.066795
 30
0.0
 11
64.302523
 21
47.508737
 31
0.0
  0
LINE
  5
C6
100
AcDbEntity
  8
0
 62
     0
100
AcDbLine
 10
64.523494
 20
47.729708
 30
0.0
 11
64.965436
 21
48.171649
 31
0.0
  0
LINE
  5
C7
100
AcDbEntity
  8
0
 62
     0
100
AcDbLine
 10
65.186406
 20
48.39262
 30
0.0
 11
65.628348
 21
48.834562
 31
0.0
  0
LINE
  5
C8
100
AcDbEntity
  8
0
 62
     0
100
AcDbLine
 10
65.849319
 20
49.055533
 30
0.0
 11
66.026797
 21
49.233011
 31
0.0
  0
LINE
  5
C9
100
AcDbEntity
  8
0
 62
     0
100
AcDbLine
 10
63.026797
 20
44.465244
 30
0.0
 11
63.197669
 21
44.636116
 31
0.0
  0
LINE
  5
CA
100
AcDbEntity
  8
0
 62
     0
100
AcDbLine
 10
63.418639
 20
44.857086
 30
0.0
 11
63.860581
 21
45.299028
 31
0.0
  0
LINE
  5
CB
100
AcDbEntity
  8
0
 62
     0
100
AcDbLine
 10
64.081552
 20
45.519999
 30
0.0
 11
64.523494
 21
45.961941
 31
0.0
  0
LINE
  5
CC
100
AcDbEntity
  8
0
 62
     0
100
AcDbLine
 10
64.744465
 20
46.182912
 30
0.0
 11
65.186406
 21
46.624853
 31
0.0
  0
LINE
  5
CD
100
AcDbEntity
  8
0
 62
     0
100
AcDbLine
 10
65.407377
 20
46.845824
 30
0.0
 11
65.849319
 21
47.287766
 31
0.0
  0
LINE
  5
CE
100
AcDbEntity
  8
0
 62
     0
100
AcDbLine
 10
72.036503
 20
53.47495
 30
0.0
 11
72.478445
 21
53.916892
 31
0.0
  0
LINE
  5
CF
100
AcDbEntity
  8
0
 62
     0
100
AcDbLine
 10
72.699416
 20
54.137863
 30
0.0
 11
73.141358
 21
54.579805
 31
0.0
  0
LINE
  5
D0
100
AcDbEntity
  8
0
 62
     0
100
AcDbLine
 10
63.291961
 20
42.962641
 30
0.0
 11
63.418639
 21
43.089319
 31
0.0
  0
LINE
  5
D1
100
AcDbEntity
  8
0
 62
     0
100
AcDbLine
 10
63.63961
 20
43.31029
 30
0.0
 11
64.081552
 21
43.752232
 31
0.0
  0
LINE
  5
D2
100
AcDbEntity
  8
0
 62
     0
100
AcDbLine
 10
64.302523
 20
43.973203
 30
0.0
 11
64.744465
 21
44.415145
 31
0.0
  0
LINE
  5
D3
100
AcDbEntity
  8
0
 62
     0
100
AcDbLine
 10
64.965436
 20
44.636116
 30
0.0
 11
65.407377
 21
45.078057
 31
0.0
  0
LINE
  5
D4
100
AcDbEntity
  8
0
 62
     0
100
AcDbLine
 10
65.628348
 20
45.299028
 30
0.0
 11
66.026797
 21
45.697477
 31
0.0
  0
LINE
  5
D5
100
AcDbEntity
  8
0
 62
     0
100
AcDbLine
 10
72.026797
 20
51.697477
 30
0.0
 11
72.036503
 21
51.707183
 31
0.0
  0
LINE
  5
D6
100
AcDbEntity
  8
0
 62
     0
100
AcDbLine
 10
72.257474
 20
51.928154
 30
0.0
 11
72.699416
 21
52.370096
 31
0.0
  0
LINE
  5
D7
100
AcDbEntity
  8
0
 62
     0
100
AcDbLine
 10
72.920387
 20
52.591067
 30
0.0
 11
73.362329
 21
53.033009
 31
0.0
  0
LINE
  5
D8
100
AcDbEntity
  8
0
 62
     0
100
AcDbLine
 10
73.583299
 20
53.253979
 30
0.0
 11
74.025241
 21
53.695921
 31
0.0
  0
LINE
  5
D9
100
AcDbEntity
  8
0
 62
     0
100
AcDbLine
 10
74.246212
 20
53.916892
 30
0.0
 11
74.688154
 21
54.358834
 31
0.0
  0
LINE
  5
DA
100
AcDbEntity
  8
0
 62
     0
100
AcDbLine
 10
74.909125
 20
54.579805
 30
0.0
 11
74.925739
 21
54.596419
 31
0.0
  0
LINE
  5
DB
100
AcDbEntity
  8
0
 62
     0
100
AcDbLine
 10
65.186406
 20
43.089319
 30
0.0
 11
65.628348
 21
43.531261
 31
0.0
  0
LINE
  5
DC
100
AcDbEntity
  8
0
 62
     0
100
AcDbLine
 10
65.849319
 20
43.752232
 30
0.0
 11
66.026797
 21
43.92971
 31
0.0
  0
LINE
  5
DD
100
AcDbEntity
  8
0
 62
     0
100
AcDbLine
 10
72.026797
 20
49.92971
 30
0.0
 11
72.257474
 21
50.160387
 31
0.0
  0
LINE
  5
DE
100
AcDbEntity
  8
0
 62
     0
100
AcDbLine
 10
72.478445
 20
50.381358
 30
0.0
 11
72.920387
 21
50.8233
 31
0.0
  0
LINE
  5
DF
100
AcDbEntity
  8
0
 62
     0
100
AcDbLine
 10
73.141358
 20
51.044271
 30
0.0
 11
73.583299
 21
51.486213
 31
0.0
  0
LINE
  5
E0
100
AcDbEntity
  8
0
 62
     0
100
AcDbLine
 10
73.80427
 20
51.707183
 30
0.0
 11
74.246212
 21
52.149125
 31
0.0
  0
LINE
  5
E1
100
AcDbEntity
  8
0
 62
     0
100
AcDbLine
 10
74.467183
 20
52.370096
 30
0.0
 11
74.909125
 21
52.812038
 31
0.0
  0
LINE
  5
E2
100
AcDbEntity
  8
0
 62
     0
100
AcDbLine
 10
72.036503
 20
48.171649
 30
0.0
 11
72.478445
 21
48.613591
 31
0.0
  0
LINE
  5
E3
100
AcDbEntity
  8
0
 62
     0
100
AcDbLine
 10
72.699416
 20
48.834562
 30
0.0
 11
73.141358
 21
49.276504
 31
0.0
  0
LINE
  5
E4
100
AcDbEntity
  8
0
 62
     0
100
AcDbLine
 10
73.362329
 20
49.497475
 30
0.0
 11
73.80427
 21
49.939416
 31
0.0
  0
LINE
  5
E5
100
AcDbEntity
  8
0
 62
     0
100
AcDbLine
 10
74.025241
 20
50.160387
 30
0.0
 11
74.467183
 21
50.602329
 31
0.0
  0
LINE
  5
E6
100
AcDbEntity
  8
0
 62
     0
100
AcDbLine
 10
74.688154
 20
50.8233
 30
0.0
 11
75.026797
 21
51.161943
 31
0.0
  0
LINE
  5
E7
100
AcDbEntity
  8
0
 62
     0
100
AcDbLine
 10
72.026797
 20
46.394176
 30
0.0
 11
72.036503
 21
46.403883
 31
0.0
  0
LINE
  5
E8
100
AcDbEntity
  8
0
 62
     0
100
AcDbLine
 10
72.257474
 20
46.624853
 30
0.0
 11
72.699416
 21
47.066795
 31
0.0
  0
LINE
  5
E9
100
AcDbEntity
  8
0
 62
     0
100
AcDbLine
 10
72.920387
 20
47.287766
 30
0.0
 11
73.362329
 21
47.729708
 31
0.0
  0
LINE
  5
EA
100
AcDbEntity
  8
0
 62
     0
100
AcDbLine
 10
73.583299
 20
47.950679
 30
0.0
 11
74.025241
 21
48.39262
 31
0.0
  0
LINE
  5
EB
100
AcDbEntity
  8
0
 62
     0
100
AcDbLine
 10
74.246212
 20
48.613591
 30
0.0
 11
74.688154
 21
49.055533
 31
0.0
  0
LINE
  5
EC
100
AcDbEntity
  8
0
 62
     0
100
AcDbLine
 10
74.909125
 20
49.276504
 30
0.0
 11
75.026797
 21
49.394176
 31
0.0
  0
LINE
  5
ED
100
AcDbEntity
  8
0
 62
     0
100
AcDbLine
 10
72.026797
 20
44.626409
 30
0.0
 11
72.257474
 21
44.857086
 31
0.0
  0
LINE
  5
EE
100
AcDbEntity
  8
0
 62
     0
100
AcDbLine
 10
72.478445
 20
45.078057
 30
0.0
 11
72.920387
 21
45.519999
 31
0.0
  0
LINE
  5
EF
100
AcDbEntity
  8
0
 62
     0
100
AcDbLine
 10
73.141358
 20
45.74097
 30
0.0
 11
73.583299
 21
46.182912
 31
0.0
  0
LINE
  5
F0
100
AcDbEntity
  8
0
 62
     0
100
AcDbLine
 10
73.80427
 20
46.403883
 30
0.0
 11
74.246212
 21
46.845824
 31
0.0
  0
LINE
  5
F1
100
AcDbEntity
  8
0
 62
     0
100
AcDbLine
 10
74.467183
 20
47.066795
 30
0.0
 11
74.909125
 21
47.508737
 31
0.0
  0
LINE
  5
F2
100
AcDbEntity
  8
0
 62
     0
100
AcDbLine
 10
72.130795
 20
42.962641
 30
0.0
 11
72.478445
 21
43.31029
 31
0.0
  0
LINE
  5
F3
100
AcDbEntity
  8
0
 62
     0
100
AcDbLine
 10
72.699416
 20
43.531261
 30
0.0
 11
73.141358
 21
43.973203
 31
0.0
  0
LINE
  5
F4
100
AcDbEntity
  8
0
 62
     0
100
AcDbLine
 10
73.362329
 20
44.194174
 30
0.0
 11
73.80427
 21
44.636116
 31
0.0
  0
LINE
  5
F5
100
AcDbEntity
  8
0
 62
     0
100
AcDbLine
 10
74.025241
 20
44.857086
 30
0.0
 11
74.467183
 21
45.299028
 31
0.0
  0
LINE
  5
F6
100
AcDbEntity
  8
0
 62
     0
100
AcDbLine
 10
74.688154
 20
45.519999
 30
0.0
 11
75.026797
 21
45.858642
 31
0.0
  0
LINE
  5
F7
100
AcDbEntity
  8
0
 62
     0
100
AcDbLine
 10
73.898562
 20
42.962641
 30
0.0
 11
74.025241
 21
43.089319
 31
0.0
  0
LINE
  5
F8
100
AcDbEntity
  8
0
 62
     0
100
AcDbLine
 10
74.246212
 20
43.31029
 30
0.0
 11
74.688154
 21
43.752232
 31
0.0
  0
LINE
  5
F9
100
AcDbEntity
  8
0
 62
     0
100
AcDbLine
 10
74.909125
 20
43.973203
 30
0.0
 11
75.026797
 21
44.090875
 31
0.0
  0
ENDBLK
  5
FA
100
AcDbEntity
  8
0
100
AcDbBlockEnd
  0
BLOCK
  5
FB
100
AcDbEntity
  8
0
100
AcDbBlockBegin
  2
*X1
 70
     1
 10
0.0
 20
0.0
 30
0.0
  3
*X1
  1

  0
LINE
  5
FC
100
AcDbEntity
  8
0
 62
     0
100
AcDbLine
 10
34.180981
 20
63.172359
 30
0.0
 11
35.430981
 21
64.422359
 31
0.0
  0
LINE
  5
FD
100
AcDbEntity
  8
0
 62
     0
100
AcDbLine
 10
33.473874
 20
63.172359
 30
0.0
 11
34.723874
 21
64.422359
 31
0.0
  0
LINE
  5
FE
100
AcDbEntity
  8
0
 62
     0
100
AcDbLine
 10
32.766767
 20
63.172359
 30
0.0
 11
34.016767
 21
64.422359
 31
0.0
  0
LINE
  5
FF
100
AcDbEntity
  8
0
 62
     0
100
AcDbLine
 10
32.059661
 20
63.172359
 30
0.0
 11
33.309661
 21
64.422359
 31
0.0
  0
LINE
  5
100
100
AcDbEntity
  8
0
 62
     0
100
AcDbLine
 10
31.352554
 20
63.172359
 30
0.0
 11
32.602554
 21
64.422359
 31
0.0
  0
LINE
  5
101
100
AcDbEntity
  8
0
 62
     0
100
AcDbLine
 10
30.645447
 20
63.172359
 30
0.0
 11
31.895447
 21
64.422359
 31
0.0
  0
LINE
  5
102
100
AcDbEntity
  8
0
 62
     0
100
AcDbLine
 10
29.93834
 20
63.172359
 30
0.0
 11
31.18834
 21
64.422359
 31
0.0
  0
LINE
  5
103
100
AcDbEntity
  8
0
 62
     0
100
AcDbLine
 10
29.231233
 20
63.172359
 30
0.0
 11
30.481233
 21
64.422359
 31
0.0
  0
LINE
  5
104
100
AcDbEntity
  8
0
 62
     0
100
AcDbLine
 10
28.524127
 20
63.172359
 30
0.0
 11
29.774127
 21
64.422359
 31
0.0
  0
LINE
  5
105
100
AcDbEntity
  8
0
 62
     0
100
AcDbLine
 10
27.81702
 20
63.172359
 30
0.0
 11
29.06702
 21
64.422359
 31
0.0
  0
LINE
  5
106
100
AcDbEntity
  8
0
 62
     0
100
AcDbLine
 10
27.109913
 20
63.172359
 30
0.0
 11
28.359913
 21
64.422359
 31
0.0
  0
LINE
  5
107
100
AcDbEntity
  8
0
 62
     0
100
AcDbLine
 10
26.402806
 20
63.172359
 30
0.0
 11
27.652806
 21
64.422359
 31
0.0
  0
LINE
  5
108
100
AcDbEntity
  8
0
 62
     0
100
AcDbLine
 10
25.6957
 20
63.172359
 30
0.0
 11
26.9457
 21
64.422359
 31
0.0
  0
LINE
  5
109
100
AcDbEntity
  8
0
 62
     0
100
AcDbLine
 10
24.988593
 20
63.172359
 30
0.0
 11
26.238593
 21
64.422359
 31
0.0
  0
LINE
  5
10A
100
AcDbEntity
  8
0
 62
     0
100
AcDbLine
 10
24.281486
 20
63.172359
 30
0.0
 11
25.531486
 21
64.422359
 31
0.0
  0
LINE
  5
10B
100
AcDbEntity
  8
0
 62
     0
100
AcDbLine
 10
23.574379
 20
63.172359
 30
0.0
 11
24.824379
 21
64.422359
 31
0.0
  0
LINE
  5
10C
100
AcDbEntity
  8
0
 62
     0
100
AcDbLine
 10
22.867272
 20
63.172359
 30
0.0
 11
24.117272
 21
64.422359
 31
0.0
  0
LINE
  5
10D
100
AcDbEntity
  8
0
 62
     0
100
AcDbLine
 10
22.160166
 20
63.172359
 30
0.0
 11
23.410166
 21
64.422359
 31
0.0
  0
LINE
  5
10E
100
AcDbEntity
  8
0
 62
     0
100
AcDbLine
 10
21.453059
 20
63.172359
 30
0.0
 11
22.703059
 21
64.422359
 31
0.0
  0
LINE
  5
10F
100
AcDbEntity
  8
0
 62
     0
100
AcDbLine
 10
21.0
 20
63.426407
 30
0.0
 11
21.995952
 21
64.422359
 31
0.0
  0
LINE
  5
110
100
AcDbEntity
  8
0
 62
     0
100
AcDbLine
 10
21.0
 20
64.133514
 30
0.0
 11
21.288845
 21
64.422359
 31
0.0
  0
LINE
  5
111
100
AcDbEntity
  8
0
 62
     0
100
AcDbLine
 10
34.888088
 20
63.172359
 30
0.0
 11
36.138088
 21
64.422359
 31
0.0
  0
LINE
  5
112
100
AcDbEntity
  8
0
 62
     0
100
AcDbLine
 10
35.595194
 20
63.172359
 30
0.0
 11
36.845194
 21
64.422359
 31
0.0
  0
LINE
  5
113
100
AcDbEntity
  8
0
 62
     0
100
AcDbLine
 10
36.302301
 20
63.172359
 30
0.0
 11
37.552301
 21
64.422359
 31
0.0
  0
LINE
  5
114
100
AcDbEntity
  8
0
 62
     0
100
AcDbLine
 10
37.009408
 20
63.172359
 30
0.0
 11
38.259408
 21
64.422359
 31
0.0
  0
LINE
  5
115
100
AcDbEntity
  8
0
 62
     0
100
AcDbLine
 10
37.716515
 20
63.172359
 30
0.0
 11
38.966515
 21
64.422359
 31
0.0
  0
LINE
  5
116
100
AcDbEntity
  8
0
 62
     0
100
AcDbLine
 10
38.423622
 20
63.172359
 30
0.0
 11
39.673622
 21
64.422359
 31
0.0
  0
LINE
  5
117
100
AcDbEntity
  8
0
 62
     0
100
AcDbLine
 10
39.130728
 20
63.172359
 30
0.0
 11
40.380728
 21
64.422359
 31
0.0
  0
LINE
  5
118
100
AcDbEntity
  8
0
 62
     0
100
AcDbLine
 10
39.837835
 20
63.172359
 30
0.0
 11
41.087835
 21
64.422359
 31
0.0
  0
LINE
  5
119
100
AcDbEntity
  8
0
 62
     0
100
AcDbLine
 10
40.544942
 20
63.172359
 30
0.0
 11
41.794942
 21
64.422359
 31
0.0
  0
LINE
  5
11A
100
AcDbEntity
  8
0
 62
     0
100
AcDbLine
 10
41.252049
 20
63.172359
 30
0.0
 11
42.502049
 21
64.422359
 31
0.0
  0
LINE
  5
11B
100
AcDbEntity
  8
0
 62
     0
100
AcDbLine
 10
41.959156
 20
63.172359
 30
0.0
 11
43.209156
 21
64.422359
 31
0.0
  0
LINE
  5
11C
100
AcDbEntity
  8
0
 62
     0
100
AcDbLine
 10
42.666262
 20
63.172359
 30
0.0
 11
43.916262
 21
64.422359
 31
0.0
  0
LINE
  5
11D
100
AcDbEntity
  8
0
 62
     0
100
AcDbLine
 10
43.373369
 20
63.172359
 30
0.0
 11
44.623369
 21
64.422359
 31
0.0
  0
LINE
  5
11E
100
AcDbEntity
  8
0
 62
     0
100
AcDbLine
 10
44.080476
 20
63.172359
 30
0.0
 11
45.330476
 21
64.422359
 31
0.0
  0
LINE
  5
11F
100
AcDbEntity
  8
0
 62
     0
100
AcDbLine
 10
44.787583
 20
63.172359
 30
0.0
 11
46.037583
 21
64.422359
 31
0.0
  0
LINE
  5
120
100
AcDbEntity
  8
0
 62
     0
100
AcDbLine
 10
45.494689
 20
63.172359
 30
0.0
 11
46.744689
 21
64.422359
 31
0.0
  0
LINE
  5
121
100
AcDbEntity
  8
0
 62
     0
100
AcDbLine
 10
46.201796
 20
63.172359
 30
0.0
 11
47.451796
 21
64.422359
 31
0.0
  0
LINE
  5
122
100
AcDbEntity
  8
0
 62
     0
100
AcDbLine
 10
46.908903
 20
63.172359
 30
0.0
 11
48.0
 21
64.263456
 31
0.0
  0
LINE
  5
123
100
AcDbEntity
  8
0
 62
     0
100
AcDbLine
 10
47.61601
 20
63.172359
 30
0.0
 11
48.0
 21
63.556349
 31
0.0
  0
LINE
  5
124
100
AcDbEntity
  8
0
 62
     0
100
AcDbLine
 10
35.115484
 20
63.172359
 30
0.0
 11
34.825009
 21
63.462834
 31
0.0
  0
LINE
  5
125
100
AcDbEntity
  8
0
 62
     0
100
AcDbLine
 10
34.294679
 20
63.993164
 30
0.0
 11
33.865484
 21
64.422359
 31
0.0
  0
LINE
  5
126
100
AcDbEntity
  8
0
 62
     0
100
AcDbLine
 10
34.408377
 20
63.172359
 30
0.0
 11
33.764349
 21
63.816387
 31
0.0
  0
LINE
  5
127
100
AcDbEntity
  8
0
 62
     0
100
AcDbLine
 10
33.234019
 20
64.346717
 30
0.0
 11
33.158377
 21
64.422359
 31
0.0
  0
LINE
  5
128
100
AcDbEntity
  8
0
 62
     0
100
AcDbLine
 10
33.587572
 20
63.286057
 30
0.0
 11
32.703689
 21
64.16994
 31
0.0
  0
LINE
  5
129
100
AcDbEntity
  8
0
 62
     0
100
AcDbLine
 10
32.526912
 20
63.63961
 30
0.0
 11
31.744163
 21
64.422359
 31
0.0
  0
LINE
  5
12A
100
AcDbEntity
  8
0
 62
     0
100
AcDbLine
 10
32.287056
 20
63.172359
 30
0.0
 11
31.996582
 21
63.462834
 31
0.0
  0
LINE
  5
12B
100
AcDbEntity
  8
0
 62
     0
100
AcDbLine
 10
31.466252
 20
63.993164
 30
0.0
 11
31.037056
 21
64.422359
 31
0.0
  0
LINE
  5
12C
100
AcDbEntity
  8
0
 62
     0
100
AcDbLine
 10
31.57995
 20
63.172359
 30
0.0
 11
30.935922
 21
63.816387
 31
0.0
  0
LINE
  5
12D
100
AcDbEntity
  8
0
 62
     0
100
AcDbLine
 10
30.405592
 20
64.346717
 30
0.0
 11
30.32995
 21
64.422359
 31
0.0
  0
LINE
  5
12E
100
AcDbEntity
  8
0
 62
     0
100
AcDbLine
 10
30.759145
 20
63.286057
 30
0.0
 11
29.875262
 21
64.16994
 31
0.0
  0
LINE
  5
12F
100
AcDbEntity
  8
0
 62
     0
100
AcDbLine
 10
29.698485
 20
63.63961
 30
0.0
 11
28.915736
 21
64.422359
 31
0.0
  0
LINE
  5
130
100
AcDbEntity
  8
0
 62
     0
100
AcDbLine
 10
29.458629
 20
63.172359
 30
0.0
 11
29.168155
 21
63.462834
 31
0.0
  0
LINE
  5
131
100
AcDbEntity
  8
0
 62
     0
100
AcDbLine
 10
28.637825
 20
63.993164
 30
0.0
 11
28.208629
 21
64.422359
 31
0.0
  0
LINE
  5
132
100
AcDbEntity
  8
0
 62
     0
100
AcDbLine
 10
28.751523
 20
63.172359
 30
0.0
 11
28.107495
 21
63.816387
 31
0.0
  0
LINE
  5
133
100
AcDbEntity
  8
0
 62
     0
100
AcDbLine
 10
27.577164
 20
64.346717
 30
0.0
 11
27.501523
 21
64.422359
 31
0.0
  0
LINE
  5
134
100
AcDbEntity
  8
0
 62
     0
100
AcDbLine
 10
27.930718
 20
63.286057
 30
0.0
 11
27.046834
 21
64.16994
 31
0.0
  0
LINE
  5
135
100
AcDbEntity
  8
0
 62
     0
100
AcDbLine
 10
26.870058
 20
63.63961
 30
0.0
 11
26.087309
 21
64.422359
 31
0.0
  0
LINE
  5
136
100
AcDbEntity
  8
0
 62
     0
100
AcDbLine
 10
26.630202
 20
63.172359
 30
0.0
 11
26.339728
 21
63.462834
 31
0.0
  0
LINE
  5
137
100
AcDbEntity
  8
0
 62
     0
100
AcDbLine
 10
25.809398
 20
63.993164
 30
0.0
 11
25.380202
 21
64.422359
 31
0.0
  0
LINE
  5
138
100
AcDbEntity
  8
0
 62
     0
100
AcDbLine
 10
25.923095
 20
63.172359
 30
0.0
 11
25.279067
 21
63.816387
 31
0.0
  0
LINE
  5
139
100
AcDbEntity
  8
0
 62
     0
100
AcDbLine
 10
24.748737
 20
64.346717
 30
0.0
 11
24.673095
 21
64.422359
 31
0.0
  0
LINE
  5
13A
100
AcDbEntity
  8
0
 62
     0
100
AcDbLine
 10
25.102291
 20
63.286057
 30
0.0
 11
24.218407
 21
64.16994
 31
0.0
  0
LINE
  5
13B
100
AcDbEntity
  8
0
 62
     0
100
AcDbLine
 10
24.041631
 20
63.63961
 30
0.0
 11
23.258882
 21
64.422359
 31
0.0
  0
LINE
  5
13C
100
AcDbEntity
  8
0
 62
     0
100
AcDbLine
 10
23.801775
 20
63.172359
 30
0.0
 11
23.5113
 21
63.462834
 31
0.0
  0
LINE
  5
13D
100
AcDbEntity
  8
0
 62
     0
100
AcDbLine
 10
22.98097
 20
63.993164
 30
0.0
 11
22.551775
 21
64.422359
 31
0.0
  0
LINE
  5
13E
100
AcDbEntity
  8
0
 62
     0
100
AcDbLine
 10
23.094668
 20
63.172359
 30
0.0
 11
22.45064
 21
63.816387
 31
0.0
  0
LINE
  5
13F
100
AcDbEntity
  8
0
 62
     0
100
AcDbLine
 10
21.92031
 20
64.346717
 30
0.0
 11
21.844668
 21
64.422359
 31
0.0
  0
LINE
  5
140
100
AcDbEntity
  8
0
 62
     0
100
AcDbLine
 10
22.273864
 20
63.286057
 30
0.0
 11
21.38998
 21
64.16994
 31
0.0
  0
LINE
  5
141
100
AcDbEntity
  8
0
 62
     0
100
AcDbLine
 10
21.213203
 20
63.63961
 30
0.0
 11
21.0
 21
63.852814
 31
0.0
  0
LINE
  5
142
100
AcDbEntity
  8
0
 62
     0
100
AcDbLine
 10
35.355339
 20
63.63961
 30
0.0
 11
34.57259
 21
64.422359
 31
0.0
  0
LINE
  5
143
100
AcDbEntity
  8
0
 62
     0
100
AcDbLine
 10
36.415999
 20
63.286057
 30
0.0
 11
35.532116
 21
64.16994
 31
0.0
  0
LINE
  5
144
100
AcDbEntity
  8
0
 62
     0
100
AcDbLine
 10
37.236804
 20
63.172359
 30
0.0
 11
36.592776
 21
63.816387
 31
0.0
  0
LINE
  5
145
100
AcDbEntity
  8
0
 62
     0
100
AcDbLine
 10
36.062446
 20
64.346717
 30
0.0
 11
35.986804
 21
64.422359
 31
0.0
  0
LINE
  5
146
100
AcDbEntity
  8
0
 62
     0
100
AcDbLine
 10
37.943911
 20
63.172359
 30
0.0
 11
37.653436
 21
63.462834
 31
0.0
  0
LINE
  5
147
100
AcDbEntity
  8
0
 62
     0
100
AcDbLine
 10
37.123106
 20
63.993164
 30
0.0
 11
36.693911
 21
64.422359
 31
0.0
  0
LINE
  5
148
100
AcDbEntity
  8
0
 62
     0
100
AcDbLine
 10
38.183766
 20
63.63961
 30
0.0
 11
37.401018
 21
64.422359
 31
0.0
  0
LINE
  5
149
100
AcDbEntity
  8
0
 62
     0
100
AcDbLine
 10
39.244426
 20
63.286057
 30
0.0
 11
38.360543
 21
64.16994
 31
0.0
  0
LINE
  5
14A
100
AcDbEntity
  8
0
 62
     0
100
AcDbLine
 10
40.065231
 20
63.172359
 30
0.0
 11
39.421203
 21
63.816387
 31
0.0
  0
LINE
  5
14B
100
AcDbEntity
  8
0
 62
     0
100
AcDbLine
 10
38.890873
 20
64.346717
 30
0.0
 11
38.815231
 21
64.422359
 31
0.0
  0
LINE
  5
14C
100
AcDbEntity
  8
0
 62
     0
100
AcDbLine
 10
40.772338
 20
63.172359
 30
0.0
 11
40.481863
 21
63.462834
 31
0.0
  0
LINE
  5
14D
100
AcDbEntity
  8
0
 62
     0
100
AcDbLine
 10
39.951533
 20
63.993164
 30
0.0
 11
39.522338
 21
64.422359
 31
0.0
  0
LINE
  5
14E
100
AcDbEntity
  8
0
 62
     0
100
AcDbLine
 10
41.012193
 20
63.63961
 30
0.0
 11
40.229445
 21
64.422359
 31
0.0
  0
LINE
  5
14F
100
AcDbEntity
  8
0
 62
     0
100
AcDbLine
 10
42.072853
 20
63.286057
 30
0.0
 11
41.18897
 21
64.16994
 31
0.0
  0
LINE
  5
150
100
AcDbEntity
  8
0
 62
     0
100
AcDbLine
 10
42.893658
 20
63.172359
 30
0.0
 11
42.24963
 21
63.816387
 31
0.0
  0
LINE
  5
151
100
AcDbEntity
  8
0
 62
     0
100
AcDbLine
 10
41.7193
 20
64.346717
 30
0.0
 11
41.643658
 21
64.422359
 31
0.0
  0
LINE
  5
152
100
AcDbEntity
  8
0
 62
     0
100
AcDbLine
 10
43.600765
 20
63.172359
 30
0.0
 11
43.31029
 21
63.462834
 31
0.0
  0
LINE
  5
153
100
AcDbEntity
  8
0
 62
     0
100
AcDbLine
 10
42.77996
 20
63.993164
 30
0.0
 11
42.350765
 21
64.422359
 31
0.0
  0
LINE
  5
154
100
AcDbEntity
  8
0
 62
     0
100
AcDbLine
 10
43.84062
 20
63.63961
 30
0.0
 11
43.057872
 21
64.422359
 31
0.0
  0
LINE
  5
155
100
AcDbEntity
  8
0
 62
     0
100
AcDbLine
 10
44.901281
 20
63.286057
 30
0.0
 11
44.017397
 21
64.16994
 31
0.0
  0
LINE
  5
156
100
AcDbEntity
  8
0
 62
     0
100
AcDbLine
 10
45.722085
 20
63.172359
 30
0.0
 11
45.078057
 21
63.816387
 31
0.0
  0
LINE
  5
157
100
AcDbEntity
  8
0
 62
     0
100
AcDbLine
 10
44.547727
 20
64.346717
 30
0.0
 11
44.472085
 21
64.422359
 31
0.0
  0
LINE
  5
158
100
AcDbEntity
  8
0
 62
     0
100
AcDbLine
 10
46.429192
 20
63.172359
 30
0.0
 11
46.138717
 21
63.462834
 31
0.0
  0
LINE
  5
159
100
AcDbEntity
  8
0
 62
     0
100
AcDbLine
 10
45.608387
 20
63.993164
 30
0.0
 11
45.179192
 21
64.422359
 31
0.0
  0
LINE
  5
15A
100
AcDbEntity
  8
0
 62
     0
100
AcDbLine
 10
46.669048
 20
63.63961
 30
0.0
 11
45.886299
 21
64.422359
 31
0.0
  0
LINE
  5
15B
100
AcDbEntity
  8
0
 62
     0
100
AcDbLine
 10
47.729708
 20
63.286057
 30
0.0
 11
46.845824
 21
64.16994
 31
0.0
  0
LINE
  5
15C
100
AcDbEntity
  8
0
 62
     0
100
AcDbLine
 10
48.0
 20
63.722871
 30
0.0
 11
47.906484
 21
63.816387
 31
0.0
  0
LINE
  5
15D
100
AcDbEntity
  8
0
 62
     0
100
AcDbLine
 10
47.376154
 20
64.346717
 30
0.0
 11
47.300512
 21
64.422359
 31
0.0
  0
ENDBLK
  5
15E
100
AcDbEntity
  8
0
100
AcDbBlockEnd
  0
BLOCK
  5
15F
100
AcDbEntity
  8
0
100
AcDbBlockBegin
  2
*X2
 70
     1
 10
0.0
 20
0.0
 30
0.0
  3
*X2
  1

  0
LINE
  5
160
100
AcDbEntity
  8
0
 62
     0
100
AcDbLine
 10
-5.838173
 20
41.213687
 30
0.0
 11
-5.71765
 21
41.35732
 31
0.0
  0
LINE
  5
161
100
AcDbEntity
  8
0
 62
     0
100
AcDbLine
 10
-4.391901
 20
42.937287
 30
0.0
 11
-4.271378
 21
43.08092
 31
0.0
  0
LINE
  5
162
100
AcDbEntity
  8
0
 62
     0
100
AcDbLine
 10
-2.945629
 20
44.660887
 30
0.0
 11
-2.825106
 21
44.80452
 31
0.0
  0
LINE
  5
163
100
AcDbEntity
  8
0
 62
     0
100
AcDbLine
 10
-1.499357
 20
46.384487
 30
0.0
 11
-1.378834
 21
46.52812
 31
0.0
  0
LINE
  5
164
100
AcDbEntity
  8
0
 62
     0
100
AcDbLine
 10
-0.053084
 20
48.108087
 30
0.0
 11
0.067438
 21
48.25172
 31
0.0
  0
LINE
  5
165
100
AcDbEntity
  8
0
 62
     0
100
AcDbLine
 10
1.393188
 20
49.831687
 30
0.0
 11
1.51371
 21
49.97532
 31
0.0
  0
LINE
  5
166
100
AcDbEntity
  8
0
 62
     0
100
AcDbLine
 10
-5.491295
 20
39.333207
 30
0.0
 11
-5.370772
 21
39.47684
 31
0.0
  0
LINE
  5
167
100
AcDbEntity
  8
0
 62
     0
100
AcDbLine
 10
-4.045022
 20
41.056807
 30
0.0
 11
-3.9245
 21
41.20044
 31
0.0
  0
LINE
  5
168
100
AcDbEntity
  8
0
 62
     0
100
AcDbLine
 10
-2.59875
 20
42.780407
 30
0.0
 11
-2.478228
 21
42.92404
 31
0.0
  0
LINE
  5
169
100
AcDbEntity
  8
0
 62
     0
100
AcDbLine
 10
-1.152478
 20
44.504007
 30
0.0
 11
-1.031956
 21
44.64764
 31
0.0
  0
LINE
  5
16A
100
AcDbEntity
  8
0
 62
     0
100
AcDbLine
 10
0.293794
 20
46.227607
 30
0.0
 11
0.414317
 21
46.37124
 31
0.0
  0
LINE
  5
16B
100
AcDbEntity
  8
0
 62
     0
100
AcDbLine
 10
1.740066
 20
47.951207
 30
0.0
 11
1.860589
 21
48.09484
 31
0.0
  0
LINE
  5
16C
100
AcDbEntity
  8
0
 62
     0
100
AcDbLine
 10
-5.144416
 20
37.452726
 30
0.0
 11
-5.023894
 21
37.59636
 31
0.0
  0
LINE
  5
16D
100
AcDbEntity
  8
0
 62
     0
100
AcDbLine
 10
-3.698144
 20
39.176326
 30
0.0
 11
-3.577621
 21
39.31996
 31
0.0
  0
LINE
  5
16E
100
AcDbEntity
  8
0
 62
     0
100
AcDbLine
 10
-2.251872
 20
40.899926
 30
0.0
 11
-2.131349
 21
41.04356
 31
0.0
  0
LINE
  5
16F
100
AcDbEntity
  8
0
 62
     0
100
AcDbLine
 10
-0.8056
 20
42.623526
 30
0.0
 11
-0.685077
 21
42.76716
 31
0.0
  0
LINE
  5
170
100
AcDbEntity
  8
0
 62
     0
100
AcDbLine
 10
2.086944
 20
46.070726
 30
0.0
 11
2.207467
 21
46.21436
 31
0.0
  0
LINE
  5
171
100
AcDbEntity
  8
0
 62
     0
100
AcDbLine
 10
-6.174226
 20
33.931573
 30
0.0
 11
-6.123287
 21
33.992279
 31
0.0
  0
LINE
  5
172
100
AcDbEntity
  8
0
 62
     0
100
AcDbLine
 10
-4.797538
 20
35.572246
 30
0.0
 11
-4.677015
 21
35.715879
 31
0.0
  0
LINE
  5
173
100
AcDbEntity
  8
0
 62
     0
100
AcDbLine
 10
-3.351266
 20
37.295846
 30
0.0
 11
-3.230743
 21
37.439479
 31
0.0
  0
LINE
  5
174
100
AcDbEntity
  8
0
 62
     0
100
AcDbLine
 10
-1.904994
 20
39.019446
 30
0.0
 11
-1.784471
 21
39.163079
 31
0.0
  0
LINE
  5
175
100
AcDbEntity
  8
0
 62
     0
100
AcDbLine
 10
-0.458722
 20
40.743046
 30
0.0
 11
-0.338199
 21
40.886679
 31
0.0
  0
LINE
  5
176
100
AcDbEntity
  8
0
 62
     0
100
AcDbLine
 10
-3.004387
 20
35.415366
 30
0.0
 11
-2.883865
 21
35.558999
 31
0.0
  0
LINE
  5
177
100
AcDbEntity
  8
0
 62
     0
100
AcDbLine
 10
-1.558115
 20
37.138966
 30
0.0
 11
-1.437593
 21
37.282599
 31
0.0
  0
LINE
  5
178
100
AcDbEntity
  8
0
 62
     0
100
AcDbLine
 10
-2.657509
 20
33.534885
 30
0.0
 11
-2.536986
 21
33.678519
 31
0.0
  0
LINE
  5
179
100
AcDbEntity
  8
0
 62
     0
100
AcDbLine
 10
-1.211237
 20
35.258485
 30
0.0
 11
-1.090714
 21
35.402119
 31
0.0
  0
LINE
  5
17A
100
AcDbEntity
  8
0
 62
     0
100
AcDbLine
 10
-0.864359
 20
33.378005
 30
0.0
 11
-0.743836
 21
33.521638
 31
0.0
  0
LINE
  5
17B
100
AcDbEntity
  8
0
 62
     0
100
AcDbLine
 10
-6.174226
 20
43.107068
 30
0.0
 11
-6.064529
 21
43.237801
 31
0.0
  0
LINE
  5
17C
100
AcDbEntity
  8
0
 62
     0
100
AcDbLine
 10
-4.738779
 20
44.817767
 30
0.0
 11
-4.618256
 21
44.961401
 31
0.0
  0
LINE
  5
17D
100
AcDbEntity
  8
0
 62
     0
100
AcDbLine
 10
-3.292507
 20
46.541367
 30
0.0
 11
-3.171984
 21
46.685001
 31
0.0
  0
LINE
  5
17E
100
AcDbEntity
  8
0
 62
     0
100
AcDbLine
 10
-1.846235
 20
48.264967
 30
0.0
 11
-1.725712
 21
48.408601
 31
0.0
  0
LINE
  5
17F
100
AcDbEntity
  8
0
 62
     0
100
AcDbLine
 10
-0.399963
 20
49.988567
 30
0.0
 11
-0.27944
 21
50.132201
 31
0.0
  0
LINE
  5
180
100
AcDbEntity
  8
0
 62
     0
100
AcDbLine
 10
-5.085657
 20
46.698248
 30
0.0
 11
-4.965135
 21
46.841881
 31
0.0
  0
LINE
  5
181
100
AcDbEntity
  8
0
 62
     0
100
AcDbLine
 10
-3.639385
 20
48.421848
 30
0.0
 11
-3.518863
 21
48.565481
 31
0.0
  0
LINE
  5
182
100
AcDbEntity
  8
0
 62
     0
100
AcDbLine
 10
-2.193113
 20
50.145448
 30
0.0
 11
-2.072591
 21
50.289081
 31
0.0
  0
LINE
  5
183
100
AcDbEntity
  8
0
 62
     0
100
AcDbLine
 10
-0.746841
 20
51.869048
 30
0.0
 11
-0.626318
 21
52.012681
 31
0.0
  0
LINE
  5
184
100
AcDbEntity
  8
0
 62
     0
100
AcDbLine
 10
-5.432536
 20
48.578728
 30
0.0
 11
-5.312013
 21
48.722361
 31
0.0
  0
LINE
  5
185
100
AcDbEntity
  8
0
 62
     0
100
AcDbLine
 10
-3.986264
 20
50.302328
 30
0.0
 11
-3.865741
 21
50.445961
 31
0.0
  0
LINE
  5
186
100
AcDbEntity
  8
0
 62
     0
100
AcDbLine
 10
-2.539992
 20
52.025928
 30
0.0
 11
-2.419469
 21
52.169561
 31
0.0
  0
LINE
  5
187
100
AcDbEntity
  8
0
 62
     0
100
AcDbLine
 10
-1.093719
 20
53.749528
 30
0.0
 11
-0.973197
 21
53.893161
 31
0.0
  0
LINE
  5
188
100
AcDbEntity
  8
0
 62
     0
100
AcDbLine
 10
-5.779414
 20
50.459208
 30
0.0
 11
-5.658891
 21
50.602842
 31
0.0
  0
LINE
  5
189
100
AcDbEntity
  8
0
 62
     0
100
AcDbLine
 10
-4.333142
 20
52.182808
 30
0.0
 11
-4.212619
 21
52.326442
 31
0.0
  0
LINE
  5
18A
100
AcDbEntity
  8
0
 62
     0
100
AcDbLine
 10
-2.88687
 20
53.906408
 30
0.0
 11
-2.766347
 21
54.050042
 31
0.0
  0
LINE
  5
18B
100
AcDbEntity
  8
0
 62
     0
100
AcDbLine
 10
-1.440598
 20
55.630008
 30
0.0
 11
-1.320075
 21
55.773642
 31
0.0
  0
LINE
  5
18C
100
AcDbEntity
  8
0
 62
     0
100
AcDbLine
 10
-6.126292
 20
52.339689
 30
0.0
 11
-6.00577
 21
52.483322
 31
0.0
  0
LINE
  5
18D
100
AcDbEntity
  8
0
 62
     0
100
AcDbLine
 10
-4.68002
 20
54.063289
 30
0.0
 11
-4.559498
 21
54.206922
 31
0.0
  0
LINE
  5
18E
100
AcDbEntity
  8
0
 62
     0
100
AcDbLine
 10
-3.233748
 20
55.786889
 30
0.0
 11
-3.113226
 21
55.930522
 31
0.0
  0
LINE
  5
18F
100
AcDbEntity
  8
0
 62
     0
100
AcDbLine
 10
-1.787476
 20
57.510489
 30
0.0
 11
-1.666953
 21
57.654122
 31
0.0
  0
LINE
  5
190
100
AcDbEntity
  8
0
 62
     0
100
AcDbLine
 10
-0.341204
 20
59.234089
 30
0.0
 11
-0.220681
 21
59.377722
 31
0.0
  0
LINE
  5
191
100
AcDbEntity
  8
0
 62
     0
100
AcDbLine
 10
-5.026899
 20
55.943769
 30
0.0
 11
-4.906376
 21
56.087402
 31
0.0
  0
LINE
  5
192
100
AcDbEntity
  8
0
 62
     0
100
AcDbLine
 10
-3.580627
 20
57.667369
 30
0.0
 11
-3.460104
 21
57.811002
 31
0.0
  0
LINE
  5
193
100
AcDbEntity
  8
0
 62
     0
100
AcDbLine
 10
-2.134354
 20
59.390969
 30
0.0
 11
-2.013832
 21
59.534602
 31
0.0
  0
LINE
  5
194
100
AcDbEntity
  8
0
 62
     0
100
AcDbLine
 10
-0.688082
 20
61.114569
 30
0.0
 11
-0.56756
 21
61.258202
 31
0.0
  0
LINE
  5
195
100
AcDbEntity
  8
0
 62
     0
100
AcDbLine
 10
-5.373777
 20
57.824249
 30
0.0
 11
-5.253254
 21
57.967883
 31
0.0
  0
LINE
  5
196
100
AcDbEntity
  8
0
 62
     0
100
AcDbLine
 10
-3.927505
 20
59.547849
 30
0.0
 11
-3.806982
 21
59.691483
 31
0.0
  0
LINE
  5
197
100
AcDbEntity
  8
0
 62
     0
100
AcDbLine
 10
-2.481233
 20
61.271449
 30
0.0
 11
-2.36071
 21
61.415083
 31
0.0
  0
LINE
  5
198
100
AcDbEntity
  8
0
 62
     0
100
AcDbLine
 10
-1.034961
 20
62.995049
 30
0.0
 11
-0.94128
 21
63.106694
 31
0.0
  0
LINE
  5
199
100
AcDbEntity
  8
0
 62
     0
100
AcDbLine
 10
-5.720655
 20
59.70473
 30
0.0
 11
-5.600133
 21
59.848363
 31
0.0
  0
LINE
  5
19A
100
AcDbEntity
  8
0
 62
     0
100
AcDbLine
 10
-4.274383
 20
61.42833
 30
0.0
 11
-4.153861
 21
61.571963
 31
0.0
  0
LINE
  5
19B
100
AcDbEntity
  8
0
 62
     0
100
AcDbLine
 10
-6.067534
 20
61.58521
 30
0.0
 11
-5.947011
 21
61.728843
 31
0.0
  0
LINE
  5
19C
100
AcDbEntity
  8
0
 62
     0
100
AcDbLine
 10
-4.621262
 20
63.30881
 30
0.0
 11
-4.500739
 21
63.452443
 31
0.0
  0
LINE
  5
19D
100
AcDbEntity
  8
0
 62
     0
100
AcDbLine
 10
-5.085657
 20
46.698248
 30
0.0
 11
-4.936228
 21
46.685174
 31
0.0
  0
LINE
  5
19E
100
AcDbEntity
  8
0
 62
     0
100
AcDbLine
 10
-3.292507
 20
46.541367
 30
0.0
 11
-3.143078
 21
46.528294
 31
0.0
  0
LINE
  5
19F
100
AcDbEntity
  8
0
 62
     0
100
AcDbLine
 10
-1.499357
 20
46.384487
 30
0.0
 11
-1.349927
 21
46.371414
 31
0.0
  0
LINE
  5
1A0
100
AcDbEntity
  8
0
 62
     0
100
AcDbLine
 10
0.293794
 20
46.227607
 30
0.0
 11
0.443223
 21
46.214533
 31
0.0
  0
LINE
  5
1A1
100
AcDbEntity
  8
0
 62
     0
100
AcDbLine
 10
2.086944
 20
46.070726
 30
0.0
 11
2.236374
 21
46.057653
 31
0.0
  0
LINE
  5
1A2
100
AcDbEntity
  8
0
 62
     0
100
AcDbLine
 10
-5.432536
 20
48.578728
 30
0.0
 11
-5.283107
 21
48.565655
 31
0.0
  0
LINE
  5
1A3
100
AcDbEntity
  8
0
 62
     0
100
AcDbLine
 10
-3.639385
 20
48.421848
 30
0.0
 11
-3.489956
 21
48.408774
 31
0.0
  0
LINE
  5
1A4
100
AcDbEntity
  8
0
 62
     0
100
AcDbLine
 10
-1.846235
 20
48.264967
 30
0.0
 11
-1.696806
 21
48.251894
 31
0.0
  0
LINE
  5
1A5
100
AcDbEntity
  8
0
 62
     0
100
AcDbLine
 10
-0.053084
 20
48.108087
 30
0.0
 11
0.096345
 21
48.095014
 31
0.0
  0
LINE
  5
1A6
100
AcDbEntity
  8
0
 62
     0
100
AcDbLine
 10
1.740066
 20
47.951207
 30
0.0
 11
1.889495
 21
47.938133
 31
0.0
  0
LINE
  5
1A7
100
AcDbEntity
  8
0
 62
     0
100
AcDbLine
 10
-5.779414
 20
50.459208
 30
0.0
 11
-5.629985
 21
50.446135
 31
0.0
  0
LINE
  5
1A8
100
AcDbEntity
  8
0
 62
     0
100
AcDbLine
 10
-3.986264
 20
50.302328
 30
0.0
 11
-3.836834
 21
50.289255
 31
0.0
  0
LINE
  5
1A9
100
AcDbEntity
  8
0
 62
     0
100
AcDbLine
 10
-2.193113
 20
50.145448
 30
0.0
 11
-2.043684
 21
50.132374
 31
0.0
  0
LINE
  5
1AA
100
AcDbEntity
  8
0
 62
     0
100
AcDbLine
 10
-0.399963
 20
49.988567
 30
0.0
 11
-0.250534
 21
49.975494
 31
0.0
  0
LINE
  5
1AB
100
AcDbEntity
  8
0
 62
     0
100
AcDbLine
 10
1.393188
 20
49.831687
 30
0.0
 11
1.542617
 21
49.818614
 31
0.0
  0
LINE
  5
1AC
100
AcDbEntity
  8
0
 62
     0
100
AcDbLine
 10
-6.126292
 20
52.339689
 30
0.0
 11
-5.976863
 21
52.326615
 31
0.0
  0
LINE
  5
1AD
100
AcDbEntity
  8
0
 62
     0
100
AcDbLine
 10
-4.333142
 20
52.182808
 30
0.0
 11
-4.183713
 21
52.169735
 31
0.0
  0
LINE
  5
1AE
100
AcDbEntity
  8
0
 62
     0
100
AcDbLine
 10
-2.539992
 20
52.025928
 30
0.0
 11
-2.390562
 21
52.012855
 31
0.0
  0
LINE
  5
1AF
100
AcDbEntity
  8
0
 62
     0
100
AcDbLine
 10
-0.746841
 20
51.869048
 30
0.0
 11
-0.597412
 21
51.855974
 31
0.0
  0
LINE
  5
1B0
100
AcDbEntity
  8
0
 62
     0
100
AcDbLine
 10
-4.68002
 20
54.063289
 30
0.0
 11
-4.530591
 21
54.050215
 31
0.0
  0
LINE
  5
1B1
100
AcDbEntity
  8
0
 62
     0
100
AcDbLine
 10
-2.88687
 20
53.906408
 30
0.0
 11
-2.737441
 21
53.893335
 31
0.0
  0
LINE
  5
1B2
100
AcDbEntity
  8
0
 62
     0
100
AcDbLine
 10
-1.093719
 20
53.749528
 30
0.0
 11
-0.94429
 21
53.736455
 31
0.0
  0
LINE
  5
1B3
100
AcDbEntity
  8
0
 62
     0
100
AcDbLine
 10
-5.026899
 20
55.943769
 30
0.0
 11
-4.877469
 21
55.930696
 31
0.0
  0
LINE
  5
1B4
100
AcDbEntity
  8
0
 62
     0
100
AcDbLine
 10
-3.233748
 20
55.786889
 30
0.0
 11
-3.084319
 21
55.773815
 31
0.0
  0
LINE
  5
1B5
100
AcDbEntity
  8
0
 62
     0
100
AcDbLine
 10
-1.440598
 20
55.630008
 30
0.0
 11
-1.291169
 21
55.616935
 31
0.0
  0
LINE
  5
1B6
100
AcDbEntity
  8
0
 62
     0
100
AcDbLine
 10
-5.373777
 20
57.824249
 30
0.0
 11
-5.224348
 21
57.811176
 31
0.0
  0
LINE
  5
1B7
100
AcDbEntity
  8
0
 62
     0
100
AcDbLine
 10
-3.580627
 20
57.667369
 30
0.0
 11
-3.431197
 21
57.654296
 31
0.0
  0
LINE
  5
1B8
100
AcDbEntity
  8
0
 62
     0
100
AcDbLine
 10
-1.787476
 20
57.510489
 30
0.0
 11
-1.638047
 21
57.497415
 31
0.0
  0
LINE
  5
1B9
100
AcDbEntity
  8
0
 62
     0
100
AcDbLine
 10
-5.720655
 20
59.70473
 30
0.0
 11
-5.571226
 21
59.691656
 31
0.0
  0
LINE
  5
1BA
100
AcDbEntity
  8
0
 62
     0
100
AcDbLine
 10
-3.927505
 20
59.547849
 30
0.0
 11
-3.778076
 21
59.534776
 31
0.0
  0
LINE
  5
1BB
100
AcDbEntity
  8
0
 62
     0
100
AcDbLine
 10
-2.134354
 20
59.390969
 30
0.0
 11
-1.984925
 21
59.377896
 31
0.0
  0
LINE
  5
1BC
100
AcDbEntity
  8
0
 62
     0
100
AcDbLine
 10
-0.341204
 20
59.234089
 30
0.0
 11
-0.191775
 21
59.221015
 31
0.0
  0
LINE
  5
1BD
100
AcDbEntity
  8
0
 62
     0
100
AcDbLine
 10
-6.067534
 20
61.58521
 30
0.0
 11
-5.918104
 21
61.572137
 31
0.0
  0
LINE
  5
1BE
100
AcDbEntity
  8
0
 62
     0
100
AcDbLine
 10
-4.274383
 20
61.42833
 30
0.0
 11
-4.124954
 21
61.415256
 31
0.0
  0
LINE
  5
1BF
100
AcDbEntity
  8
0
 62
     0
100
AcDbLine
 10
-2.481233
 20
61.271449
 30
0.0
 11
-2.331804
 21
61.258376
 31
0.0
  0
LINE
  5
1C0
100
AcDbEntity
  8
0
 62
     0
100
AcDbLine
 10
-0.688082
 20
61.114569
 30
0.0
 11
-0.538653
 21
61.101496
 31
0.0
  0
LINE
  5
1C1
100
AcDbEntity
  8
0
 62
     0
100
AcDbLine
 10
-4.621262
 20
63.30881
 30
0.0
 11
-4.471832
 21
63.295737
 31
0.0
  0
LINE
  5
1C2
100
AcDbEntity
  8
0
 62
     0
100
AcDbLine
 10
-1.034961
 20
62.995049
 30
0.0
 11
-0.885531
 21
62.981976
 31
0.0
  0
LINE
  5
1C3
100
AcDbEntity
  8
0
 62
     0
100
AcDbLine
 10
-4.738779
 20
44.817767
 30
0.0
 11
-4.58935
 21
44.804694
 31
0.0
  0
LINE
  5
1C4
100
AcDbEntity
  8
0
 62
     0
100
AcDbLine
 10
-2.945629
 20
44.660887
 30
0.0
 11
-2.796199
 21
44.647814
 31
0.0
  0
LINE
  5
1C5
100
AcDbEntity
  8
0
 62
     0
100
AcDbLine
 10
-1.152478
 20
44.504007
 30
0.0
 11
-1.003049
 21
44.490933
 31
0.0
  0
LINE
  5
1C6
100
AcDbEntity
  8
0
 62
     0
100
AcDbLine
 10
-6.174226
 20
43.09322
 30
0.0
 11
-6.035622
 21
43.081094
 31
0.0
  0
LINE
  5
1C7
100
AcDbEntity
  8
0
 62
     0
100
AcDbLine
 10
-4.391901
 20
42.937287
 30
0.0
 11
-4.242472
 21
42.924214
 31
0.0
  0
LINE
  5
1C8
100
AcDbEntity
  8
0
 62
     0
100
AcDbLine
 10
-2.59875
 20
42.780407
 30
0.0
 11
-2.449321
 21
42.767333
 31
0.0
  0
LINE
  5
1C9
100
AcDbEntity
  8
0
 62
     0
100
AcDbLine
 10
-0.8056
 20
42.623526
 30
0.0
 11
-0.656171
 21
42.610453
 31
0.0
  0
LINE
  5
1CA
100
AcDbEntity
  8
0
 62
     0
100
AcDbLine
 10
-5.838173
 20
41.213687
 30
0.0
 11
-5.688744
 21
41.200614
 31
0.0
  0
LINE
  5
1CB
100
AcDbEntity
  8
0
 62
     0
100
AcDbLine
 10
-4.045022
 20
41.056807
 30
0.0
 11
-3.895593
 21
41.043733
 31
0.0
  0
LINE
  5
1CC
100
AcDbEntity
  8
0
 62
     0
100
AcDbLine
 10
-2.251872
 20
40.899926
 30
0.0
 11
-2.102443
 21
40.886853
 31
0.0
  0
LINE
  5
1CD
100
AcDbEntity
  8
0
 62
     0
100
AcDbLine
 10
-0.458722
 20
40.743046
 30
0.0
 11
-0.309292
 21
40.729973
 31
0.0
  0
LINE
  5
1CE
100
AcDbEntity
  8
0
 62
     0
100
AcDbLine
 10
-5.491295
 20
39.333207
 30
0.0
 11
-5.341865
 21
39.320133
 31
0.0
  0
LINE
  5
1CF
100
AcDbEntity
  8
0
 62
     0
100
AcDbLine
 10
-3.698144
 20
39.176326
 30
0.0
 11
-3.548715
 21
39.163253
 31
0.0
  0
LINE
  5
1D0
100
AcDbEntity
  8
0
 62
     0
100
AcDbLine
 10
-1.904994
 20
39.019446
 30
0.0
 11
-1.755564
 21
39.006373
 31
0.0
  0
LINE
  5
1D1
100
AcDbEntity
  8
0
 62
     0
100
AcDbLine
 10
-5.144416
 20
37.452726
 30
0.0
 11
-4.994987
 21
37.439653
 31
0.0
  0
LINE
  5
1D2
100
AcDbEntity
  8
0
 62
     0
100
AcDbLine
 10
-3.351266
 20
37.295846
 30
0.0
 11
-3.201837
 21
37.282773
 31
0.0
  0
LINE
  5
1D3
100
AcDbEntity
  8
0
 62
     0
100
AcDbLine
 10
-1.558115
 20
37.138966
 30
0.0
 11
-1.408686
 21
37.125892
 31
0.0
  0
LINE
  5
1D4
100
AcDbEntity
  8
0
 62
     0
100
AcDbLine
 10
-4.797538
 20
35.572246
 30
0.0
 11
-4.648109
 21
35.559173
 31
0.0
  0
LINE
  5
1D5
100
AcDbEntity
  8
0
 62
     0
100
AcDbLine
 10
-3.004387
 20
35.415366
 30
0.0
 11
-2.854958
 21
35.402292
 31
0.0
  0
LINE
  5
1D6
100
AcDbEntity
  8
0
 62
     0
100
AcDbLine
 10
-1.211237
 20
35.258485
 30
0.0
 11
-1.061808
 21
35.245412
 31
0.0
  0
LINE
  5
1D7
100
AcDbEntity
  8
0
 62
     0
100
AcDbLine
 10
-6.174226
 20
33.842558
 30
0.0
 11
-6.094381
 21
33.835573
 31
0.0
  0
LINE
  5
1D8
100
AcDbEntity
  8
0
 62
     0
100
AcDbLine
 10
-2.657509
 20
33.534885
 30
0.0
 11
-2.50808
 21
33.521812
 31
0.0
  0
LINE
  5
1D9
100
AcDbEntity
  8
0
 62
     0
100
AcDbLine
 10
-0.864359
 20
33.378005
 30
0.0
 11
-0.714929
 21
33.364932
 31
0.0
  0
LINE
  5
1DA
100
AcDbEntity
  8
0
 62
     0
100
AcDbLine
 10
-0.714903
 20
33.364932
 30
0.0
 11
-0.74381
 21
33.521639
 31
0.0
  0
LINE
  5
1DB
100
AcDbEntity
  8
0
 62
     0
100
AcDbLine
 10
-1.06178
 20
35.245413
 30
0.0
 11
-1.090687
 21
35.40212
 31
0.0
  0
LINE
  5
1DC
100
AcDbEntity
  8
0
 62
     0
100
AcDbLine
 10
-1.408657
 20
37.125893
 30
0.0
 11
-1.437564
 21
37.2826
 31
0.0
  0
LINE
  5
1DD
100
AcDbEntity
  8
0
 62
     0
100
AcDbLine
 10
-1.755534
 20
39.006374
 30
0.0
 11
-1.78444
 21
39.163081
 31
0.0
  0
LINE
  5
1DE
100
AcDbEntity
  8
0
 62
     0
100
AcDbLine
 10
-2.102411
 20
40.886855
 30
0.0
 11
-2.131317
 21
41.043561
 31
0.0
  0
LINE
  5
1DF
100
AcDbEntity
  8
0
 62
     0
100
AcDbLine
 10
-2.449288
 20
42.767335
 30
0.0
 11
-2.478194
 21
42.924042
 31
0.0
  0
LINE
  5
1E0
100
AcDbEntity
  8
0
 62
     0
100
AcDbLine
 10
-2.796165
 20
44.647816
 30
0.0
 11
-2.825071
 21
44.804523
 31
0.0
  0
LINE
  5
1E1
100
AcDbEntity
  8
0
 62
     0
100
AcDbLine
 10
-3.143041
 20
46.528296
 30
0.0
 11
-3.171948
 21
46.685003
 31
0.0
  0
LINE
  5
1E2
100
AcDbEntity
  8
0
 62
     0
100
AcDbLine
 10
-3.489918
 20
48.408777
 30
0.0
 11
-3.518825
 21
48.565484
 31
0.0
  0
LINE
  5
1E3
100
AcDbEntity
  8
0
 62
     0
100
AcDbLine
 10
-3.836795
 20
50.289258
 30
0.0
 11
-3.865702
 21
50.445964
 31
0.0
  0
LINE
  5
1E4
100
AcDbEntity
  8
0
 62
     0
100
AcDbLine
 10
-4.183672
 20
52.169738
 30
0.0
 11
-4.212578
 21
52.326445
 31
0.0
  0
LINE
  5
1E5
100
AcDbEntity
  8
0
 62
     0
100
AcDbLine
 10
-4.530549
 20
54.050219
 30
0.0
 11
-4.559455
 21
54.206926
 31
0.0
  0
LINE
  5
1E6
100
AcDbEntity
  8
0
 62
     0
100
AcDbLine
 10
-4.877426
 20
55.930699
 30
0.0
 11
-4.906332
 21
56.087406
 31
0.0
  0
LINE
  5
1E7
100
AcDbEntity
  8
0
 62
     0
100
AcDbLine
 10
-5.224303
 20
57.81118
 30
0.0
 11
-5.253209
 21
57.967887
 31
0.0
  0
LINE
  5
1E8
100
AcDbEntity
  8
0
 62
     0
100
AcDbLine
 10
-5.57118
 20
59.691661
 30
0.0
 11
-5.600086
 21
59.848367
 31
0.0
  0
LINE
  5
1E9
100
AcDbEntity
  8
0
 62
     0
100
AcDbLine
 10
-5.918056
 20
61.572141
 30
0.0
 11
-5.946963
 21
61.728848
 31
0.0
  0
LINE
  5
1EA
100
AcDbEntity
  8
0
 62
     0
100
AcDbLine
 10
-0.309261
 20
40.729973
 30
0.0
 11
-0.338167
 21
40.88668
 31
0.0
  0
LINE
  5
1EB
100
AcDbEntity
  8
0
 62
     0
100
AcDbLine
 10
-0.656137
 20
42.610453
 30
0.0
 11
-0.685044
 21
42.76716
 31
0.0
  0
LINE
  5
1EC
100
AcDbEntity
  8
0
 62
     0
100
AcDbLine
 10
-1.003014
 20
44.490934
 30
0.0
 11
-1.031921
 21
44.647641
 31
0.0
  0
LINE
  5
1ED
100
AcDbEntity
  8
0
 62
     0
100
AcDbLine
 10
-1.349891
 20
46.371415
 30
0.0
 11
-1.378798
 21
46.528121
 31
0.0
  0
LINE
  5
1EE
100
AcDbEntity
  8
0
 62
     0
100
AcDbLine
 10
-1.696768
 20
48.251895
 30
0.0
 11
-1.725674
 21
48.408602
 31
0.0
  0
LINE
  5
1EF
100
AcDbEntity
  8
0
 62
     0
100
AcDbLine
 10
-2.043645
 20
50.132376
 30
0.0
 11
-2.072551
 21
50.289083
 31
0.0
  0
LINE
  5
1F0
100
AcDbEntity
  8
0
 62
     0
100
AcDbLine
 10
-2.390522
 20
52.012856
 30
0.0
 11
-2.419428
 21
52.169563
 31
0.0
  0
LINE
  5
1F1
100
AcDbEntity
  8
0
 62
     0
100
AcDbLine
 10
-2.737399
 20
53.893337
 30
0.0
 11
-2.766305
 21
54.050044
 31
0.0
  0
LINE
  5
1F2
100
AcDbEntity
  8
0
 62
     0
100
AcDbLine
 10
-3.084275
 20
55.773818
 30
0.0
 11
-3.113182
 21
55.930524
 31
0.0
  0
LINE
  5
1F3
100
AcDbEntity
  8
0
 62
     0
100
AcDbLine
 10
-3.431152
 20
57.654298
 30
0.0
 11
-3.460059
 21
57.811005
 31
0.0
  0
LINE
  5
1F4
100
AcDbEntity
  8
0
 62
     0
100
AcDbLine
 10
-3.778029
 20
59.534779
 30
0.0
 11
-3.806936
 21
59.691486
 31
0.0
  0
LINE
  5
1F5
100
AcDbEntity
  8
0
 62
     0
100
AcDbLine
 10
-4.124906
 20
61.415259
 30
0.0
 11
-4.153812
 21
61.571966
 31
0.0
  0
LINE
  5
1F6
100
AcDbEntity
  8
0
 62
     0
100
AcDbLine
 10
-4.471783
 20
63.29574
 30
0.0
 11
-4.500689
 21
63.452447
 31
0.0
  0
LINE
  5
1F7
100
AcDbEntity
  8
0
 62
     0
100
AcDbLine
 10
0.443259
 20
46.214533
 30
0.0
 11
0.414353
 21
46.37124
 31
0.0
  0
LINE
  5
1F8
100
AcDbEntity
  8
0
 62
     0
100
AcDbLine
 10
0.096382
 20
48.095014
 30
0.0
 11
0.067476
 21
48.25172
 31
0.0
  0
LINE
  5
1F9
100
AcDbEntity
  8
0
 62
     0
100
AcDbLine
 10
-0.250495
 20
49.975494
 30
0.0
 11
-0.279401
 21
50.132201
 31
0.0
  0
LINE
  5
1FA
100
AcDbEntity
  8
0
 62
     0
100
AcDbLine
 10
-0.597371
 20
51.855975
 30
0.0
 11
-0.626278
 21
52.012681
 31
0.0
  0
LINE
  5
1FB
100
AcDbEntity
  8
0
 62
     0
100
AcDbLine
 10
-0.944248
 20
53.736455
 30
0.0
 11
-0.973155
 21
53.893162
 31
0.0
  0
LINE
  5
1FC
100
AcDbEntity
  8
0
 62
     0
100
AcDbLine
 10
-1.291125
 20
55.616936
 30
0.0
 11
-1.320032
 21
55.773643
 31
0.0
  0
LINE
  5
1FD
100
AcDbEntity
  8
0
 62
     0
100
AcDbLine
 10
-1.638002
 20
57.497417
 30
0.0
 11
-1.666908
 21
57.654123
 31
0.0
  0
LINE
  5
1FE
100
AcDbEntity
  8
0
 62
     0
100
AcDbLine
 10
-1.984879
 20
59.377897
 30
0.0
 11
-2.013785
 21
59.534604
 31
0.0
  0
LINE
  5
1FF
100
AcDbEntity
  8
0
 62
     0
100
AcDbLine
 10
-2.331756
 20
61.258378
 30
0.0
 11
-2.360662
 21
61.415084
 31
0.0
  0
LINE
  5
200
100
AcDbEntity
  8
0
 62
     0
100
AcDbLine
 10
2.236409
 20
46.057651
 30
0.0
 11
2.207503
 21
46.214358
 31
0.0
  0
LINE
  5
201
100
AcDbEntity
  8
0
 62
     0
100
AcDbLine
 10
1.889533
 20
47.938132
 30
0.0
 11
1.860626
 21
48.094839
 31
0.0
  0
LINE
  5
202
100
AcDbEntity
  8
0
 62
     0
100
AcDbLine
 10
1.542656
 20
49.818612
 30
0.0
 11
1.513749
 21
49.975319
 31
0.0
  0
LINE
  5
203
100
AcDbEntity
  8
0
 62
     0
100
AcDbLine
 10
-0.191729
 20
59.221015
 30
0.0
 11
-0.220635
 21
59.377722
 31
0.0
  0
LINE
  5
204
100
AcDbEntity
  8
0
 62
     0
100
AcDbLine
 10
-0.538605
 20
61.101496
 30
0.0
 11
-0.567512
 21
61.258203
 31
0.0
  0
LINE
  5
205
100
AcDbEntity
  8
0
 62
     0
100
AcDbLine
 10
-0.885482
 20
62.981977
 30
0.0
 11
-0.908488
 21
63.106694
 31
0.0
  0
LINE
  5
206
100
AcDbEntity
  8
0
 62
     0
100
AcDbLine
 10
-2.508054
 20
33.521814
 30
0.0
 11
-2.53696
 21
33.678521
 31
0.0
  0
LINE
  5
207
100
AcDbEntity
  8
0
 62
     0
100
AcDbLine
 10
-2.854931
 20
35.402295
 30
0.0
 11
-2.883837
 21
35.559001
 31
0.0
  0
LINE
  5
208
100
AcDbEntity
  8
0
 62
     0
100
AcDbLine
 10
-3.201807
 20
37.282775
 30
0.0
 11
-3.230714
 21
37.439482
 31
0.0
  0
LINE
  5
209
100
AcDbEntity
  8
0
 62
     0
100
AcDbLine
 10
-3.548684
 20
39.163256
 30
0.0
 11
-3.577591
 21
39.319962
 31
0.0
  0
LINE
  5
20A
100
AcDbEntity
  8
0
 62
     0
100
AcDbLine
 10
-3.895561
 20
41.043736
 30
0.0
 11
-3.924468
 21
41.200443
 31
0.0
  0
LINE
  5
20B
100
AcDbEntity
  8
0
 62
     0
100
AcDbLine
 10
-4.242438
 20
42.924217
 30
0.0
 11
-4.271344
 21
43.080924
 31
0.0
  0
LINE
  5
20C
100
AcDbEntity
  8
0
 62
     0
100
AcDbLine
 10
-4.589315
 20
44.804698
 30
0.0
 11
-4.618221
 21
44.961404
 31
0.0
  0
LINE
  5
20D
100
AcDbEntity
  8
0
 62
     0
100
AcDbLine
 10
-4.936192
 20
46.685178
 30
0.0
 11
-4.965098
 21
46.841885
 31
0.0
  0
LINE
  5
20E
100
AcDbEntity
  8
0
 62
     0
100
AcDbLine
 10
-5.283069
 20
48.565659
 30
0.0
 11
-5.311975
 21
48.722365
 31
0.0
  0
LINE
  5
20F
100
AcDbEntity
  8
0
 62
     0
100
AcDbLine
 10
-5.629946
 20
50.446139
 30
0.0
 11
-5.658852
 21
50.602846
 31
0.0
  0
LINE
  5
210
100
AcDbEntity
  8
0
 62
     0
100
AcDbLine
 10
-5.976822
 20
52.32662
 30
0.0
 11
-6.005729
 21
52.483327
 31
0.0
  0
LINE
  5
211
100
AcDbEntity
  8
0
 62
     0
100
AcDbLine
 10
-4.648081
 20
35.559176
 30
0.0
 11
-4.676987
 21
35.715883
 31
0.0
  0
LINE
  5
212
100
AcDbEntity
  8
0
 62
     0
100
AcDbLine
 10
-4.994958
 20
37.439657
 30
0.0
 11
-5.023864
 21
37.596364
 31
0.0
  0
LINE
  5
213
100
AcDbEntity
  8
0
 62
     0
100
AcDbLine
 10
-5.341835
 20
39.320138
 30
0.0
 11
-5.370741
 21
39.476844
 31
0.0
  0
LINE
  5
214
100
AcDbEntity
  8
0
 62
     0
100
AcDbLine
 10
-5.688712
 20
41.200618
 30
0.0
 11
-5.717618
 21
41.357325
 31
0.0
  0
LINE
  5
215
100
AcDbEntity
  8
0
 62
     0
100
AcDbLine
 10
-6.035588
 20
43.081099
 30
0.0
 11
-6.064495
 21
43.237805
 31
0.0
  0
LINE
  5
216
100
AcDbEntity
  8
0
 62
     0
100
AcDbLine
 10
-6.094354
 20
33.835577
 30
0.0
 11
-6.123261
 21
33.992284
 31
0.0
  0
LINE
  5
217
100
AcDbEntity
  8
0
 62
     0
100
AcDbLine
 10
-4.971716
 20
43.236411
 30
0.0
 11
-4.776995
 21
43.439352
 31
0.0
  0
LINE
  5
218
100
AcDbEntity
  8
0
 62
     0
100
AcDbLine
 10
-2.635062
 20
45.671707
 30
0.0
 11
-2.44034
 21
45.874648
 31
0.0
  0
LINE
  5
219
100
AcDbEntity
  8
0
 62
     0
100
AcDbLine
 10
-0.298407
 20
48.107004
 30
0.0
 11
-0.103685
 21
48.309945
 31
0.0
  0
LINE
  5
21A
100
AcDbEntity
  8
0
 62
     0
100
AcDbLine
 10
2.038248
 20
50.5423
 30
0.0
 11
2.228394
 21
50.740473
 31
0.0
  0
LINE
  5
21B
100
AcDbEntity
  8
0
 62
     0
100
AcDbLine
 10
-4.640269
 20
40.387317
 30
0.0
 11
-4.445547
 21
40.590258
 31
0.0
  0
LINE
  5
21C
100
AcDbEntity
  8
0
 62
     0
100
AcDbLine
 10
-2.303614
 20
42.822613
 30
0.0
 11
-2.108893
 21
43.025554
 31
0.0
  0
LINE
  5
21D
100
AcDbEntity
  8
0
 62
     0
100
AcDbLine
 10
0.033041
 20
45.25791
 30
0.0
 11
0.227762
 21
45.460851
 31
0.0
  0
LINE
  5
21E
100
AcDbEntity
  8
0
 62
     0
100
AcDbLine
 10
2.369696
 20
47.693206
 30
0.0
 11
2.564417
 21
47.896147
 31
0.0
  0
LINE
  5
21F
100
AcDbEntity
  8
0
 62
     0
100
AcDbLine
 10
-4.308821
 20
37.538222
 30
0.0
 11
-4.1141
 21
37.741164
 31
0.0
  0
LINE
  5
220
100
AcDbEntity
  8
0
 62
     0
100
AcDbLine
 10
-1.972166
 20
39.973519
 30
0.0
 11
-1.777445
 21
40.17646
 31
0.0
  0
LINE
  5
221
100
AcDbEntity
  8
0
 62
     0
100
AcDbLine
 10
2.701144
 20
44.844112
 30
0.0
 11
2.825774
 21
44.974003
 31
0.0
  0
LINE
  5
222
100
AcDbEntity
  8
0
 62
     0
100
AcDbLine
 10
-3.977373
 20
34.689128
 30
0.0
 11
-3.782652
 21
34.89207
 31
0.0
  0
LINE
  5
223
100
AcDbEntity
  8
0
 62
     0
100
AcDbLine
 10
-1.640718
 20
37.124425
 30
0.0
 11
-1.445997
 21
37.327366
 31
0.0
  0
LINE
  5
224
100
AcDbEntity
  8
0
 62
     0
100
AcDbLine
 10
-1.30927
 20
34.275331
 30
0.0
 11
-1.114549
 21
34.478272
 31
0.0
  0
LINE
  5
225
100
AcDbEntity
  8
0
 62
     0
100
AcDbLine
 10
-5.303164
 20
46.085505
 30
0.0
 11
-5.108443
 21
46.288446
 31
0.0
  0
LINE
  5
226
100
AcDbEntity
  8
0
 62
     0
100
AcDbLine
 10
-2.966509
 20
48.520801
 30
0.0
 11
-2.771788
 21
48.723742
 31
0.0
  0
LINE
  5
227
100
AcDbEntity
  8
0
 62
     0
100
AcDbLine
 10
-0.629854
 20
50.956098
 30
0.0
 11
-0.435133
 21
51.159039
 31
0.0
  0
LINE
  5
228
100
AcDbEntity
  8
0
 62
     0
100
AcDbLine
 10
-5.634612
 20
48.934599
 30
0.0
 11
-5.439891
 21
49.13754
 31
0.0
  0
LINE
  5
229
100
AcDbEntity
  8
0
 62
     0
100
AcDbLine
 10
-3.297957
 20
51.369895
 30
0.0
 11
-3.103236
 21
51.572837
 31
0.0
  0
LINE
  5
22A
100
AcDbEntity
  8
0
 62
     0
100
AcDbLine
 10
-0.961302
 20
53.805192
 30
0.0
 11
-0.766581
 21
54.008133
 31
0.0
  0
LINE
  5
22B
100
AcDbEntity
  8
0
 62
     0
100
AcDbLine
 10
-5.96606
 20
51.783693
 30
0.0
 11
-5.771338
 21
51.986634
 31
0.0
  0
LINE
  5
22C
100
AcDbEntity
  8
0
 62
     0
100
AcDbLine
 10
-3.629405
 20
54.218989
 30
0.0
 11
-3.434684
 21
54.421931
 31
0.0
  0
LINE
  5
22D
100
AcDbEntity
  8
0
 62
     0
100
AcDbLine
 10
-1.29275
 20
56.654286
 30
0.0
 11
-1.098029
 21
56.857227
 31
0.0
  0
LINE
  5
22E
100
AcDbEntity
  8
0
 62
     0
100
AcDbLine
 10
-6.174226
 20
54.761272
 30
0.0
 11
-6.102786
 21
54.835728
 31
0.0
  0
LINE
  5
22F
100
AcDbEntity
  8
0
 62
     0
100
AcDbLine
 10
-3.960853
 20
57.068083
 30
0.0
 11
-3.766131
 21
57.271025
 31
0.0
  0
LINE
  5
230
100
AcDbEntity
  8
0
 62
     0
100
AcDbLine
 10
-1.624198
 20
59.50338
 30
0.0
 11
-1.429476
 21
59.706321
 31
0.0
  0
LINE
  5
231
100
AcDbEntity
  8
0
 62
     0
100
AcDbLine
 10
-4.2923
 20
59.917177
 30
0.0
 11
-4.097579
 21
60.120119
 31
0.0
  0
LINE
  5
232
100
AcDbEntity
  8
0
 62
     0
100
AcDbLine
 10
-4.623748
 20
62.766271
 30
0.0
 11
-4.429027
 21
62.969213
 31
0.0
  0
LINE
  5
233
100
AcDbEntity
  8
0
 62
     0
100
AcDbLine
 10
-1.086902
 20
34.240844
 30
0.0
 11
-1.114522
 21
34.478269
 31
0.0
  0
LINE
  5
234
100
AcDbEntity
  8
0
 62
     0
100
AcDbLine
 10
-1.418347
 20
37.089938
 30
0.0
 11
-1.445968
 21
37.327362
 31
0.0
  0
LINE
  5
235
100
AcDbEntity
  8
0
 62
     0
100
AcDbLine
 10
-1.749793
 20
39.939032
 30
0.0
 11
-1.777413
 21
40.176456
 31
0.0
  0
LINE
  5
236
100
AcDbEntity
  8
0
 62
     0
100
AcDbLine
 10
-2.081238
 20
42.788126
 30
0.0
 11
-2.108859
 21
43.02555
 31
0.0
  0
LINE
  5
237
100
AcDbEntity
  8
0
 62
     0
100
AcDbLine
 10
-2.412684
 20
45.63722
 30
0.0
 11
-2.440304
 21
45.874644
 31
0.0
  0
LINE
  5
238
100
AcDbEntity
  8
0
 62
     0
100
AcDbLine
 10
-2.744129
 20
48.486313
 30
0.0
 11
-2.77175
 21
48.723738
 31
0.0
  0
LINE
  5
239
100
AcDbEntity
  8
0
 62
     0
100
AcDbLine
 10
-3.075575
 20
51.335407
 30
0.0
 11
-3.103195
 21
51.572832
 31
0.0
  0
LINE
  5
23A
100
AcDbEntity
  8
0
 62
     0
100
AcDbLine
 10
-3.40702
 20
54.184501
 30
0.0
 11
-3.434641
 21
54.421926
 31
0.0
  0
LINE
  5
23B
100
AcDbEntity
  8
0
 62
     0
100
AcDbLine
 10
-3.738466
 20
57.033595
 30
0.0
 11
-3.766086
 21
57.27102
 31
0.0
  0
LINE
  5
23C
100
AcDbEntity
  8
0
 62
     0
100
AcDbLine
 10
-4.069911
 20
59.882689
 30
0.0
 11
-4.097532
 21
60.120114
 31
0.0
  0
LINE
  5
23D
100
AcDbEntity
  8
0
 62
     0
100
AcDbLine
 10
-4.401357
 20
62.731783
 30
0.0
 11
-4.428977
 21
62.969207
 31
0.0
  0
LINE
  5
23E
100
AcDbEntity
  8
0
 62
     0
100
AcDbLine
 10
0.255419
 20
45.22342
 30
0.0
 11
0.227798
 21
45.460845
 31
0.0
  0
LINE
  5
23F
100
AcDbEntity
  8
0
 62
     0
100
AcDbLine
 10
-0.076027
 20
48.072514
 30
0.0
 11
-0.103647
 21
48.309939
 31
0.0
  0
LINE
  5
240
100
AcDbEntity
  8
0
 62
     0
100
AcDbLine
 10
-0.407472
 20
50.921608
 30
0.0
 11
-0.435093
 21
51.159033
 31
0.0
  0
LINE
  5
241
100
AcDbEntity
  8
0
 62
     0
100
AcDbLine
 10
-0.738918
 20
53.770702
 30
0.0
 11
-0.766538
 21
54.008127
 31
0.0
  0
LINE
  5
242
100
AcDbEntity
  8
0
 62
     0
100
AcDbLine
 10
-1.070363
 20
56.619796
 30
0.0
 11
-1.097984
 21
56.85722
 31
0.0
  0
LINE
  5
243
100
AcDbEntity
  8
0
 62
     0
100
AcDbLine
 10
-1.401809
 20
59.46889
 30
0.0
 11
-1.429429
 21
59.706314
 31
0.0
  0
LINE
  5
244
100
AcDbEntity
  8
0
 62
     0
100
AcDbLine
 10
2.592075
 20
47.658715
 30
0.0
 11
2.564455
 21
47.89614
 31
0.0
  0
LINE
  5
245
100
AcDbEntity
  8
0
 62
     0
100
AcDbLine
 10
2.26063
 20
50.507809
 30
0.0
 11
2.233563
 21
50.740473
 31
0.0
  0
LINE
  5
246
100
AcDbEntity
  8
0
 62
     0
100
AcDbLine
 10
-3.755004
 20
34.654643
 30
0.0
 11
-3.782624
 21
34.892068
 31
0.0
  0
LINE
  5
247
100
AcDbEntity
  8
0
 62
     0
100
AcDbLine
 10
-4.086449
 20
37.503737
 30
0.0
 11
-4.11407
 21
37.741162
 31
0.0
  0
LINE
  5
248
100
AcDbEntity
  8
0
 62
     0
100
AcDbLine
 10
-4.417895
 20
40.352831
 30
0.0
 11
-4.445515
 21
40.590256
 31
0.0
  0
LINE
  5
249
100
AcDbEntity
  8
0
 62
     0
100
AcDbLine
 10
-4.74934
 20
43.201925
 30
0.0
 11
-4.776961
 21
43.439349
 31
0.0
  0
LINE
  5
24A
100
AcDbEntity
  8
0
 62
     0
100
AcDbLine
 10
-5.080786
 20
46.051019
 30
0.0
 11
-5.108406
 21
46.288443
 31
0.0
  0
LINE
  5
24B
100
AcDbEntity
  8
0
 62
     0
100
AcDbLine
 10
-5.412231
 20
48.900113
 30
0.0
 11
-5.439852
 21
49.137537
 31
0.0
  0
LINE
  5
24C
100
AcDbEntity
  8
0
 62
     0
100
AcDbLine
 10
-5.743677
 20
51.749207
 30
0.0
 11
-5.771297
 21
51.986631
 31
0.0
  0
LINE
  5
24D
100
AcDbEntity
  8
0
 62
     0
100
AcDbLine
 10
-6.075122
 20
54.5983
 30
0.0
 11
-6.102743
 21
54.835725
 31
0.0
  0
LINE
  5
24E
100
AcDbEntity
  8
0
 62
     0
100
AcDbLine
 10
-5.303164
 20
46.085505
 30
0.0
 11
-5.080822
 21
46.051021
 31
0.0
  0
LINE
  5
24F
100
AcDbEntity
  8
0
 62
     0
100
AcDbLine
 10
-2.635062
 20
45.671707
 30
0.0
 11
-2.41272
 21
45.637224
 31
0.0
  0
LINE
  5
250
100
AcDbEntity
  8
0
 62
     0
100
AcDbLine
 10
0.033041
 20
45.25791
 30
0.0
 11
0.255383
 21
45.223426
 31
0.0
  0
LINE
  5
251
100
AcDbEntity
  8
0
 62
     0
100
AcDbLine
 10
2.701144
 20
44.844112
 30
0.0
 11
2.825774
 21
44.824783
 31
0.0
  0
LINE
  5
252
100
AcDbEntity
  8
0
 62
     0
100
AcDbLine
 10
-5.634612
 20
48.934599
 30
0.0
 11
-5.41227
 21
48.900116
 31
0.0
  0
LINE
  5
253
100
AcDbEntity
  8
0
 62
     0
100
AcDbLine
 10
-2.966509
 20
48.520801
 30
0.0
 11
-2.744167
 21
48.486318
 31
0.0
  0
LINE
  5
254
100
AcDbEntity
  8
0
 62
     0
100
AcDbLine
 10
-0.298407
 20
48.107004
 30
0.0
 11
-0.076065
 21
48.07252
 31
0.0
  0
LINE
  5
255
100
AcDbEntity
  8
0
 62
     0
100
AcDbLine
 10
2.369696
 20
47.693206
 30
0.0
 11
2.592038
 21
47.658723
 31
0.0
  0
LINE
  5
256
100
AcDbEntity
  8
0
 62
     0
100
AcDbLine
 10
-5.96606
 20
51.783693
 30
0.0
 11
-5.743718
 21
51.74921
 31
0.0
  0
LINE
  5
257
100
AcDbEntity
  8
0
 62
     0
100
AcDbLine
 10
-3.297957
 20
51.369895
 30
0.0
 11
-3.075615
 21
51.335412
 31
0.0
  0
LINE
  5
258
100
AcDbEntity
  8
0
 62
     0
100
AcDbLine
 10
-0.629854
 20
50.956098
 30
0.0
 11
-0.407513
 21
50.921614
 31
0.0
  0
LINE
  5
259
100
AcDbEntity
  8
0
 62
     0
100
AcDbLine
 10
2.038248
 20
50.5423
 30
0.0
 11
2.26059
 21
50.507817
 31
0.0
  0
LINE
  5
25A
100
AcDbEntity
  8
0
 62
     0
100
AcDbLine
 10
-6.174226
 20
54.613667
 30
0.0
 11
-6.075166
 21
54.598304
 31
0.0
  0
LINE
  5
25B
100
AcDbEntity
  8
0
 62
     0
100
AcDbLine
 10
-3.629405
 20
54.218989
 30
0.0
 11
-3.407063
 21
54.184506
 31
0.0
  0
LINE
  5
25C
100
AcDbEntity
  8
0
 62
     0
100
AcDbLine
 10
-0.961302
 20
53.805192
 30
0.0
 11
-0.73896
 21
53.770709
 31
0.0
  0
LINE
  5
25D
100
AcDbEntity
  8
0
 62
     0
100
AcDbLine
 10
-3.960853
 20
57.068083
 30
0.0
 11
-3.738511
 21
57.0336
 31
0.0
  0
LINE
  5
25E
100
AcDbEntity
  8
0
 62
     0
100
AcDbLine
 10
-1.29275
 20
56.654286
 30
0.0
 11
-1.070408
 21
56.619803
 31
0.0
  0
LINE
  5
25F
100
AcDbEntity
  8
0
 62
     0
100
AcDbLine
 10
-4.2923
 20
59.917177
 30
0.0
 11
-4.069958
 21
59.882694
 31
0.0
  0
LINE
  5
260
100
AcDbEntity
  8
0
 62
     0
100
AcDbLine
 10
-1.624198
 20
59.50338
 30
0.0
 11
-1.401856
 21
59.468897
 31
0.0
  0
LINE
  5
261
100
AcDbEntity
  8
0
 62
     0
100
AcDbLine
 10
-4.623748
 20
62.766271
 30
0.0
 11
-4.401406
 21
62.731788
 31
0.0
  0
LINE
  5
262
100
AcDbEntity
  8
0
 62
     0
100
AcDbLine
 10
-4.971716
 20
43.236411
 30
0.0
 11
-4.749374
 21
43.201927
 31
0.0
  0
LINE
  5
263
100
AcDbEntity
  8
0
 62
     0
100
AcDbLine
 10
-2.303614
 20
42.822613
 30
0.0
 11
-2.081272
 21
42.78813
 31
0.0
  0
LINE
  5
264
100
AcDbEntity
  8
0
 62
     0
100
AcDbLine
 10
-4.640269
 20
40.387317
 30
0.0
 11
-4.417927
 21
40.352833
 31
0.0
  0
LINE
  5
265
100
AcDbEntity
  8
0
 62
     0
100
AcDbLine
 10
-1.972166
 20
39.973519
 30
0.0
 11
-1.749824
 21
39.939036
 31
0.0
  0
LINE
  5
266
100
AcDbEntity
  8
0
 62
     0
100
AcDbLine
 10
-4.308821
 20
37.538222
 30
0.0
 11
-4.086479
 21
37.503739
 31
0.0
  0
LINE
  5
267
100
AcDbEntity
  8
0
 62
     0
100
AcDbLine
 10
-1.640718
 20
37.124425
 30
0.0
 11
-1.418376
 21
37.089942
 31
0.0
  0
LINE
  5
268
100
AcDbEntity
  8
0
 62
     0
100
AcDbLine
 10
-3.977373
 20
34.689128
 30
0.0
 11
-3.755031
 21
34.654645
 31
0.0
  0
LINE
  5
269
100
AcDbEntity
  8
0
 62
     0
100
AcDbLine
 10
-1.30927
 20
34.275331
 30
0.0
 11
-1.086929
 21
34.240848
 31
0.0
  0
LINE
  5
26A
100
AcDbEntity
  8
0
 62
     0
100
AcDbLine
 10
-4.607466
 20
45.891647
 30
0.0
 11
-4.432419
 21
45.958841
 31
0.0
  0
LINE
  5
26B
100
AcDbEntity
  8
0
 62
     0
100
AcDbLine
 10
-2.50691
 20
46.697975
 30
0.0
 11
-2.331863
 21
46.765169
 31
0.0
  0
LINE
  5
26C
100
AcDbEntity
  8
0
 62
     0
100
AcDbLine
 10
-0.406354
 20
47.504302
 30
0.0
 11
-0.231307
 21
47.571496
 31
0.0
  0
LINE
  5
26D
100
AcDbEntity
  8
0
 62
     0
100
AcDbLine
 10
1.694202
 20
48.31063
 30
0.0
 11
1.869249
 21
48.377824
 31
0.0
  0
LINE
  5
26E
100
AcDbEntity
  8
0
 62
     0
100
AcDbLine
 10
-5.215754
 20
44.078772
 30
0.0
 11
-5.040708
 21
44.145966
 31
0.0
  0
LINE
  5
26F
100
AcDbEntity
  8
0
 62
     0
100
AcDbLine
 10
-3.115198
 20
44.885099
 30
0.0
 11
-2.940152
 21
44.952293
 31
0.0
  0
LINE
  5
270
100
AcDbEntity
  8
0
 62
     0
100
AcDbLine
 10
-1.014642
 20
45.691427
 30
0.0
 11
-0.839596
 21
45.758621
 31
0.0
  0
LINE
  5
271
100
AcDbEntity
  8
0
 62
     0
100
AcDbLine
 10
1.085914
 20
46.497755
 30
0.0
 11
1.26096
 21
46.564949
 31
0.0
  0
LINE
  5
272
100
AcDbEntity
  8
0
 62
     0
100
AcDbLine
 10
-5.824042
 20
42.265896
 30
0.0
 11
-5.648996
 21
42.33309
 31
0.0
  0
LINE
  5
273
100
AcDbEntity
  8
0
 62
     0
100
AcDbLine
 10
-3.723486
 20
43.072224
 30
0.0
 11
-3.54844
 21
43.139418
 31
0.0
  0
LINE
  5
274
100
AcDbEntity
  8
0
 62
     0
100
AcDbLine
 10
-1.62293
 20
43.878552
 30
0.0
 11
-1.447884
 21
43.945746
 31
0.0
  0
LINE
  5
275
100
AcDbEntity
  8
0
 62
     0
100
AcDbLine
 10
0.62245
 20
44.740473
 30
0.0
 11
0.652672
 21
44.752074
 31
0.0
  0
LINE
  5
276
100
AcDbEntity
  8
0
 62
     0
100
AcDbLine
 10
2.578182
 20
45.491208
 30
0.0
 11
2.753228
 21
45.558402
 31
0.0
  0
LINE
  5
277
100
AcDbEntity
  8
0
 62
     0
100
AcDbLine
 10
-4.331775
 20
41.259349
 30
0.0
 11
-4.156728
 21
41.326543
 31
0.0
  0
LINE
  5
278
100
AcDbEntity
  8
0
 62
     0
100
AcDbLine
 10
-2.231219
 20
42.065677
 30
0.0
 11
-2.056172
 21
42.132871
 31
0.0
  0
LINE
  5
279
100
AcDbEntity
  8
0
 62
     0
100
AcDbLine
 10
-4.940063
 20
39.446474
 30
0.0
 11
-4.765017
 21
39.513668
 31
0.0
  0
LINE
  5
27A
100
AcDbEntity
  8
0
 62
     0
100
AcDbLine
 10
-2.839507
 20
40.252802
 30
0.0
 11
-2.664461
 21
40.319996
 31
0.0
  0
LINE
  5
27B
100
AcDbEntity
  8
0
 62
     0
100
AcDbLine
 10
-0.738951
 20
41.05913
 30
0.0
 11
-0.563905
 21
41.126324
 31
0.0
  0
LINE
  5
27C
100
AcDbEntity
  8
0
 62
     0
100
AcDbLine
 10
-5.548351
 20
37.633599
 30
0.0
 11
-5.373305
 21
37.700793
 31
0.0
  0
LINE
  5
27D
100
AcDbEntity
  8
0
 62
     0
100
AcDbLine
 10
-3.447795
 20
38.439927
 30
0.0
 11
-3.272749
 21
38.507121
 31
0.0
  0
LINE
  5
27E
100
AcDbEntity
  8
0
 62
     0
100
AcDbLine
 10
-1.347239
 20
39.246255
 30
0.0
 11
-1.172193
 21
39.313449
 31
0.0
  0
LINE
  5
27F
100
AcDbEntity
  8
0
 62
     0
100
AcDbLine
 10
-6.15664
 20
35.820724
 30
0.0
 11
-5.981593
 21
35.887918
 31
0.0
  0
LINE
  5
280
100
AcDbEntity
  8
0
 62
     0
100
AcDbLine
 10
-4.056084
 20
36.627052
 30
0.0
 11
-3.881037
 21
36.694246
 31
0.0
  0
LINE
  5
281
100
AcDbEntity
  8
0
 62
     0
100
AcDbLine
 10
-1.955528
 20
37.43338
 30
0.0
 11
-1.780481
 21
37.500574
 31
0.0
  0
LINE
  5
282
100
AcDbEntity
  8
0
 62
     0
100
AcDbLine
 10
-4.664372
 20
34.814177
 30
0.0
 11
-4.489326
 21
34.881371
 31
0.0
  0
LINE
  5
283
100
AcDbEntity
  8
0
 62
     0
100
AcDbLine
 10
-2.563816
 20
35.620505
 30
0.0
 11
-2.38877
 21
35.687699
 31
0.0
  0
LINE
  5
284
100
AcDbEntity
  8
0
 62
     0
100
AcDbLine
 10
-0.46326
 20
36.426832
 30
0.0
 11
-0.288214
 21
36.494026
 31
0.0
  0
LINE
  5
285
100
AcDbEntity
  8
0
 62
     0
100
AcDbLine
 10
-3.172104
 20
33.807629
 30
0.0
 11
-2.997058
 21
33.874823
 31
0.0
  0
LINE
  5
286
100
AcDbEntity
  8
0
 62
     0
100
AcDbLine
 10
-1.071548
 20
34.613957
 30
0.0
 11
-0.896502
 21
34.681151
 31
0.0
  0
LINE
  5
287
100
AcDbEntity
  8
0
 62
     0
100
AcDbLine
 10
-1.679837
 20
32.801082
 30
0.0
 11
-1.678659
 21
32.801534
 31
0.0
  0
LINE
  5
288
100
AcDbEntity
  8
0
 62
     0
100
AcDbLine
 10
-6.099733
 20
46.898194
 30
0.0
 11
-5.924687
 21
46.965388
 31
0.0
  0
LINE
  5
289
100
AcDbEntity
  8
0
 62
     0
100
AcDbLine
 10
-3.999177
 20
47.704522
 30
0.0
 11
-3.824131
 21
47.771716
 31
0.0
  0
LINE
  5
28A
100
AcDbEntity
  8
0
 62
     0
100
AcDbLine
 10
-1.898621
 20
48.51085
 30
0.0
 11
-1.723575
 21
48.578044
 31
0.0
  0
LINE
  5
28B
100
AcDbEntity
  8
0
 62
     0
100
AcDbLine
 10
0.201935
 20
49.317178
 30
0.0
 11
0.376981
 21
49.384372
 31
0.0
  0
LINE
  5
28C
100
AcDbEntity
  8
0
 62
     0
100
AcDbLine
 10
2.302491
 20
50.123505
 30
0.0
 11
2.477537
 21
50.190699
 31
0.0
  0
LINE
  5
28D
100
AcDbEntity
  8
0
 62
     0
100
AcDbLine
 10
-5.491445
 20
48.711069
 30
0.0
 11
-5.316399
 21
48.778263
 31
0.0
  0
LINE
  5
28E
100
AcDbEntity
  8
0
 62
     0
100
AcDbLine
 10
-3.390889
 20
49.517397
 30
0.0
 11
-3.215843
 21
49.584591
 31
0.0
  0
LINE
  5
28F
100
AcDbEntity
  8
0
 62
     0
100
AcDbLine
 10
-1.290333
 20
50.323725
 30
0.0
 11
-1.115287
 21
50.390919
 31
0.0
  0
LINE
  5
290
100
AcDbEntity
  8
0
 62
     0
100
AcDbLine
 10
-4.883157
 20
50.523944
 30
0.0
 11
-4.70811
 21
50.591138
 31
0.0
  0
LINE
  5
291
100
AcDbEntity
  8
0
 62
     0
100
AcDbLine
 10
-2.782601
 20
51.330272
 30
0.0
 11
-2.607554
 21
51.397466
 31
0.0
  0
LINE
  5
292
100
AcDbEntity
  8
0
 62
     0
100
AcDbLine
 10
-0.682045
 20
52.1366
 30
0.0
 11
-0.506998
 21
52.203794
 31
0.0
  0
LINE
  5
293
100
AcDbEntity
  8
0
 62
     0
100
AcDbLine
 10
-4.274868
 20
52.336819
 30
0.0
 11
-4.099822
 21
52.404013
 31
0.0
  0
LINE
  5
294
100
AcDbEntity
  8
0
 62
     0
100
AcDbLine
 10
-2.174312
 20
53.143147
 30
0.0
 11
-1.999266
 21
53.210341
 31
0.0
  0
LINE
  5
295
100
AcDbEntity
  8
0
 62
     0
100
AcDbLine
 10
-5.767136
 20
53.343366
 30
0.0
 11
-5.59209
 21
53.41056
 31
0.0
  0
LINE
  5
296
100
AcDbEntity
  8
0
 62
     0
100
AcDbLine
 10
-3.66658
 20
54.149694
 30
0.0
 11
-3.491534
 21
54.216888
 31
0.0
  0
LINE
  5
297
100
AcDbEntity
  8
0
 62
     0
100
AcDbLine
 10
-1.566024
 20
54.956022
 30
0.0
 11
-1.390978
 21
55.023216
 31
0.0
  0
LINE
  5
298
100
AcDbEntity
  8
0
 62
     0
100
AcDbLine
 10
-5.158848
 20
55.156242
 30
0.0
 11
-4.983801
 21
55.223436
 31
0.0
  0
LINE
  5
299
100
AcDbEntity
  8
0
 62
     0
100
AcDbLine
 10
-3.058292
 20
55.962569
 30
0.0
 11
-2.883245
 21
56.029763
 31
0.0
  0
LINE
  5
29A
100
AcDbEntity
  8
0
 62
     0
100
AcDbLine
 10
-0.957736
 20
56.768897
 30
0.0
 11
-0.782689
 21
56.836091
 31
0.0
  0
LINE
  5
29B
100
AcDbEntity
  8
0
 62
     0
100
AcDbLine
 10
-4.550559
 20
56.969117
 30
0.0
 11
-4.375513
 21
57.036311
 31
0.0
  0
LINE
  5
29C
100
AcDbEntity
  8
0
 62
     0
100
AcDbLine
 10
-2.450003
 20
57.775445
 30
0.0
 11
-2.274957
 21
57.842639
 31
0.0
  0
LINE
  5
29D
100
AcDbEntity
  8
0
 62
     0
100
AcDbLine
 10
-0.349447
 20
58.581772
 30
0.0
 11
-0.174401
 21
58.648966
 31
0.0
  0
LINE
  5
29E
100
AcDbEntity
  8
0
 62
     0
100
AcDbLine
 10
-6.042827
 20
57.975664
 30
0.0
 11
-5.867781
 21
58.042858
 31
0.0
  0
LINE
  5
29F
100
AcDbEntity
  8
0
 62
     0
100
AcDbLine
 10
-3.942271
 20
58.781992
 30
0.0
 11
-3.767225
 21
58.849186
 31
0.0
  0
LINE
  5
2A0
100
AcDbEntity
  8
0
 62
     0
100
AcDbLine
 10
-1.841715
 20
59.58832
 30
0.0
 11
-1.666669
 21
59.655514
 31
0.0
  0
LINE
  5
2A1
100
AcDbEntity
  8
0
 62
     0
100
AcDbLine
 10
-5.434539
 20
59.788539
 30
0.0
 11
-5.259492
 21
59.855733
 31
0.0
  0
LINE
  5
2A2
100
AcDbEntity
  8
0
 62
     0
100
AcDbLine
 10
-3.333983
 20
60.594867
 30
0.0
 11
-3.158936
 21
60.662061
 31
0.0
  0
LINE
  5
2A3
100
AcDbEntity
  8
0
 62
     0
100
AcDbLine
 10
-1.233427
 20
61.401195
 30
0.0
 11
-1.05838
 21
61.468389
 31
0.0
  0
LINE
  5
2A4
100
AcDbEntity
  8
0
 62
     0
100
AcDbLine
 10
-4.82625
 20
61.601414
 30
0.0
 11
-4.651204
 21
61.668608
 31
0.0
  0
LINE
  5
2A5
100
AcDbEntity
  8
0
 62
     0
100
AcDbLine
 10
-2.725694
 20
62.407742
 30
0.0
 11
-2.633529
 21
62.443121
 31
0.0
  0
LINE
  5
2A6
100
AcDbEntity
  8
0
 62
     0
100
AcDbLine
 10
-6.174226
 20
62.66335
 30
0.0
 11
-6.143472
 21
62.675155
 31
0.0
  0
LINE
  5
2A7
100
AcDbEntity
  8
0
 62
     0
100
AcDbLine
 10
-4.217962
 20
63.414289
 30
0.0
 11
-4.042916
 21
63.481483
 31
0.0
  0
LINE
  5
2A8
100
AcDbEntity
  8
0
 62
     0
100
AcDbLine
 10
-5.491445
 20
48.711069
 30
0.0
 11
-5.367089
 21
48.62719
 31
0.0
  0
LINE
  5
2A9
100
AcDbEntity
  8
0
 62
     0
100
AcDbLine
 10
-3.999177
 20
47.704522
 30
0.0
 11
-3.874822
 21
47.620643
 31
0.0
  0
LINE
  5
2AA
100
AcDbEntity
  8
0
 62
     0
100
AcDbLine
 10
-2.50691
 20
46.697975
 30
0.0
 11
-2.382554
 21
46.614096
 31
0.0
  0
LINE
  5
2AB
100
AcDbEntity
  8
0
 62
     0
100
AcDbLine
 10
-1.014642
 20
45.691427
 30
0.0
 11
-0.890286
 21
45.607548
 31
0.0
  0
LINE
  5
2AC
100
AcDbEntity
  8
0
 62
     0
100
AcDbLine
 10
-4.883157
 20
50.523944
 30
0.0
 11
-4.758801
 21
50.440065
 31
0.0
  0
LINE
  5
2AD
100
AcDbEntity
  8
0
 62
     0
100
AcDbLine
 10
-3.390889
 20
49.517397
 30
0.0
 11
-3.266533
 21
49.433518
 31
0.0
  0
LINE
  5
2AE
100
AcDbEntity
  8
0
 62
     0
100
AcDbLine
 10
-1.898621
 20
48.51085
 30
0.0
 11
-1.774266
 21
48.426971
 31
0.0
  0
LINE
  5
2AF
100
AcDbEntity
  8
0
 62
     0
100
AcDbLine
 10
-0.406354
 20
47.504302
 30
0.0
 11
-0.281998
 21
47.420423
 31
0.0
  0
LINE
  5
2B0
100
AcDbEntity
  8
0
 62
     0
100
AcDbLine
 10
1.085914
 20
46.497755
 30
0.0
 11
1.21027
 21
46.413876
 31
0.0
  0
LINE
  5
2B1
100
AcDbEntity
  8
0
 62
     0
100
AcDbLine
 10
2.578182
 20
45.491208
 30
0.0
 11
2.702537
 21
45.407329
 31
0.0
  0
LINE
  5
2B2
100
AcDbEntity
  8
0
 62
     0
100
AcDbLine
 10
-5.767136
 20
53.343366
 30
0.0
 11
-5.64278
 21
53.259487
 31
0.0
  0
LINE
  5
2B3
100
AcDbEntity
  8
0
 62
     0
100
AcDbLine
 10
-4.274868
 20
52.336819
 30
0.0
 11
-4.150513
 21
52.25294
 31
0.0
  0
LINE
  5
2B4
100
AcDbEntity
  8
0
 62
     0
100
AcDbLine
 10
-2.782601
 20
51.330272
 30
0.0
 11
-2.658245
 21
51.246393
 31
0.0
  0
LINE
  5
2B5
100
AcDbEntity
  8
0
 62
     0
100
AcDbLine
 10
-1.290333
 20
50.323725
 30
0.0
 11
-1.165977
 21
50.239846
 31
0.0
  0
LINE
  5
2B6
100
AcDbEntity
  8
0
 62
     0
100
AcDbLine
 10
0.201935
 20
49.317178
 30
0.0
 11
0.32629
 21
49.233299
 31
0.0
  0
LINE
  5
2B7
100
AcDbEntity
  8
0
 62
     0
100
AcDbLine
 10
1.694202
 20
48.31063
 30
0.0
 11
1.818558
 21
48.226751
 31
0.0
  0
LINE
  5
2B8
100
AcDbEntity
  8
0
 62
     0
100
AcDbLine
 10
-5.158848
 20
55.156242
 30
0.0
 11
-5.034492
 21
55.072363
 31
0.0
  0
LINE
  5
2B9
100
AcDbEntity
  8
0
 62
     0
100
AcDbLine
 10
-3.66658
 20
54.149694
 30
0.0
 11
-3.542224
 21
54.065815
 31
0.0
  0
LINE
  5
2BA
100
AcDbEntity
  8
0
 62
     0
100
AcDbLine
 10
-2.174312
 20
53.143147
 30
0.0
 11
-2.049957
 21
53.059268
 31
0.0
  0
LINE
  5
2BB
100
AcDbEntity
  8
0
 62
     0
100
AcDbLine
 10
-0.682045
 20
52.1366
 30
0.0
 11
-0.557689
 21
52.052721
 31
0.0
  0
LINE
  5
2BC
100
AcDbEntity
  8
0
 62
     0
100
AcDbLine
 10
2.302491
 20
50.123505
 30
0.0
 11
2.426846
 21
50.039626
 31
0.0
  0
LINE
  5
2BD
100
AcDbEntity
  8
0
 62
     0
100
AcDbLine
 10
-6.042827
 20
57.975664
 30
0.0
 11
-5.918471
 21
57.891785
 31
0.0
  0
LINE
  5
2BE
100
AcDbEntity
  8
0
 62
     0
100
AcDbLine
 10
-4.550559
 20
56.969117
 30
0.0
 11
-4.426204
 21
56.885238
 31
0.0
  0
LINE
  5
2BF
100
AcDbEntity
  8
0
 62
     0
100
AcDbLine
 10
-3.058292
 20
55.962569
 30
0.0
 11
-2.933936
 21
55.87869
 31
0.0
  0
LINE
  5
2C0
100
AcDbEntity
  8
0
 62
     0
100
AcDbLine
 10
-1.566024
 20
54.956022
 30
0.0
 11
-1.441668
 21
54.872143
 31
0.0
  0
LINE
  5
2C1
100
AcDbEntity
  8
0
 62
     0
100
AcDbLine
 10
-5.434539
 20
59.788539
 30
0.0
 11
-5.310183
 21
59.70466
 31
0.0
  0
LINE
  5
2C2
100
AcDbEntity
  8
0
 62
     0
100
AcDbLine
 10
-3.942271
 20
58.781992
 30
0.0
 11
-3.817915
 21
58.698113
 31
0.0
  0
LINE
  5
2C3
100
AcDbEntity
  8
0
 62
     0
100
AcDbLine
 10
-2.450003
 20
57.775445
 30
0.0
 11
-2.325648
 21
57.691566
 31
0.0
  0
LINE
  5
2C4
100
AcDbEntity
  8
0
 62
     0
100
AcDbLine
 10
-0.957736
 20
56.768897
 30
0.0
 11
-0.83338
 21
56.685018
 31
0.0
  0
LINE
  5
2C5
100
AcDbEntity
  8
0
 62
     0
100
AcDbLine
 10
-4.82625
 20
61.601414
 30
0.0
 11
-4.701895
 21
61.517535
 31
0.0
  0
LINE
  5
2C6
100
AcDbEntity
  8
0
 62
     0
100
AcDbLine
 10
-3.333983
 20
60.594867
 30
0.0
 11
-3.209627
 21
60.510988
 31
0.0
  0
LINE
  5
2C7
100
AcDbEntity
  8
0
 62
     0
100
AcDbLine
 10
-1.841715
 20
59.58832
 30
0.0
 11
-1.717359
 21
59.504441
 31
0.0
  0
LINE
  5
2C8
100
AcDbEntity
  8
0
 62
     0
100
AcDbLine
 10
-0.349447
 20
58.581772
 30
0.0
 11
-0.225092
 21
58.497893
 31
0.0
  0
LINE
  5
2C9
100
AcDbEntity
  8
0
 62
     0
100
AcDbLine
 10
-4.217962
 20
63.414289
 30
0.0
 11
-4.093606
 21
63.33041
 31
0.0
  0
LINE
  5
2CA
100
AcDbEntity
  8
0
 62
     0
100
AcDbLine
 10
-2.725694
 20
62.407742
 30
0.0
 11
-2.601339
 21
62.323863
 31
0.0
  0
LINE
  5
2CB
100
AcDbEntity
  8
0
 62
     0
100
AcDbLine
 10
-1.233427
 20
61.401195
 30
0.0
 11
-1.109071
 21
61.317316
 31
0.0
  0
LINE
  5
2CC
100
AcDbEntity
  8
0
 62
     0
100
AcDbLine
 10
-6.099733
 20
46.898194
 30
0.0
 11
-5.975378
 21
46.814315
 31
0.0
  0
LINE
  5
2CD
100
AcDbEntity
  8
0
 62
     0
100
AcDbLine
 10
-4.607466
 20
45.891647
 30
0.0
 11
-4.48311
 21
45.807768
 31
0.0
  0
LINE
  5
2CE
100
AcDbEntity
  8
0
 62
     0
100
AcDbLine
 10
-3.115198
 20
44.885099
 30
0.0
 11
-2.990842
 21
44.80122
 31
0.0
  0
LINE
  5
2CF
100
AcDbEntity
  8
0
 62
     0
100
AcDbLine
 10
-1.62293
 20
43.878552
 30
0.0
 11
-1.498575
 21
43.794673
 31
0.0
  0
LINE
  5
2D0
100
AcDbEntity
  8
0
 62
     0
100
AcDbLine
 10
-5.215754
 20
44.078772
 30
0.0
 11
-5.091398
 21
43.994893
 31
0.0
  0
LINE
  5
2D1
100
AcDbEntity
  8
0
 62
     0
100
AcDbLine
 10
-3.723486
 20
43.072224
 30
0.0
 11
-3.599131
 21
42.988345
 31
0.0
  0
LINE
  5
2D2
100
AcDbEntity
  8
0
 62
     0
100
AcDbLine
 10
-2.231219
 20
42.065677
 30
0.0
 11
-2.106863
 21
41.981798
 31
0.0
  0
LINE
  5
2D3
100
AcDbEntity
  8
0
 62
     0
100
AcDbLine
 10
-0.738951
 20
41.05913
 30
0.0
 11
-0.614595
 21
40.975251
 31
0.0
  0
LINE
  5
2D4
100
AcDbEntity
  8
0
 62
     0
100
AcDbLine
 10
-5.824042
 20
42.265896
 30
0.0
 11
-5.699687
 21
42.182017
 31
0.0
  0
LINE
  5
2D5
100
AcDbEntity
  8
0
 62
     0
100
AcDbLine
 10
-4.331775
 20
41.259349
 30
0.0
 11
-4.207419
 21
41.17547
 31
0.0
  0
LINE
  5
2D6
100
AcDbEntity
  8
0
 62
     0
100
AcDbLine
 10
-2.839507
 20
40.252802
 30
0.0
 11
-2.715151
 21
40.168923
 31
0.0
  0
LINE
  5
2D7
100
AcDbEntity
  8
0
 62
     0
100
AcDbLine
 10
-1.347239
 20
39.246255
 30
0.0
 11
-1.222884
 21
39.162376
 31
0.0
  0
LINE
  5
2D8
100
AcDbEntity
  8
0
 62
     0
100
AcDbLine
 10
-4.940063
 20
39.446474
 30
0.0
 11
-4.815707
 21
39.362595
 31
0.0
  0
LINE
  5
2D9
100
AcDbEntity
  8
0
 62
     0
100
AcDbLine
 10
-3.447795
 20
38.439927
 30
0.0
 11
-3.32344
 21
38.356048
 31
0.0
  0
LINE
  5
2DA
100
AcDbEntity
  8
0
 62
     0
100
AcDbLine
 10
-1.955528
 20
37.43338
 30
0.0
 11
-1.831172
 21
37.349501
 31
0.0
  0
LINE
  5
2DB
100
AcDbEntity
  8
0
 62
     0
100
AcDbLine
 10
-0.46326
 20
36.426832
 30
0.0
 11
-0.338905
 21
36.342953
 31
0.0
  0
LINE
  5
2DC
100
AcDbEntity
  8
0
 62
     0
100
AcDbLine
 10
-5.548351
 20
37.633599
 30
0.0
 11
-5.423996
 21
37.54972
 31
0.0
  0
LINE
  5
2DD
100
AcDbEntity
  8
0
 62
     0
100
AcDbLine
 10
-4.056084
 20
36.627052
 30
0.0
 11
-3.931728
 21
36.543173
 31
0.0
  0
LINE
  5
2DE
100
AcDbEntity
  8
0
 62
     0
100
AcDbLine
 10
-2.563816
 20
35.620504
 30
0.0
 11
-2.43946
 21
35.536626
 31
0.0
  0
LINE
  5
2DF
100
AcDbEntity
  8
0
 62
     0
100
AcDbLine
 10
-1.071548
 20
34.613957
 30
0.0
 11
-0.947193
 21
34.530078
 31
0.0
  0
LINE
  5
2E0
100
AcDbEntity
  8
0
 62
     0
100
AcDbLine
 10
-6.15664
 20
35.820724
 30
0.0
 11
-6.032284
 21
35.736845
 31
0.0
  0
LINE
  5
2E1
100
AcDbEntity
  8
0
 62
     0
100
AcDbLine
 10
-4.664372
 20
34.814177
 30
0.0
 11
-4.540016
 21
34.730298
 31
0.0
  0
LINE
  5
2E2
100
AcDbEntity
  8
0
 62
     0
100
AcDbLine
 10
-3.172104
 20
33.807629
 30
0.0
 11
-3.047749
 21
33.72375
 31
0.0
  0
LINE
  5
2E3
100
AcDbEntity
  8
0
 62
     0
100
AcDbLine
 10
-1.679837
 20
32.801082
 30
0.0
 11
-1.678387
 21
32.800104
 31
0.0
  0
LINE
  5
2E4
100
AcDbEntity
  8
0
 62
     0
100
AcDbLine
 10
-4.539989
 20
34.730301
 30
0.0
 11
-4.489299
 21
34.881374
 31
0.0
  0
LINE
  5
2E5
100
AcDbEntity
  8
0
 62
     0
100
AcDbLine
 10
-3.9317
 20
36.543176
 30
0.0
 11
-3.881009
 21
36.694249
 31
0.0
  0
LINE
  5
2E6
100
AcDbEntity
  8
0
 62
     0
100
AcDbLine
 10
-3.32341
 20
38.356051
 30
0.0
 11
-3.272719
 21
38.507124
 31
0.0
  0
LINE
  5
2E7
100
AcDbEntity
  8
0
 62
     0
100
AcDbLine
 10
-2.71512
 20
40.168925
 30
0.0
 11
-2.664429
 21
40.319998
 31
0.0
  0
LINE
  5
2E8
100
AcDbEntity
  8
0
 62
     0
100
AcDbLine
 10
-2.10683
 20
41.9818
 30
0.0
 11
-2.05614
 21
42.132873
 31
0.0
  0
LINE
  5
2E9
100
AcDbEntity
  8
0
 62
     0
100
AcDbLine
 10
-1.498541
 20
43.794675
 30
0.0
 11
-1.44785
 21
43.945747
 31
0.0
  0
LINE
  5
2EA
100
AcDbEntity
  8
0
 62
     0
100
AcDbLine
 10
-0.890251
 20
45.607549
 30
0.0
 11
-0.83956
 21
45.758622
 31
0.0
  0
LINE
  5
2EB
100
AcDbEntity
  8
0
 62
     0
100
AcDbLine
 10
-0.281961
 20
47.420424
 30
0.0
 11
-0.23127
 21
47.571497
 31
0.0
  0
LINE
  5
2EC
100
AcDbEntity
  8
0
 62
     0
100
AcDbLine
 10
0.326328
 20
49.233298
 30
0.0
 11
0.377019
 21
49.384371
 31
0.0
  0
LINE
  5
2ED
100
AcDbEntity
  8
0
 62
     0
100
AcDbLine
 10
-3.047723
 20
33.723753
 30
0.0
 11
-2.997032
 21
33.874826
 31
0.0
  0
LINE
  5
2EE
100
AcDbEntity
  8
0
 62
     0
100
AcDbLine
 10
-2.439433
 20
35.536628
 30
0.0
 11
-2.388742
 21
35.687701
 31
0.0
  0
LINE
  5
2EF
100
AcDbEntity
  8
0
 62
     0
100
AcDbLine
 10
-1.831143
 20
37.349502
 30
0.0
 11
-1.780452
 21
37.500575
 31
0.0
  0
LINE
  5
2F0
100
AcDbEntity
  8
0
 62
     0
100
AcDbLine
 10
-1.222853
 20
39.162377
 30
0.0
 11
-1.172163
 21
39.31345
 31
0.0
  0
LINE
  5
2F1
100
AcDbEntity
  8
0
 62
     0
100
AcDbLine
 10
-0.614564
 20
40.975252
 30
0.0
 11
-0.563873
 21
41.126324
 31
0.0
  0
LINE
  5
2F2
100
AcDbEntity
  8
0
 62
     0
100
AcDbLine
 10
0.648814
 20
44.740473
 30
0.0
 11
0.652707
 21
44.752074
 31
0.0
  0
LINE
  5
2F3
100
AcDbEntity
  8
0
 62
     0
100
AcDbLine
 10
1.210306
 20
46.413875
 30
0.0
 11
1.260996
 21
46.564948
 31
0.0
  0
LINE
  5
2F4
100
AcDbEntity
  8
0
 62
     0
100
AcDbLine
 10
1.818595
 20
48.22675
 30
0.0
 11
1.869286
 21
48.377823
 31
0.0
  0
LINE
  5
2F5
100
AcDbEntity
  8
0
 62
     0
100
AcDbLine
 10
2.426885
 20
50.039625
 30
0.0
 11
2.477576
 21
50.190698
 31
0.0
  0
LINE
  5
2F6
100
AcDbEntity
  8
0
 62
     0
100
AcDbLine
 10
2.702572
 20
45.407327
 30
0.0
 11
2.753263
 21
45.5584
 31
0.0
  0
LINE
  5
2F7
100
AcDbEntity
  8
0
 62
     0
100
AcDbLine
 10
-0.947166
 20
34.530079
 30
0.0
 11
-0.896475
 21
34.681152
 31
0.0
  0
LINE
  5
2F8
100
AcDbEntity
  8
0
 62
     0
100
AcDbLine
 10
-0.338876
 20
36.342954
 30
0.0
 11
-0.288186
 21
36.494027
 31
0.0
  0
LINE
  5
2F9
100
AcDbEntity
  8
0
 62
     0
100
AcDbLine
 10
-6.032256
 20
35.73685
 30
0.0
 11
-5.981565
 21
35.887923
 31
0.0
  0
LINE
  5
2FA
100
AcDbEntity
  8
0
 62
     0
100
AcDbLine
 10
-5.423967
 20
37.549724
 30
0.0
 11
-5.373276
 21
37.700797
 31
0.0
  0
LINE
  5
2FB
100
AcDbEntity
  8
0
 62
     0
100
AcDbLine
 10
-4.815677
 20
39.362599
 30
0.0
 11
-4.764986
 21
39.513672
 31
0.0
  0
LINE
  5
2FC
100
AcDbEntity
  8
0
 62
     0
100
AcDbLine
 10
-4.207387
 20
41.175474
 30
0.0
 11
-4.156696
 21
41.326547
 31
0.0
  0
LINE
  5
2FD
100
AcDbEntity
  8
0
 62
     0
100
AcDbLine
 10
-3.599097
 20
42.988348
 30
0.0
 11
-3.548407
 21
43.139421
 31
0.0
  0
LINE
  5
2FE
100
AcDbEntity
  8
0
 62
     0
100
AcDbLine
 10
-2.990808
 20
44.801223
 30
0.0
 11
-2.940117
 21
44.952296
 31
0.0
  0
LINE
  5
2FF
100
AcDbEntity
  8
0
 62
     0
100
AcDbLine
 10
-2.382518
 20
46.614098
 30
0.0
 11
-2.331827
 21
46.76517
 31
0.0
  0
LINE
  5
300
100
AcDbEntity
  8
0
 62
     0
100
AcDbLine
 10
-1.774228
 20
48.426972
 30
0.0
 11
-1.723537
 21
48.578045
 31
0.0
  0
LINE
  5
301
100
AcDbEntity
  8
0
 62
     0
100
AcDbLine
 10
-1.165938
 20
50.239847
 30
0.0
 11
-1.115248
 21
50.39092
 31
0.0
  0
LINE
  5
302
100
AcDbEntity
  8
0
 62
     0
100
AcDbLine
 10
-0.557649
 20
52.052721
 30
0.0
 11
-0.506958
 21
52.203794
 31
0.0
  0
LINE
  5
303
100
AcDbEntity
  8
0
 62
     0
100
AcDbLine
 10
-5.699654
 20
42.182022
 30
0.0
 11
-5.648963
 21
42.333095
 31
0.0
  0
LINE
  5
304
100
AcDbEntity
  8
0
 62
     0
100
AcDbLine
 10
-5.091364
 20
43.994897
 30
0.0
 11
-5.040673
 21
44.14597
 31
0.0
  0
LINE
  5
305
100
AcDbEntity
  8
0
 62
     0
100
AcDbLine
 10
-4.483074
 20
45.807771
 30
0.0
 11
-4.432384
 21
45.958844
 31
0.0
  0
LINE
  5
306
100
AcDbEntity
  8
0
 62
     0
100
AcDbLine
 10
-3.874785
 20
47.620646
 30
0.0
 11
-3.824094
 21
47.771719
 31
0.0
  0
LINE
  5
307
100
AcDbEntity
  8
0
 62
     0
100
AcDbLine
 10
-3.266495
 20
49.433521
 30
0.0
 11
-3.215804
 21
49.584593
 31
0.0
  0
LINE
  5
308
100
AcDbEntity
  8
0
 62
     0
100
AcDbLine
 10
-2.658205
 20
51.246395
 30
0.0
 11
-2.607514
 21
51.397468
 31
0.0
  0
LINE
  5
309
100
AcDbEntity
  8
0
 62
     0
100
AcDbLine
 10
-2.049915
 20
53.05927
 30
0.0
 11
-1.999225
 21
53.210343
 31
0.0
  0
LINE
  5
30A
100
AcDbEntity
  8
0
 62
     0
100
AcDbLine
 10
-1.441626
 20
54.872145
 30
0.0
 11
-1.390935
 21
55.023217
 31
0.0
  0
LINE
  5
30B
100
AcDbEntity
  8
0
 62
     0
100
AcDbLine
 10
-0.833336
 20
56.685019
 30
0.0
 11
-0.782645
 21
56.836092
 31
0.0
  0
LINE
  5
30C
100
AcDbEntity
  8
0
 62
     0
100
AcDbLine
 10
-0.225046
 20
58.497894
 30
0.0
 11
-0.174355
 21
58.648967
 31
0.0
  0
LINE
  5
30D
100
AcDbEntity
  8
0
 62
     0
100
AcDbLine
 10
-5.975341
 20
46.81432
 30
0.0
 11
-5.92465
 21
46.965393
 31
0.0
  0
LINE
  5
30E
100
AcDbEntity
  8
0
 62
     0
100
AcDbLine
 10
-5.367051
 20
48.627194
 30
0.0
 11
-5.316361
 21
48.778267
 31
0.0
  0
LINE
  5
30F
100
AcDbEntity
  8
0
 62
     0
100
AcDbLine
 10
-4.758762
 20
50.440069
 30
0.0
 11
-4.708071
 21
50.591142
 31
0.0
  0
LINE
  5
310
100
AcDbEntity
  8
0
 62
     0
100
AcDbLine
 10
-4.150472
 20
52.252944
 30
0.0
 11
-4.099781
 21
52.404017
 31
0.0
  0
LINE
  5
311
100
AcDbEntity
  8
0
 62
     0
100
AcDbLine
 10
-3.542182
 20
54.065818
 30
0.0
 11
-3.491491
 21
54.216891
 31
0.0
  0
LINE
  5
312
100
AcDbEntity
  8
0
 62
     0
100
AcDbLine
 10
-2.933893
 20
55.878693
 30
0.0
 11
-2.883202
 21
56.029766
 31
0.0
  0
LINE
  5
313
100
AcDbEntity
  8
0
 62
     0
100
AcDbLine
 10
-2.325603
 20
57.691568
 30
0.0
 11
-2.274912
 21
57.84264
 31
0.0
  0
LINE
  5
314
100
AcDbEntity
  8
0
 62
     0
100
AcDbLine
 10
-1.717313
 20
59.504442
 30
0.0
 11
-1.666622
 21
59.655515
 31
0.0
  0
LINE
  5
315
100
AcDbEntity
  8
0
 62
     0
100
AcDbLine
 10
-1.109023
 20
61.317317
 30
0.0
 11
-1.058332
 21
61.46839
 31
0.0
  0
LINE
  5
316
100
AcDbEntity
  8
0
 62
     0
100
AcDbLine
 10
-5.642739
 20
53.259492
 30
0.0
 11
-5.592048
 21
53.410565
 31
0.0
  0
LINE
  5
317
100
AcDbEntity
  8
0
 62
     0
100
AcDbLine
 10
-5.034449
 20
55.072367
 30
0.0
 11
-4.983758
 21
55.22344
 31
0.0
  0
LINE
  5
318
100
AcDbEntity
  8
0
 62
     0
100
AcDbLine
 10
-4.426159
 20
56.885241
 30
0.0
 11
-4.375469
 21
57.036314
 31
0.0
  0
LINE
  5
319
100
AcDbEntity
  8
0
 62
     0
100
AcDbLine
 10
-3.81787
 20
58.698116
 30
0.0
 11
-3.767179
 21
58.849189
 31
0.0
  0
LINE
  5
31A
100
AcDbEntity
  8
0
 62
     0
100
AcDbLine
 10
-3.20958
 20
60.510991
 30
0.0
 11
-3.158889
 21
60.662063
 31
0.0
  0
LINE
  5
31B
100
AcDbEntity
  8
0
 62
     0
100
AcDbLine
 10
-2.60129
 20
62.323865
 30
0.0
 11
-2.580045
 21
62.387182
 31
0.0
  0
LINE
  5
31C
100
AcDbEntity
  8
0
 62
     0
100
AcDbLine
 10
-5.918426
 20
57.89179
 30
0.0
 11
-5.867735
 21
58.042863
 31
0.0
  0
LINE
  5
31D
100
AcDbEntity
  8
0
 62
     0
100
AcDbLine
 10
-5.310136
 20
59.704664
 30
0.0
 11
-5.259446
 21
59.855737
 31
0.0
  0
LINE
  5
31E
100
AcDbEntity
  8
0
 62
     0
100
AcDbLine
 10
-4.701847
 20
61.517539
 30
0.0
 11
-4.651156
 21
61.668612
 31
0.0
  0
LINE
  5
31F
100
AcDbEntity
  8
0
 62
     0
100
AcDbLine
 10
-4.093557
 20
63.330414
 30
0.0
 11
-4.042866
 21
63.481486
 31
0.0
  0
LINE
  5
320
100
AcDbEntity
  8
0
 62
     0
100
AcDbLine
 10
-6.174226
 20
62.583358
 30
0.0
 11
-6.143423
 21
62.67516
 31
0.0
  0
LINE
  5
321
100
AcDbEntity
  8
0
 62
     0
100
AcDbLine
 10
-6.017671
 20
44.725877
 30
0.0
 11
-6.017671
 21
44.725877
 31
0.0
  0
LINE
  5
322
100
AcDbEntity
  8
0
 62
     0
100
AcDbLine
 10
-4.724505
 20
45.718159
 30
0.0
 11
-4.724505
 21
45.718159
 31
0.0
  0
LINE
  5
323
100
AcDbEntity
  8
0
 62
     0
100
AcDbLine
 10
-3.395638
 20
46.737834
 30
0.0
 11
-3.395638
 21
46.737834
 31
0.0
  0
LINE
  5
324
100
AcDbEntity
  8
0
 62
     0
100
AcDbLine
 10
-2.081646
 20
47.746095
 30
0.0
 11
-2.081646
 21
47.746095
 31
0.0
  0
LINE
  5
325
100
AcDbEntity
  8
0
 62
     0
100
AcDbLine
 10
-0.78848
 20
48.738376
 30
0.0
 11
-0.78848
 21
48.738376
 31
0.0
  0
LINE
  5
326
100
AcDbEntity
  8
0
 62
     0
100
AcDbLine
 10
0.540386
 20
49.758052
 30
0.0
 11
0.540386
 21
49.758052
 31
0.0
  0
LINE
  5
327
100
AcDbEntity
  8
0
 62
     0
100
AcDbLine
 10
-5.987271
 20
45.558112
 30
0.0
 11
-5.987271
 21
45.558112
 31
0.0
  0
LINE
  5
328
100
AcDbEntity
  8
0
 62
     0
100
AcDbLine
 10
-4.694105
 20
46.550393
 30
0.0
 11
-4.694105
 21
46.550393
 31
0.0
  0
LINE
  5
329
100
AcDbEntity
  8
0
 62
     0
100
AcDbLine
 10
-3.365238
 20
47.570069
 30
0.0
 11
-3.365238
 21
47.570069
 31
0.0
  0
LINE
  5
32A
100
AcDbEntity
  8
0
 62
     0
100
AcDbLine
 10
-2.051247
 20
48.57833
 30
0.0
 11
-2.051247
 21
48.57833
 31
0.0
  0
LINE
  5
32B
100
AcDbEntity
  8
0
 62
     0
100
AcDbLine
 10
-0.758081
 20
49.570611
 30
0.0
 11
-0.758081
 21
49.570611
 31
0.0
  0
LINE
  5
32C
100
AcDbEntity
  8
0
 62
     0
100
AcDbLine
 10
0.570786
 20
50.590286
 30
0.0
 11
0.570786
 21
50.590286
 31
0.0
  0
LINE
  5
32D
100
AcDbEntity
  8
0
 62
     0
100
AcDbLine
 10
-5.956871
 20
46.390347
 30
0.0
 11
-5.956871
 21
46.390347
 31
0.0
  0
LINE
  5
32E
100
AcDbEntity
  8
0
 62
     0
100
AcDbLine
 10
-4.663705
 20
47.382628
 30
0.0
 11
-4.663705
 21
47.382628
 31
0.0
  0
LINE
  5
32F
100
AcDbEntity
  8
0
 62
     0
100
AcDbLine
 10
-3.334839
 20
48.402303
 30
0.0
 11
-3.334839
 21
48.402303
 31
0.0
  0
LINE
  5
330
100
AcDbEntity
  8
0
 62
     0
100
AcDbLine
 10
-2.020847
 20
49.410564
 30
0.0
 11
-2.020847
 21
49.410564
 31
0.0
  0
LINE
  5
331
100
AcDbEntity
  8
0
 62
     0
100
AcDbLine
 10
-0.727681
 20
50.402845
 30
0.0
 11
-0.727681
 21
50.402845
 31
0.0
  0
LINE
  5
332
100
AcDbEntity
  8
0
 62
     0
100
AcDbLine
 10
-5.926472
 20
47.222581
 30
0.0
 11
-5.926472
 21
47.222581
 31
0.0
  0
LINE
  5
333
100
AcDbEntity
  8
0
 62
     0
100
AcDbLine
 10
-4.633306
 20
48.214862
 30
0.0
 11
-4.633306
 21
48.214862
 31
0.0
  0
LINE
  5
334
100
AcDbEntity
  8
0
 62
     0
100
AcDbLine
 10
-3.304439
 20
49.234538
 30
0.0
 11
-3.304439
 21
49.234538
 31
0.0
  0
LINE
  5
335
100
AcDbEntity
  8
0
 62
     0
100
AcDbLine
 10
-1.990447
 20
50.242799
 30
0.0
 11
-1.990447
 21
50.242799
 31
0.0
  0
LINE
  5
336
100
AcDbEntity
  8
0
 62
     0
100
AcDbLine
 10
-0.697281
 20
51.23508
 30
0.0
 11
-0.697281
 21
51.23508
 31
0.0
  0
LINE
  5
337
100
AcDbEntity
  8
0
 62
     0
100
AcDbLine
 10
-5.896072
 20
48.054816
 30
0.0
 11
-5.896072
 21
48.054816
 31
0.0
  0
LINE
  5
338
100
AcDbEntity
  8
0
 62
     0
100
AcDbLine
 10
-4.602906
 20
49.047097
 30
0.0
 11
-4.602906
 21
49.047097
 31
0.0
  0
LINE
  5
339
100
AcDbEntity
  8
0
 62
     0
100
AcDbLine
 10
-3.274039
 20
50.066772
 30
0.0
 11
-3.274039
 21
50.066772
 31
0.0
  0
LINE
  5
33A
100
AcDbEntity
  8
0
 62
     0
100
AcDbLine
 10
-1.960048
 20
51.075034
 30
0.0
 11
-1.960048
 21
51.075034
 31
0.0
  0
LINE
  5
33B
100
AcDbEntity
  8
0
 62
     0
100
AcDbLine
 10
-0.666882
 20
52.067315
 30
0.0
 11
-0.666882
 21
52.067315
 31
0.0
  0
LINE
  5
33C
100
AcDbEntity
  8
0
 62
     0
100
AcDbLine
 10
-5.865672
 20
48.887051
 30
0.0
 11
-5.865672
 21
48.887051
 31
0.0
  0
LINE
  5
33D
100
AcDbEntity
  8
0
 62
     0
100
AcDbLine
 10
-4.572506
 20
49.879332
 30
0.0
 11
-4.572506
 21
49.879332
 31
0.0
  0
LINE
  5
33E
100
AcDbEntity
  8
0
 62
     0
100
AcDbLine
 10
-3.24364
 20
50.899007
 30
0.0
 11
-3.24364
 21
50.899007
 31
0.0
  0
LINE
  5
33F
100
AcDbEntity
  8
0
 62
     0
100
AcDbLine
 10
-1.929648
 20
51.907268
 30
0.0
 11
-1.929648
 21
51.907268
 31
0.0
  0
LINE
  5
340
100
AcDbEntity
  8
0
 62
     0
100
AcDbLine
 10
-0.636482
 20
52.899549
 30
0.0
 11
-0.636482
 21
52.899549
 31
0.0
  0
LINE
  5
341
100
AcDbEntity
  8
0
 62
     0
100
AcDbLine
 10
-5.835273
 20
49.719285
 30
0.0
 11
-5.835273
 21
49.719285
 31
0.0
  0
LINE
  5
342
100
AcDbEntity
  8
0
 62
     0
100
AcDbLine
 10
-4.542107
 20
50.711566
 30
0.0
 11
-4.542107
 21
50.711566
 31
0.0
  0
LINE
  5
343
100
AcDbEntity
  8
0
 62
     0
100
AcDbLine
 10
-3.21324
 20
51.731242
 30
0.0
 11
-3.21324
 21
51.731242
 31
0.0
  0
LINE
  5
344
100
AcDbEntity
  8
0
 62
     0
100
AcDbLine
 10
-1.899248
 20
52.739503
 30
0.0
 11
-1.899248
 21
52.739503
 31
0.0
  0
LINE
  5
345
100
AcDbEntity
  8
0
 62
     0
100
AcDbLine
 10
-0.606083
 20
53.731784
 30
0.0
 11
-0.606083
 21
53.731784
 31
0.0
  0
LINE
  5
346
100
AcDbEntity
  8
0
 62
     0
100
AcDbLine
 10
-5.804873
 20
50.55152
 30
0.0
 11
-5.804873
 21
50.55152
 31
0.0
  0
LINE
  5
347
100
AcDbEntity
  8
0
 62
     0
100
AcDbLine
 10
-4.511707
 20
51.543801
 30
0.0
 11
-4.511707
 21
51.543801
 31
0.0
  0
LINE
  5
348
100
AcDbEntity
  8
0
 62
     0
100
AcDbLine
 10
-3.18284
 20
52.563476
 30
0.0
 11
-3.18284
 21
52.563476
 31
0.0
  0
LINE
  5
349
100
AcDbEntity
  8
0
 62
     0
100
AcDbLine
 10
-1.868849
 20
53.571738
 30
0.0
 11
-1.868849
 21
53.571738
 31
0.0
  0
LINE
  5
34A
100
AcDbEntity
  8
0
 62
     0
100
AcDbLine
 10
-0.575683
 20
54.564019
 30
0.0
 11
-0.575683
 21
54.564019
 31
0.0
  0
LINE
  5
34B
100
AcDbEntity
  8
0
 62
     0
100
AcDbLine
 10
-5.774473
 20
51.383755
 30
0.0
 11
-5.774473
 21
51.383755
 31
0.0
  0
LINE
  5
34C
100
AcDbEntity
  8
0
 62
     0
100
AcDbLine
 10
-4.481308
 20
52.376036
 30
0.0
 11
-4.481308
 21
52.376036
 31
0.0
  0
LINE
  5
34D
100
AcDbEntity
  8
0
 62
     0
100
AcDbLine
 10
-3.152441
 20
53.395711
 30
0.0
 11
-3.152441
 21
53.395711
 31
0.0
  0
LINE
  5
34E
100
AcDbEntity
  8
0
 62
     0
100
AcDbLine
 10
-1.838449
 20
54.403972
 30
0.0
 11
-1.838449
 21
54.403972
 31
0.0
  0
LINE
  5
34F
100
AcDbEntity
  8
0
 62
     0
100
AcDbLine
 10
-0.545283
 20
55.396253
 30
0.0
 11
-0.545283
 21
55.396253
 31
0.0
  0
LINE
  5
350
100
AcDbEntity
  8
0
 62
     0
100
AcDbLine
 10
-5.744074
 20
52.215989
 30
0.0
 11
-5.744074
 21
52.215989
 31
0.0
  0
LINE
  5
351
100
AcDbEntity
  8
0
 62
     0
100
AcDbLine
 10
-4.450908
 20
53.20827
 30
0.0
 11
-4.450908
 21
53.20827
 31
0.0
  0
LINE
  5
352
100
AcDbEntity
  8
0
 62
     0
100
AcDbLine
 10
-3.122041
 20
54.227946
 30
0.0
 11
-3.122041
 21
54.227946
 31
0.0
  0
LINE
  5
353
100
AcDbEntity
  8
0
 62
     0
100
AcDbLine
 10
-1.80805
 20
55.236207
 30
0.0
 11
-1.80805
 21
55.236207
 31
0.0
  0
LINE
  5
354
100
AcDbEntity
  8
0
 62
     0
100
AcDbLine
 10
-0.514884
 20
56.228488
 30
0.0
 11
-0.514884
 21
56.228488
 31
0.0
  0
LINE
  5
355
100
AcDbEntity
  8
0
 62
     0
100
AcDbLine
 10
-5.713674
 20
53.048224
 30
0.0
 11
-5.713674
 21
53.048224
 31
0.0
  0
LINE
  5
356
100
AcDbEntity
  8
0
 62
     0
100
AcDbLine
 10
-4.420508
 20
54.040505
 30
0.0
 11
-4.420508
 21
54.040505
 31
0.0
  0
LINE
  5
357
100
AcDbEntity
  8
0
 62
     0
100
AcDbLine
 10
-3.091641
 20
55.06018
 30
0.0
 11
-3.091641
 21
55.06018
 31
0.0
  0
LINE
  5
358
100
AcDbEntity
  8
0
 62
     0
100
AcDbLine
 10
-1.77765
 20
56.068441
 30
0.0
 11
-1.77765
 21
56.068441
 31
0.0
  0
LINE
  5
359
100
AcDbEntity
  8
0
 62
     0
100
AcDbLine
 10
-0.484484
 20
57.060723
 30
0.0
 11
-0.484484
 21
57.060723
 31
0.0
  0
LINE
  5
35A
100
AcDbEntity
  8
0
 62
     0
100
AcDbLine
 10
-5.683275
 20
53.880458
 30
0.0
 11
-5.683275
 21
53.880458
 31
0.0
  0
LINE
  5
35B
100
AcDbEntity
  8
0
 62
     0
100
AcDbLine
 10
-4.390109
 20
54.87274
 30
0.0
 11
-4.390109
 21
54.87274
 31
0.0
  0
LINE
  5
35C
100
AcDbEntity
  8
0
 62
     0
100
AcDbLine
 10
-3.061242
 20
55.892415
 30
0.0
 11
-3.061242
 21
55.892415
 31
0.0
  0
LINE
  5
35D
100
AcDbEntity
  8
0
 62
     0
100
AcDbLine
 10
-1.74725
 20
56.900676
 30
0.0
 11
-1.74725
 21
56.900676
 31
0.0
  0
LINE
  5
35E
100
AcDbEntity
  8
0
 62
     0
100
AcDbLine
 10
-0.454084
 20
57.892957
 30
0.0
 11
-0.454084
 21
57.892957
 31
0.0
  0
LINE
  5
35F
100
AcDbEntity
  8
0
 62
     0
100
AcDbLine
 10
-5.652875
 20
54.712693
 30
0.0
 11
-5.652875
 21
54.712693
 31
0.0
  0
LINE
  5
360
100
AcDbEntity
  8
0
 62
     0
100
AcDbLine
 10
-4.359709
 20
55.704974
 30
0.0
 11
-4.359709
 21
55.704974
 31
0.0
  0
LINE
  5
361
100
AcDbEntity
  8
0
 62
     0
100
AcDbLine
 10
-3.030842
 20
56.72465
 30
0.0
 11
-3.030842
 21
56.72465
 31
0.0
  0
LINE
  5
362
100
AcDbEntity
  8
0
 62
     0
100
AcDbLine
 10
-1.716851
 20
57.732911
 30
0.0
 11
-1.716851
 21
57.732911
 31
0.0
  0
LINE
  5
363
100
AcDbEntity
  8
0
 62
     0
100
AcDbLine
 10
-0.423685
 20
58.725192
 30
0.0
 11
-0.423685
 21
58.725192
 31
0.0
  0
LINE
  5
364
100
AcDbEntity
  8
0
 62
     0
100
AcDbLine
 10
-5.622475
 20
55.544928
 30
0.0
 11
-5.622475
 21
55.544928
 31
0.0
  0
LINE
  5
365
100
AcDbEntity
  8
0
 62
     0
100
AcDbLine
 10
-4.329309
 20
56.537209
 30
0.0
 11
-4.329309
 21
56.537209
 31
0.0
  0
LINE
  5
366
100
AcDbEntity
  8
0
 62
     0
100
AcDbLine
 10
-3.000442
 20
57.556884
 30
0.0
 11
-3.000442
 21
57.556884
 31
0.0
  0
LINE
  5
367
100
AcDbEntity
  8
0
 62
     0
100
AcDbLine
 10
-1.686451
 20
58.565145
 30
0.0
 11
-1.686451
 21
58.565145
 31
0.0
  0
LINE
  5
368
100
AcDbEntity
  8
0
 62
     0
100
AcDbLine
 10
-0.393285
 20
59.557426
 30
0.0
 11
-0.393285
 21
59.557426
 31
0.0
  0
LINE
  5
369
100
AcDbEntity
  8
0
 62
     0
100
AcDbLine
 10
-5.592076
 20
56.377162
 30
0.0
 11
-5.592076
 21
56.377162
 31
0.0
  0
LINE
  5
36A
100
AcDbEntity
  8
0
 62
     0
100
AcDbLine
 10
-4.29891
 20
57.369443
 30
0.0
 11
-4.29891
 21
57.369443
 31
0.0
  0
LINE
  5
36B
100
AcDbEntity
  8
0
 62
     0
100
AcDbLine
 10
-2.970043
 20
58.389119
 30
0.0
 11
-2.970043
 21
58.389119
 31
0.0
  0
LINE
  5
36C
100
AcDbEntity
  8
0
 62
     0
100
AcDbLine
 10
-1.656051
 20
59.39738
 30
0.0
 11
-1.656051
 21
59.39738
 31
0.0
  0
LINE
  5
36D
100
AcDbEntity
  8
0
 62
     0
100
AcDbLine
 10
-0.362885
 20
60.389661
 30
0.0
 11
-0.362885
 21
60.389661
 31
0.0
  0
LINE
  5
36E
100
AcDbEntity
  8
0
 62
     0
100
AcDbLine
 10
-5.561676
 20
57.209397
 30
0.0
 11
-5.561676
 21
57.209397
 31
0.0
  0
LINE
  5
36F
100
AcDbEntity
  8
0
 62
     0
100
AcDbLine
 10
-4.26851
 20
58.201678
 30
0.0
 11
-4.26851
 21
58.201678
 31
0.0
  0
LINE
  5
370
100
AcDbEntity
  8
0
 62
     0
100
AcDbLine
 10
-2.939643
 20
59.221353
 30
0.0
 11
-2.939643
 21
59.221353
 31
0.0
  0
LINE
  5
371
100
AcDbEntity
  8
0
 62
     0
100
AcDbLine
 10
-1.625652
 20
60.229615
 30
0.0
 11
-1.625652
 21
60.229615
 31
0.0
  0
LINE
  5
372
100
AcDbEntity
  8
0
 62
     0
100
AcDbLine
 10
-0.332486
 20
61.221896
 30
0.0
 11
-0.332486
 21
61.221896
 31
0.0
  0
LINE
  5
373
100
AcDbEntity
  8
0
 62
     0
100
AcDbLine
 10
-5.531276
 20
58.041632
 30
0.0
 11
-5.531276
 21
58.041632
 31
0.0
  0
LINE
  5
374
100
AcDbEntity
  8
0
 62
     0
100
AcDbLine
 10
-4.23811
 20
59.033913
 30
0.0
 11
-4.23811
 21
59.033913
 31
0.0
  0
LINE
  5
375
100
AcDbEntity
  8
0
 62
     0
100
AcDbLine
 10
-2.909244
 20
60.053588
 30
0.0
 11
-2.909244
 21
60.053588
 31
0.0
  0
LINE
  5
376
100
AcDbEntity
  8
0
 62
     0
100
AcDbLine
 10
-1.595252
 20
61.061849
 30
0.0
 11
-1.595252
 21
61.061849
 31
0.0
  0
LINE
  5
377
100
AcDbEntity
  8
0
 62
     0
100
AcDbLine
 10
-0.302086
 20
62.05413
 30
0.0
 11
-0.302086
 21
62.05413
 31
0.0
  0
LINE
  5
378
100
AcDbEntity
  8
0
 62
     0
100
AcDbLine
 10
-5.500877
 20
58.873866
 30
0.0
 11
-5.500877
 21
58.873866
 31
0.0
  0
LINE
  5
379
100
AcDbEntity
  8
0
 62
     0
100
AcDbLine
 10
-4.207711
 20
59.866147
 30
0.0
 11
-4.207711
 21
59.866147
 31
0.0
  0
LINE
  5
37A
100
AcDbEntity
  8
0
 62
     0
100
AcDbLine
 10
-2.878844
 20
60.885823
 30
0.0
 11
-2.878844
 21
60.885823
 31
0.0
  0
LINE
  5
37B
100
AcDbEntity
  8
0
 62
     0
100
AcDbLine
 10
-0.271687
 20
62.886365
 30
0.0
 11
-0.271687
 21
62.886365
 31
0.0
  0
LINE
  5
37C
100
AcDbEntity
  8
0
 62
     0
100
AcDbLine
 10
-5.470477
 20
59.706101
 30
0.0
 11
-5.470477
 21
59.706101
 31
0.0
  0
LINE
  5
37D
100
AcDbEntity
  8
0
 62
     0
100
AcDbLine
 10
-4.177311
 20
60.698382
 30
0.0
 11
-4.177311
 21
60.698382
 31
0.0
  0
LINE
  5
37E
100
AcDbEntity
  8
0
 62
     0
100
AcDbLine
 10
-2.848444
 20
61.718057
 30
0.0
 11
-2.848444
 21
61.718057
 31
0.0
  0
LINE
  5
37F
100
AcDbEntity
  8
0
 62
     0
100
AcDbLine
 10
-1.534453
 20
62.726318
 30
0.0
 11
-1.534453
 21
62.726318
 31
0.0
  0
LINE
  5
380
100
AcDbEntity
  8
0
 62
     0
100
AcDbLine
 10
-5.440077
 20
60.538335
 30
0.0
 11
-5.440077
 21
60.538335
 31
0.0
  0
LINE
  5
381
100
AcDbEntity
  8
0
 62
     0
100
AcDbLine
 10
-4.146912
 20
61.530617
 30
0.0
 11
-4.146912
 21
61.530617
 31
0.0
  0
LINE
  5
382
100
AcDbEntity
  8
0
 62
     0
100
AcDbLine
 10
-2.818045
 20
62.550292
 30
0.0
 11
-2.818045
 21
62.550292
 31
0.0
  0
LINE
  5
383
100
AcDbEntity
  8
0
 62
     0
100
AcDbLine
 10
-5.409678
 20
61.37057
 30
0.0
 11
-5.409678
 21
61.37057
 31
0.0
  0
LINE
  5
384
100
AcDbEntity
  8
0
 62
     0
100
AcDbLine
 10
-4.116512
 20
62.362851
 30
0.0
 11
-4.116512
 21
62.362851
 31
0.0
  0
LINE
  5
385
100
AcDbEntity
  8
0
 62
     0
100
AcDbLine
 10
-5.379278
 20
62.202805
 30
0.0
 11
-5.379278
 21
62.202805
 31
0.0
  0
LINE
  5
386
100
AcDbEntity
  8
0
 62
     0
100
AcDbLine
 10
-4.086112
 20
63.195086
 30
0.0
 11
-4.086112
 21
63.195086
 31
0.0
  0
LINE
  5
387
100
AcDbEntity
  8
0
 62
     0
100
AcDbLine
 10
-5.348879
 20
63.035039
 30
0.0
 11
-5.348879
 21
63.035039
 31
0.0
  0
LINE
  5
388
100
AcDbEntity
  8
0
 62
     0
100
AcDbLine
 10
-6.04807
 20
43.893643
 30
0.0
 11
-6.04807
 21
43.893643
 31
0.0
  0
LINE
  5
389
100
AcDbEntity
  8
0
 62
     0
100
AcDbLine
 10
-4.754904
 20
44.885924
 30
0.0
 11
-4.754904
 21
44.885924
 31
0.0
  0
LINE
  5
38A
100
AcDbEntity
  8
0
 62
     0
100
AcDbLine
 10
-3.426037
 20
45.905599
 30
0.0
 11
-3.426037
 21
45.905599
 31
0.0
  0
LINE
  5
38B
100
AcDbEntity
  8
0
 62
     0
100
AcDbLine
 10
-2.112046
 20
46.91386
 30
0.0
 11
-2.112046
 21
46.91386
 31
0.0
  0
LINE
  5
38C
100
AcDbEntity
  8
0
 62
     0
100
AcDbLine
 10
-0.81888
 20
47.906142
 30
0.0
 11
-0.81888
 21
47.906142
 31
0.0
  0
LINE
  5
38D
100
AcDbEntity
  8
0
 62
     0
100
AcDbLine
 10
0.509987
 20
48.925817
 30
0.0
 11
0.509987
 21
48.925817
 31
0.0
  0
LINE
  5
38E
100
AcDbEntity
  8
0
 62
     0
100
AcDbLine
 10
1.823978
 20
49.934078
 30
0.0
 11
1.823978
 21
49.934078
 31
0.0
  0
LINE
  5
38F
100
AcDbEntity
  8
0
 62
     0
100
AcDbLine
 10
-6.07847
 20
43.061408
 30
0.0
 11
-6.07847
 21
43.061408
 31
0.0
  0
LINE
  5
390
100
AcDbEntity
  8
0
 62
     0
100
AcDbLine
 10
-4.785304
 20
44.053689
 30
0.0
 11
-4.785304
 21
44.053689
 31
0.0
  0
LINE
  5
391
100
AcDbEntity
  8
0
 62
     0
100
AcDbLine
 10
-3.456437
 20
45.073365
 30
0.0
 11
-3.456437
 21
45.073365
 31
0.0
  0
LINE
  5
392
100
AcDbEntity
  8
0
 62
     0
100
AcDbLine
 10
-2.142446
 20
46.081626
 30
0.0
 11
-2.142446
 21
46.081626
 31
0.0
  0
LINE
  5
393
100
AcDbEntity
  8
0
 62
     0
100
AcDbLine
 10
-0.84928
 20
47.073907
 30
0.0
 11
-0.84928
 21
47.073907
 31
0.0
  0
LINE
  5
394
100
AcDbEntity
  8
0
 62
     0
100
AcDbLine
 10
0.479587
 20
48.093582
 30
0.0
 11
0.479587
 21
48.093582
 31
0.0
  0
LINE
  5
395
100
AcDbEntity
  8
0
 62
     0
100
AcDbLine
 10
1.793579
 20
49.101843
 30
0.0
 11
1.793579
 21
49.101843
 31
0.0
  0
LINE
  5
396
100
AcDbEntity
  8
0
 62
     0
100
AcDbLine
 10
-6.108869
 20
42.229174
 30
0.0
 11
-6.108869
 21
42.229174
 31
0.0
  0
LINE
  5
397
100
AcDbEntity
  8
0
 62
     0
100
AcDbLine
 10
-4.815704
 20
43.221455
 30
0.0
 11
-4.815704
 21
43.221455
 31
0.0
  0
LINE
  5
398
100
AcDbEntity
  8
0
 62
     0
100
AcDbLine
 10
-3.486837
 20
44.24113
 30
0.0
 11
-3.486837
 21
44.24113
 31
0.0
  0
LINE
  5
399
100
AcDbEntity
  8
0
 62
     0
100
AcDbLine
 10
-2.172845
 20
45.249391
 30
0.0
 11
-2.172845
 21
45.249391
 31
0.0
  0
LINE
  5
39A
100
AcDbEntity
  8
0
 62
     0
100
AcDbLine
 10
-0.879679
 20
46.241672
 30
0.0
 11
-0.879679
 21
46.241672
 31
0.0
  0
LINE
  5
39B
100
AcDbEntity
  8
0
 62
     0
100
AcDbLine
 10
0.449188
 20
47.261348
 30
0.0
 11
0.449188
 21
47.261348
 31
0.0
  0
LINE
  5
39C
100
AcDbEntity
  8
0
 62
     0
100
AcDbLine
 10
1.763179
 20
48.269609
 30
0.0
 11
1.763179
 21
48.269609
 31
0.0
  0
LINE
  5
39D
100
AcDbEntity
  8
0
 62
     0
100
AcDbLine
 10
-6.139269
 20
41.396939
 30
0.0
 11
-6.139269
 21
41.396939
 31
0.0
  0
LINE
  5
39E
100
AcDbEntity
  8
0
 62
     0
100
AcDbLine
 10
-4.846103
 20
42.38922
 30
0.0
 11
-4.846103
 21
42.38922
 31
0.0
  0
LINE
  5
39F
100
AcDbEntity
  8
0
 62
     0
100
AcDbLine
 10
-3.517236
 20
43.408895
 30
0.0
 11
-3.517236
 21
43.408895
 31
0.0
  0
LINE
  5
3A0
100
AcDbEntity
  8
0
 62
     0
100
AcDbLine
 10
-2.203245
 20
44.417157
 30
0.0
 11
-2.203245
 21
44.417157
 31
0.0
  0
LINE
  5
3A1
100
AcDbEntity
  8
0
 62
     0
100
AcDbLine
 10
-0.910079
 20
45.409438
 30
0.0
 11
-0.910079
 21
45.409438
 31
0.0
  0
LINE
  5
3A2
100
AcDbEntity
  8
0
 62
     0
100
AcDbLine
 10
0.418788
 20
46.429113
 30
0.0
 11
0.418788
 21
46.429113
 31
0.0
  0
LINE
  5
3A3
100
AcDbEntity
  8
0
 62
     0
100
AcDbLine
 10
1.732779
 20
47.437374
 30
0.0
 11
1.732779
 21
47.437374
 31
0.0
  0
LINE
  5
3A4
100
AcDbEntity
  8
0
 62
     0
100
AcDbLine
 10
-6.169669
 20
40.564704
 30
0.0
 11
-6.169669
 21
40.564704
 31
0.0
  0
LINE
  5
3A5
100
AcDbEntity
  8
0
 62
     0
100
AcDbLine
 10
-4.876503
 20
41.556985
 30
0.0
 11
-4.876503
 21
41.556985
 31
0.0
  0
LINE
  5
3A6
100
AcDbEntity
  8
0
 62
     0
100
AcDbLine
 10
-3.547636
 20
42.576661
 30
0.0
 11
-3.547636
 21
42.576661
 31
0.0
  0
LINE
  5
3A7
100
AcDbEntity
  8
0
 62
     0
100
AcDbLine
 10
-2.233645
 20
43.584922
 30
0.0
 11
-2.233645
 21
43.584922
 31
0.0
  0
LINE
  5
3A8
100
AcDbEntity
  8
0
 62
     0
100
AcDbLine
 10
-0.940479
 20
44.577203
 30
0.0
 11
-0.940479
 21
44.577203
 31
0.0
  0
LINE
  5
3A9
100
AcDbEntity
  8
0
 62
     0
100
AcDbLine
 10
0.388388
 20
45.596878
 30
0.0
 11
0.388388
 21
45.596878
 31
0.0
  0
LINE
  5
3AA
100
AcDbEntity
  8
0
 62
     0
100
AcDbLine
 10
1.70238
 20
46.60514
 30
0.0
 11
1.70238
 21
46.60514
 31
0.0
  0
LINE
  5
3AB
100
AcDbEntity
  8
0
 62
     0
100
AcDbLine
 10
-4.906902
 20
40.724751
 30
0.0
 11
-4.906902
 21
40.724751
 31
0.0
  0
LINE
  5
3AC
100
AcDbEntity
  8
0
 62
     0
100
AcDbLine
 10
-3.578036
 20
41.744426
 30
0.0
 11
-3.578036
 21
41.744426
 31
0.0
  0
LINE
  5
3AD
100
AcDbEntity
  8
0
 62
     0
100
AcDbLine
 10
-2.264044
 20
42.752687
 30
0.0
 11
-2.264044
 21
42.752687
 31
0.0
  0
LINE
  5
3AE
100
AcDbEntity
  8
0
 62
     0
100
AcDbLine
 10
-0.970878
 20
43.744968
 30
0.0
 11
-0.970878
 21
43.744968
 31
0.0
  0
LINE
  5
3AF
100
AcDbEntity
  8
0
 62
     0
100
AcDbLine
 10
0.357989
 20
44.764644
 30
0.0
 11
0.357989
 21
44.764644
 31
0.0
  0
LINE
  5
3B0
100
AcDbEntity
  8
0
 62
     0
100
AcDbLine
 10
1.67198
 20
45.772905
 30
0.0
 11
1.67198
 21
45.772905
 31
0.0
  0
LINE
  5
3B1
100
AcDbEntity
  8
0
 62
     0
100
AcDbLine
 10
-4.937302
 20
39.892516
 30
0.0
 11
-4.937302
 21
39.892516
 31
0.0
  0
LINE
  5
3B2
100
AcDbEntity
  8
0
 62
     0
100
AcDbLine
 10
-3.608435
 20
40.912192
 30
0.0
 11
-3.608435
 21
40.912192
 31
0.0
  0
LINE
  5
3B3
100
AcDbEntity
  8
0
 62
     0
100
AcDbLine
 10
-2.294444
 20
41.920453
 30
0.0
 11
-2.294444
 21
41.920453
 31
0.0
  0
LINE
  5
3B4
100
AcDbEntity
  8
0
 62
     0
100
AcDbLine
 10
-1.001278
 20
42.912734
 30
0.0
 11
-1.001278
 21
42.912734
 31
0.0
  0
LINE
  5
3B5
100
AcDbEntity
  8
0
 62
     0
100
AcDbLine
 10
1.64158
 20
44.94067
 30
0.0
 11
1.64158
 21
44.94067
 31
0.0
  0
LINE
  5
3B6
100
AcDbEntity
  8
0
 62
     0
100
AcDbLine
 10
-4.967702
 20
39.060281
 30
0.0
 11
-4.967702
 21
39.060281
 31
0.0
  0
LINE
  5
3B7
100
AcDbEntity
  8
0
 62
     0
100
AcDbLine
 10
-3.638835
 20
40.079957
 30
0.0
 11
-3.638835
 21
40.079957
 31
0.0
  0
LINE
  5
3B8
100
AcDbEntity
  8
0
 62
     0
100
AcDbLine
 10
-2.324843
 20
41.088218
 30
0.0
 11
-2.324843
 21
41.088218
 31
0.0
  0
LINE
  5
3B9
100
AcDbEntity
  8
0
 62
     0
100
AcDbLine
 10
-1.031677
 20
42.080499
 30
0.0
 11
-1.031677
 21
42.080499
 31
0.0
  0
LINE
  5
3BA
100
AcDbEntity
  8
0
 62
     0
100
AcDbLine
 10
-4.998101
 20
38.228047
 30
0.0
 11
-4.998101
 21
38.228047
 31
0.0
  0
LINE
  5
3BB
100
AcDbEntity
  8
0
 62
     0
100
AcDbLine
 10
-3.669235
 20
39.247722
 30
0.0
 11
-3.669235
 21
39.247722
 31
0.0
  0
LINE
  5
3BC
100
AcDbEntity
  8
0
 62
     0
100
AcDbLine
 10
-2.355243
 20
40.255983
 30
0.0
 11
-2.355243
 21
40.255983
 31
0.0
  0
LINE
  5
3BD
100
AcDbEntity
  8
0
 62
     0
100
AcDbLine
 10
-1.062077
 20
41.248264
 30
0.0
 11
-1.062077
 21
41.248264
 31
0.0
  0
LINE
  5
3BE
100
AcDbEntity
  8
0
 62
     0
100
AcDbLine
 10
-5.028501
 20
37.395812
 30
0.0
 11
-5.028501
 21
37.395812
 31
0.0
  0
LINE
  5
3BF
100
AcDbEntity
  8
0
 62
     0
100
AcDbLine
 10
-3.699634
 20
38.415488
 30
0.0
 11
-3.699634
 21
38.415488
 31
0.0
  0
LINE
  5
3C0
100
AcDbEntity
  8
0
 62
     0
100
AcDbLine
 10
-2.385643
 20
39.423749
 30
0.0
 11
-2.385643
 21
39.423749
 31
0.0
  0
LINE
  5
3C1
100
AcDbEntity
  8
0
 62
     0
100
AcDbLine
 10
-1.092477
 20
40.41603
 30
0.0
 11
-1.092477
 21
40.41603
 31
0.0
  0
LINE
  5
3C2
100
AcDbEntity
  8
0
 62
     0
100
AcDbLine
 10
-5.058901
 20
36.563578
 30
0.0
 11
-5.058901
 21
36.563578
 31
0.0
  0
LINE
  5
3C3
100
AcDbEntity
  8
0
 62
     0
100
AcDbLine
 10
-3.730034
 20
37.583253
 30
0.0
 11
-3.730034
 21
37.583253
 31
0.0
  0
LINE
  5
3C4
100
AcDbEntity
  8
0
 62
     0
100
AcDbLine
 10
-2.416042
 20
38.591514
 30
0.0
 11
-2.416042
 21
38.591514
 31
0.0
  0
LINE
  5
3C5
100
AcDbEntity
  8
0
 62
     0
100
AcDbLine
 10
-1.122876
 20
39.583795
 30
0.0
 11
-1.122876
 21
39.583795
 31
0.0
  0
LINE
  5
3C6
100
AcDbEntity
  8
0
 62
     0
100
AcDbLine
 10
-5.0893
 20
35.731343
 30
0.0
 11
-5.0893
 21
35.731343
 31
0.0
  0
LINE
  5
3C7
100
AcDbEntity
  8
0
 62
     0
100
AcDbLine
 10
-3.760433
 20
36.751018
 30
0.0
 11
-3.760433
 21
36.751018
 31
0.0
  0
LINE
  5
3C8
100
AcDbEntity
  8
0
 62
     0
100
AcDbLine
 10
-2.446442
 20
37.759279
 30
0.0
 11
-2.446442
 21
37.759279
 31
0.0
  0
LINE
  5
3C9
100
AcDbEntity
  8
0
 62
     0
100
AcDbLine
 10
-1.153276
 20
38.751561
 30
0.0
 11
-1.153276
 21
38.751561
 31
0.0
  0
LINE
  5
3CA
100
AcDbEntity
  8
0
 62
     0
100
AcDbLine
 10
-3.790833
 20
35.918784
 30
0.0
 11
-3.790833
 21
35.918784
 31
0.0
  0
LINE
  5
3CB
100
AcDbEntity
  8
0
 62
     0
100
AcDbLine
 10
-2.476842
 20
36.927045
 30
0.0
 11
-2.476842
 21
36.927045
 31
0.0
  0
LINE
  5
3CC
100
AcDbEntity
  8
0
 62
     0
100
AcDbLine
 10
-1.183676
 20
37.919326
 30
0.0
 11
-1.183676
 21
37.919326
 31
0.0
  0
LINE
  5
3CD
100
AcDbEntity
  8
0
 62
     0
100
AcDbLine
 10
-5.1501
 20
34.066874
 30
0.0
 11
-5.1501
 21
34.066874
 31
0.0
  0
LINE
  5
3CE
100
AcDbEntity
  8
0
 62
     0
100
AcDbLine
 10
-3.821233
 20
35.086549
 30
0.0
 11
-3.821233
 21
35.086549
 31
0.0
  0
LINE
  5
3CF
100
AcDbEntity
  8
0
 62
     0
100
AcDbLine
 10
-2.507241
 20
36.09481
 30
0.0
 11
-2.507241
 21
36.09481
 31
0.0
  0
LINE
  5
3D0
100
AcDbEntity
  8
0
 62
     0
100
AcDbLine
 10
-1.214075
 20
37.087091
 30
0.0
 11
-1.214075
 21
37.087091
 31
0.0
  0
LINE
  5
3D1
100
AcDbEntity
  8
0
 62
     0
100
AcDbLine
 10
-5.180499
 20
33.234639
 30
0.0
 11
-5.180499
 21
33.234639
 31
0.0
  0
LINE
  5
3D2
100
AcDbEntity
  8
0
 62
     0
100
AcDbLine
 10
-3.851632
 20
34.254314
 30
0.0
 11
-3.851632
 21
34.254314
 31
0.0
  0
LINE
  5
3D3
100
AcDbEntity
  8
0
 62
     0
100
AcDbLine
 10
-2.537641
 20
35.262576
 30
0.0
 11
-2.537641
 21
35.262576
 31
0.0
  0
LINE
  5
3D4
100
AcDbEntity
  8
0
 62
     0
100
AcDbLine
 10
-1.244475
 20
36.254857
 30
0.0
 11
-1.244475
 21
36.254857
 31
0.0
  0
LINE
  5
3D5
100
AcDbEntity
  8
0
 62
     0
100
AcDbLine
 10
-2.568041
 20
34.430341
 30
0.0
 11
-2.568041
 21
34.430341
 31
0.0
  0
LINE
  5
3D6
100
AcDbEntity
  8
0
 62
     0
100
AcDbLine
 10
-1.274875
 20
35.422622
 30
0.0
 11
-1.274875
 21
35.422622
 31
0.0
  0
LINE
  5
3D7
100
AcDbEntity
  8
0
 62
     0
100
AcDbLine
 10
-2.59844
 20
33.598106
 30
0.0
 11
-2.59844
 21
33.598106
 31
0.0
  0
LINE
  5
3D8
100
AcDbEntity
  8
0
 62
     0
100
AcDbLine
 10
-1.305274
 20
34.590387
 30
0.0
 11
-1.305274
 21
34.590387
 31
0.0
  0
LINE
  5
3D9
100
AcDbEntity
  8
0
 62
     0
100
AcDbLine
 10
-2.62884
 20
32.765872
 30
0.0
 11
-2.62884
 21
32.765872
 31
0.0
  0
LINE
  5
3DA
100
AcDbEntity
  8
0
 62
     0
100
AcDbLine
 10
-1.335674
 20
33.758153
 30
0.0
 11
-1.335674
 21
33.758153
 31
0.0
  0
LINE
  5
3DB
100
AcDbEntity
  8
0
 62
     0
100
AcDbLine
 10
-1.426873
 20
31.261449
 30
0.0
 11
-1.426873
 21
31.261449
 31
0.0
  0
LINE
  5
3DC
100
AcDbEntity
  8
0
 62
     0
100
AcDbLine
 10
-6.113506
 20
46.86572
 30
0.0
 11
-6.113506
 21
46.86572
 31
0.0
  0
LINE
  5
3DD
100
AcDbEntity
  8
0
 62
     0
100
AcDbLine
 10
-5.166676
 20
46.990373
 30
0.0
 11
-5.166676
 21
46.990373
 31
0.0
  0
LINE
  5
3DE
100
AcDbEntity
  8
0
 62
     0
100
AcDbLine
 10
-3.5878
 20
47.198236
 30
0.0
 11
-3.5878
 21
47.198236
 31
0.0
  0
LINE
  5
3DF
100
AcDbEntity
  8
0
 62
     0
100
AcDbLine
 10
-2.961951
 20
47.28063
 30
0.0
 11
-2.961951
 21
47.28063
 31
0.0
  0
LINE
  5
3E0
100
AcDbEntity
  8
0
 62
     0
100
AcDbLine
 10
-2.015121
 20
47.405283
 30
0.0
 11
-2.015121
 21
47.405283
 31
0.0
  0
LINE
  5
3E1
100
AcDbEntity
  8
0
 62
     0
100
AcDbLine
 10
-0.436245
 20
47.613146
 30
0.0
 11
-0.436245
 21
47.613146
 31
0.0
  0
LINE
  5
3E2
100
AcDbEntity
  8
0
 62
     0
100
AcDbLine
 10
0.189605
 20
47.69554
 30
0.0
 11
0.189605
 21
47.69554
 31
0.0
  0
LINE
  5
3E3
100
AcDbEntity
  8
0
 62
     0
100
AcDbLine
 10
1.136435
 20
47.820193
 30
0.0
 11
1.136435
 21
47.820193
 31
0.0
  0
LINE
  5
3E4
100
AcDbEntity
  8
0
 62
     0
100
AcDbLine
 10
2.715311
 20
48.028056
 30
0.0
 11
2.715311
 21
48.028056
 31
0.0
  0
LINE
  5
3E5
100
AcDbEntity
  8
0
 62
     0
100
AcDbLine
 10
-6.081682
 20
47.769355
 30
0.0
 11
-6.081682
 21
47.769355
 31
0.0
  0
LINE
  5
3E6
100
AcDbEntity
  8
0
 62
     0
100
AcDbLine
 10
-5.455832
 20
47.851749
 30
0.0
 11
-5.455832
 21
47.851749
 31
0.0
  0
LINE
  5
3E7
100
AcDbEntity
  8
0
 62
     0
100
AcDbLine
 10
-4.509002
 20
47.976402
 30
0.0
 11
-4.509002
 21
47.976402
 31
0.0
  0
LINE
  5
3E8
100
AcDbEntity
  8
0
 62
     0
100
AcDbLine
 10
-2.930126
 20
48.184265
 30
0.0
 11
-2.930126
 21
48.184265
 31
0.0
  0
LINE
  5
3E9
100
AcDbEntity
  8
0
 62
     0
100
AcDbLine
 10
-2.304277
 20
48.26666
 30
0.0
 11
-2.304277
 21
48.26666
 31
0.0
  0
LINE
  5
3EA
100
AcDbEntity
  8
0
 62
     0
100
AcDbLine
 10
-1.357447
 20
48.391312
 30
0.0
 11
-1.357447
 21
48.391312
 31
0.0
  0
LINE
  5
3EB
100
AcDbEntity
  8
0
 62
     0
100
AcDbLine
 10
0.221429
 20
48.599175
 30
0.0
 11
0.221429
 21
48.599175
 31
0.0
  0
LINE
  5
3EC
100
AcDbEntity
  8
0
 62
     0
100
AcDbLine
 10
0.847279
 20
48.68157
 30
0.0
 11
0.847279
 21
48.68157
 31
0.0
  0
LINE
  5
3ED
100
AcDbEntity
  8
0
 62
     0
100
AcDbLine
 10
1.794109
 20
48.806222
 30
0.0
 11
1.794109
 21
48.806222
 31
0.0
  0
LINE
  5
3EE
100
AcDbEntity
  8
0
 62
     0
100
AcDbLine
 10
-5.424008
 20
48.755384
 30
0.0
 11
-5.424008
 21
48.755384
 31
0.0
  0
LINE
  5
3EF
100
AcDbEntity
  8
0
 62
     0
100
AcDbLine
 10
-4.798158
 20
48.837779
 30
0.0
 11
-4.798158
 21
48.837779
 31
0.0
  0
LINE
  5
3F0
100
AcDbEntity
  8
0
 62
     0
100
AcDbLine
 10
-3.851328
 20
48.962431
 30
0.0
 11
-3.851328
 21
48.962431
 31
0.0
  0
LINE
  5
3F1
100
AcDbEntity
  8
0
 62
     0
100
AcDbLine
 10
-2.272452
 20
49.170294
 30
0.0
 11
-2.272452
 21
49.170294
 31
0.0
  0
LINE
  5
3F2
100
AcDbEntity
  8
0
 62
     0
100
AcDbLine
 10
-1.646603
 20
49.252689
 30
0.0
 11
-1.646603
 21
49.252689
 31
0.0
  0
LINE
  5
3F3
100
AcDbEntity
  8
0
 62
     0
100
AcDbLine
 10
-0.699773
 20
49.377341
 30
0.0
 11
-0.699773
 21
49.377341
 31
0.0
  0
LINE
  5
3F4
100
AcDbEntity
  8
0
 62
     0
100
AcDbLine
 10
0.879103
 20
49.585204
 30
0.0
 11
0.879103
 21
49.585204
 31
0.0
  0
LINE
  5
3F5
100
AcDbEntity
  8
0
 62
     0
100
AcDbLine
 10
1.504953
 20
49.667599
 30
0.0
 11
1.504953
 21
49.667599
 31
0.0
  0
LINE
  5
3F6
100
AcDbEntity
  8
0
 62
     0
100
AcDbLine
 10
2.451782
 20
49.792251
 30
0.0
 11
2.451782
 21
49.792251
 31
0.0
  0
LINE
  5
3F7
100
AcDbEntity
  8
0
 62
     0
100
AcDbLine
 10
-4.766334
 20
49.741413
 30
0.0
 11
-4.766334
 21
49.741413
 31
0.0
  0
LINE
  5
3F8
100
AcDbEntity
  8
0
 62
     0
100
AcDbLine
 10
-4.140484
 20
49.823808
 30
0.0
 11
-4.140484
 21
49.823808
 31
0.0
  0
LINE
  5
3F9
100
AcDbEntity
  8
0
 62
     0
100
AcDbLine
 10
-3.193655
 20
49.94846
 30
0.0
 11
-3.193655
 21
49.94846
 31
0.0
  0
LINE
  5
3FA
100
AcDbEntity
  8
0
 62
     0
100
AcDbLine
 10
-1.614779
 20
50.156323
 30
0.0
 11
-1.614779
 21
50.156323
 31
0.0
  0
LINE
  5
3FB
100
AcDbEntity
  8
0
 62
     0
100
AcDbLine
 10
-0.988929
 20
50.238718
 30
0.0
 11
-0.988929
 21
50.238718
 31
0.0
  0
LINE
  5
3FC
100
AcDbEntity
  8
0
 62
     0
100
AcDbLine
 10
-0.042099
 20
50.363371
 30
0.0
 11
-0.042099
 21
50.363371
 31
0.0
  0
LINE
  5
3FD
100
AcDbEntity
  8
0
 62
     0
100
AcDbLine
 10
1.536777
 20
50.571234
 30
0.0
 11
1.536777
 21
50.571234
 31
0.0
  0
LINE
  5
3FE
100
AcDbEntity
  8
0
 62
     0
100
AcDbLine
 10
2.162626
 20
50.653628
 30
0.0
 11
2.162626
 21
50.653628
 31
0.0
  0
LINE
  5
3FF
100
AcDbEntity
  8
0
 62
     0
100
AcDbLine
 10
-5.687536
 20
50.51958
 30
0.0
 11
-5.687536
 21
50.51958
 31
0.0
  0
LINE
  5
400
100
AcDbEntity
  8
0
 62
     0
100
AcDbLine
 10
-4.10866
 20
50.727443
 30
0.0
 11
-4.10866
 21
50.727443
 31
0.0
  0
LINE
  5
401
100
AcDbEntity
  8
0
 62
     0
100
AcDbLine
 10
-3.482811
 20
50.809837
 30
0.0
 11
-3.482811
 21
50.809837
 31
0.0
  0
LINE
  5
402
100
AcDbEntity
  8
0
 62
     0
100
AcDbLine
 10
-2.535981
 20
50.93449
 30
0.0
 11
-2.535981
 21
50.93449
 31
0.0
  0
LINE
  5
403
100
AcDbEntity
  8
0
 62
     0
100
AcDbLine
 10
-0.957105
 20
51.142353
 30
0.0
 11
-0.957105
 21
51.142353
 31
0.0
  0
LINE
  5
404
100
AcDbEntity
  8
0
 62
     0
100
AcDbLine
 10
-0.331255
 20
51.224747
 30
0.0
 11
-0.331255
 21
51.224747
 31
0.0
  0
LINE
  5
405
100
AcDbEntity
  8
0
 62
     0
100
AcDbLine
 10
-5.976692
 20
51.380956
 30
0.0
 11
-5.976692
 21
51.380956
 31
0.0
  0
LINE
  5
406
100
AcDbEntity
  8
0
 62
     0
100
AcDbLine
 10
-5.029862
 20
51.505609
 30
0.0
 11
-5.029862
 21
51.505609
 31
0.0
  0
LINE
  5
407
100
AcDbEntity
  8
0
 62
     0
100
AcDbLine
 10
-3.450986
 20
51.713472
 30
0.0
 11
-3.450986
 21
51.713472
 31
0.0
  0
LINE
  5
408
100
AcDbEntity
  8
0
 62
     0
100
AcDbLine
 10
-2.825137
 20
51.795866
 30
0.0
 11
-2.825137
 21
51.795866
 31
0.0
  0
LINE
  5
409
100
AcDbEntity
  8
0
 62
     0
100
AcDbLine
 10
-1.878307
 20
51.920519
 30
0.0
 11
-1.878307
 21
51.920519
 31
0.0
  0
LINE
  5
40A
100
AcDbEntity
  8
0
 62
     0
100
AcDbLine
 10
-0.299431
 20
52.128382
 30
0.0
 11
-0.299431
 21
52.128382
 31
0.0
  0
LINE
  5
40B
100
AcDbEntity
  8
0
 62
     0
100
AcDbLine
 10
-5.944868
 20
52.284591
 30
0.0
 11
-5.944868
 21
52.284591
 31
0.0
  0
LINE
  5
40C
100
AcDbEntity
  8
0
 62
     0
100
AcDbLine
 10
-5.319018
 20
52.366986
 30
0.0
 11
-5.319018
 21
52.366986
 31
0.0
  0
LINE
  5
40D
100
AcDbEntity
  8
0
 62
     0
100
AcDbLine
 10
-4.372188
 20
52.491638
 30
0.0
 11
-4.372188
 21
52.491638
 31
0.0
  0
LINE
  5
40E
100
AcDbEntity
  8
0
 62
     0
100
AcDbLine
 10
-2.793312
 20
52.699501
 30
0.0
 11
-2.793312
 21
52.699501
 31
0.0
  0
LINE
  5
40F
100
AcDbEntity
  8
0
 62
     0
100
AcDbLine
 10
-2.167463
 20
52.781896
 30
0.0
 11
-2.167463
 21
52.781896
 31
0.0
  0
LINE
  5
410
100
AcDbEntity
  8
0
 62
     0
100
AcDbLine
 10
-1.220633
 20
52.906548
 30
0.0
 11
-1.220633
 21
52.906548
 31
0.0
  0
LINE
  5
411
100
AcDbEntity
  8
0
 62
     0
100
AcDbLine
 10
-5.287194
 20
53.27062
 30
0.0
 11
-5.287194
 21
53.27062
 31
0.0
  0
LINE
  5
412
100
AcDbEntity
  8
0
 62
     0
100
AcDbLine
 10
-4.661344
 20
53.353015
 30
0.0
 11
-4.661344
 21
53.353015
 31
0.0
  0
LINE
  5
413
100
AcDbEntity
  8
0
 62
     0
100
AcDbLine
 10
-3.714514
 20
53.477667
 30
0.0
 11
-3.714514
 21
53.477667
 31
0.0
  0
LINE
  5
414
100
AcDbEntity
  8
0
 62
     0
100
AcDbLine
 10
-2.135639
 20
53.68553
 30
0.0
 11
-2.135639
 21
53.68553
 31
0.0
  0
LINE
  5
415
100
AcDbEntity
  8
0
 62
     0
100
AcDbLine
 10
-1.509789
 20
53.767925
 30
0.0
 11
-1.509789
 21
53.767925
 31
0.0
  0
LINE
  5
416
100
AcDbEntity
  8
0
 62
     0
100
AcDbLine
 10
-0.562959
 20
53.892578
 30
0.0
 11
-0.562959
 21
53.892578
 31
0.0
  0
LINE
  5
417
100
AcDbEntity
  8
0
 62
     0
100
AcDbLine
 10
-4.62952
 20
54.25665
 30
0.0
 11
-4.62952
 21
54.25665
 31
0.0
  0
LINE
  5
418
100
AcDbEntity
  8
0
 62
     0
100
AcDbLine
 10
-4.00367
 20
54.339044
 30
0.0
 11
-4.00367
 21
54.339044
 31
0.0
  0
LINE
  5
419
100
AcDbEntity
  8
0
 62
     0
100
AcDbLine
 10
-3.056841
 20
54.463697
 30
0.0
 11
-3.056841
 21
54.463697
 31
0.0
  0
LINE
  5
41A
100
AcDbEntity
  8
0
 62
     0
100
AcDbLine
 10
-1.477965
 20
54.67156
 30
0.0
 11
-1.477965
 21
54.67156
 31
0.0
  0
LINE
  5
41B
100
AcDbEntity
  8
0
 62
     0
100
AcDbLine
 10
-0.852115
 20
54.753954
 30
0.0
 11
-0.852115
 21
54.753954
 31
0.0
  0
LINE
  5
41C
100
AcDbEntity
  8
0
 62
     0
100
AcDbLine
 10
-5.550722
 20
55.034816
 30
0.0
 11
-5.550722
 21
55.034816
 31
0.0
  0
LINE
  5
41D
100
AcDbEntity
  8
0
 62
     0
100
AcDbLine
 10
-3.971846
 20
55.242679
 30
0.0
 11
-3.971846
 21
55.242679
 31
0.0
  0
LINE
  5
41E
100
AcDbEntity
  8
0
 62
     0
100
AcDbLine
 10
-3.345997
 20
55.325073
 30
0.0
 11
-3.345997
 21
55.325073
 31
0.0
  0
LINE
  5
41F
100
AcDbEntity
  8
0
 62
     0
100
AcDbLine
 10
-2.399167
 20
55.449726
 30
0.0
 11
-2.399167
 21
55.449726
 31
0.0
  0
LINE
  5
420
100
AcDbEntity
  8
0
 62
     0
100
AcDbLine
 10
-0.820291
 20
55.657589
 30
0.0
 11
-0.820291
 21
55.657589
 31
0.0
  0
LINE
  5
421
100
AcDbEntity
  8
0
 62
     0
100
AcDbLine
 10
-0.194441
 20
55.739984
 30
0.0
 11
-0.194441
 21
55.739984
 31
0.0
  0
LINE
  5
422
100
AcDbEntity
  8
0
 62
     0
100
AcDbLine
 10
-5.839878
 20
55.896193
 30
0.0
 11
-5.839878
 21
55.896193
 31
0.0
  0
LINE
  5
423
100
AcDbEntity
  8
0
 62
     0
100
AcDbLine
 10
-4.893048
 20
56.020845
 30
0.0
 11
-4.893048
 21
56.020845
 31
0.0
  0
LINE
  5
424
100
AcDbEntity
  8
0
 62
     0
100
AcDbLine
 10
-3.314172
 20
56.228708
 30
0.0
 11
-3.314172
 21
56.228708
 31
0.0
  0
LINE
  5
425
100
AcDbEntity
  8
0
 62
     0
100
AcDbLine
 10
-2.688323
 20
56.311103
 30
0.0
 11
-2.688323
 21
56.311103
 31
0.0
  0
LINE
  5
426
100
AcDbEntity
  8
0
 62
     0
100
AcDbLine
 10
-1.741493
 20
56.435755
 30
0.0
 11
-1.741493
 21
56.435755
 31
0.0
  0
LINE
  5
427
100
AcDbEntity
  8
0
 62
     0
100
AcDbLine
 10
-5.808054
 20
56.799827
 30
0.0
 11
-5.808054
 21
56.799827
 31
0.0
  0
LINE
  5
428
100
AcDbEntity
  8
0
 62
     0
100
AcDbLine
 10
-5.182204
 20
56.882222
 30
0.0
 11
-5.182204
 21
56.882222
 31
0.0
  0
LINE
  5
429
100
AcDbEntity
  8
0
 62
     0
100
AcDbLine
 10
-4.235374
 20
57.006874
 30
0.0
 11
-4.235374
 21
57.006874
 31
0.0
  0
LINE
  5
42A
100
AcDbEntity
  8
0
 62
     0
100
AcDbLine
 10
-2.656499
 20
57.214737
 30
0.0
 11
-2.656499
 21
57.214737
 31
0.0
  0
LINE
  5
42B
100
AcDbEntity
  8
0
 62
     0
100
AcDbLine
 10
-2.030649
 20
57.297132
 30
0.0
 11
-2.030649
 21
57.297132
 31
0.0
  0
LINE
  5
42C
100
AcDbEntity
  8
0
 62
     0
100
AcDbLine
 10
-1.083819
 20
57.421785
 30
0.0
 11
-1.083819
 21
57.421785
 31
0.0
  0
LINE
  5
42D
100
AcDbEntity
  8
0
 62
     0
100
AcDbLine
 10
-5.15038
 20
57.785857
 30
0.0
 11
-5.15038
 21
57.785857
 31
0.0
  0
LINE
  5
42E
100
AcDbEntity
  8
0
 62
     0
100
AcDbLine
 10
-4.52453
 20
57.868251
 30
0.0
 11
-4.52453
 21
57.868251
 31
0.0
  0
LINE
  5
42F
100
AcDbEntity
  8
0
 62
     0
100
AcDbLine
 10
-3.577701
 20
57.992904
 30
0.0
 11
-3.577701
 21
57.992904
 31
0.0
  0
LINE
  5
430
100
AcDbEntity
  8
0
 62
     0
100
AcDbLine
 10
-1.998825
 20
58.200767
 30
0.0
 11
-1.998825
 21
58.200767
 31
0.0
  0
LINE
  5
431
100
AcDbEntity
  8
0
 62
     0
100
AcDbLine
 10
-1.372975
 20
58.283161
 30
0.0
 11
-1.372975
 21
58.283161
 31
0.0
  0
LINE
  5
432
100
AcDbEntity
  8
0
 62
     0
100
AcDbLine
 10
-0.426145
 20
58.407814
 30
0.0
 11
-0.426145
 21
58.407814
 31
0.0
  0
LINE
  5
433
100
AcDbEntity
  8
0
 62
     0
100
AcDbLine
 10
-6.071582
 20
58.564023
 30
0.0
 11
-6.071582
 21
58.564023
 31
0.0
  0
LINE
  5
434
100
AcDbEntity
  8
0
 62
     0
100
AcDbLine
 10
-4.492706
 20
58.771886
 30
0.0
 11
-4.492706
 21
58.771886
 31
0.0
  0
LINE
  5
435
100
AcDbEntity
  8
0
 62
     0
100
AcDbLine
 10
-3.866857
 20
58.85428
 30
0.0
 11
-3.866857
 21
58.85428
 31
0.0
  0
LINE
  5
436
100
AcDbEntity
  8
0
 62
     0
100
AcDbLine
 10
-2.920027
 20
58.978933
 30
0.0
 11
-2.920027
 21
58.978933
 31
0.0
  0
LINE
  5
437
100
AcDbEntity
  8
0
 62
     0
100
AcDbLine
 10
-1.341151
 20
59.186796
 30
0.0
 11
-1.341151
 21
59.186796
 31
0.0
  0
LINE
  5
438
100
AcDbEntity
  8
0
 62
     0
100
AcDbLine
 10
-0.715301
 20
59.269191
 30
0.0
 11
-0.715301
 21
59.269191
 31
0.0
  0
LINE
  5
439
100
AcDbEntity
  8
0
 62
     0
100
AcDbLine
 10
-5.413908
 20
59.550052
 30
0.0
 11
-5.413908
 21
59.550052
 31
0.0
  0
LINE
  5
43A
100
AcDbEntity
  8
0
 62
     0
100
AcDbLine
 10
-3.835032
 20
59.757915
 30
0.0
 11
-3.835032
 21
59.757915
 31
0.0
  0
LINE
  5
43B
100
AcDbEntity
  8
0
 62
     0
100
AcDbLine
 10
-3.209183
 20
59.84031
 30
0.0
 11
-3.209183
 21
59.84031
 31
0.0
  0
LINE
  5
43C
100
AcDbEntity
  8
0
 62
     0
100
AcDbLine
 10
-2.262353
 20
59.964962
 30
0.0
 11
-2.262353
 21
59.964962
 31
0.0
  0
LINE
  5
43D
100
AcDbEntity
  8
0
 62
     0
100
AcDbLine
 10
-0.683477
 20
60.172825
 30
0.0
 11
-0.683477
 21
60.172825
 31
0.0
  0
LINE
  5
43E
100
AcDbEntity
  8
0
 62
     0
100
AcDbLine
 10
-5.703064
 20
60.411429
 30
0.0
 11
-5.703064
 21
60.411429
 31
0.0
  0
LINE
  5
43F
100
AcDbEntity
  8
0
 62
     0
100
AcDbLine
 10
-4.756234
 20
60.536081
 30
0.0
 11
-4.756234
 21
60.536081
 31
0.0
  0
LINE
  5
440
100
AcDbEntity
  8
0
 62
     0
100
AcDbLine
 10
-3.177358
 20
60.743944
 30
0.0
 11
-3.177358
 21
60.743944
 31
0.0
  0
LINE
  5
441
100
AcDbEntity
  8
0
 62
     0
100
AcDbLine
 10
-2.551509
 20
60.826339
 30
0.0
 11
-2.551509
 21
60.826339
 31
0.0
  0
LINE
  5
442
100
AcDbEntity
  8
0
 62
     0
100
AcDbLine
 10
-1.604679
 20
60.950992
 30
0.0
 11
-1.604679
 21
60.950992
 31
0.0
  0
LINE
  5
443
100
AcDbEntity
  8
0
 62
     0
100
AcDbLine
 10
-5.67124
 20
61.315064
 30
0.0
 11
-5.67124
 21
61.315064
 31
0.0
  0
LINE
  5
444
100
AcDbEntity
  8
0
 62
     0
100
AcDbLine
 10
-5.04539
 20
61.397458
 30
0.0
 11
-5.04539
 21
61.397458
 31
0.0
  0
LINE
  5
445
100
AcDbEntity
  8
0
 62
     0
100
AcDbLine
 10
-4.098561
 20
61.522111
 30
0.0
 11
-4.098561
 21
61.522111
 31
0.0
  0
LINE
  5
446
100
AcDbEntity
  8
0
 62
     0
100
AcDbLine
 10
-2.519685
 20
61.729974
 30
0.0
 11
-2.519685
 21
61.729974
 31
0.0
  0
LINE
  5
447
100
AcDbEntity
  8
0
 62
     0
100
AcDbLine
 10
-0.947005
 20
61.937021
 30
0.0
 11
-0.947005
 21
61.937021
 31
0.0
  0
LINE
  5
448
100
AcDbEntity
  8
0
 62
     0
100
AcDbLine
 10
-5.013566
 20
62.301093
 30
0.0
 11
-5.013566
 21
62.301093
 31
0.0
  0
LINE
  5
449
100
AcDbEntity
  8
0
 62
     0
100
AcDbLine
 10
-4.387717
 20
62.383487
 30
0.0
 11
-4.387717
 21
62.383487
 31
0.0
  0
LINE
  5
44A
100
AcDbEntity
  8
0
 62
     0
100
AcDbLine
 10
-3.440887
 20
62.50814
 30
0.0
 11
-3.440887
 21
62.50814
 31
0.0
  0
LINE
  5
44B
100
AcDbEntity
  8
0
 62
     0
100
AcDbLine
 10
-1.236161
 20
62.798398
 30
0.0
 11
-1.236161
 21
62.798398
 31
0.0
  0
LINE
  5
44C
100
AcDbEntity
  8
0
 62
     0
100
AcDbLine
 10
-0.289331
 20
62.92305
 30
0.0
 11
-0.289331
 21
62.92305
 31
0.0
  0
LINE
  5
44D
100
AcDbEntity
  8
0
 62
     0
100
AcDbLine
 10
-5.934768
 20
63.079259
 30
0.0
 11
-5.934768
 21
63.079259
 31
0.0
  0
LINE
  5
44E
100
AcDbEntity
  8
0
 62
     0
100
AcDbLine
 10
-4.355892
 20
63.287122
 30
0.0
 11
-4.355892
 21
63.287122
 31
0.0
  0
LINE
  5
44F
100
AcDbEntity
  8
0
 62
     0
100
AcDbLine
 10
-3.730043
 20
63.369517
 30
0.0
 11
-3.730043
 21
63.369517
 31
0.0
  0
LINE
  5
450
100
AcDbEntity
  8
0
 62
     0
100
AcDbLine
 10
-5.82435
 20
46.004343
 30
0.0
 11
-5.82435
 21
46.004343
 31
0.0
  0
LINE
  5
451
100
AcDbEntity
  8
0
 62
     0
100
AcDbLine
 10
-4.245474
 20
46.212206
 30
0.0
 11
-4.245474
 21
46.212206
 31
0.0
  0
LINE
  5
452
100
AcDbEntity
  8
0
 62
     0
100
AcDbLine
 10
-3.619624
 20
46.294601
 30
0.0
 11
-3.619624
 21
46.294601
 31
0.0
  0
LINE
  5
453
100
AcDbEntity
  8
0
 62
     0
100
AcDbLine
 10
-2.672795
 20
46.419253
 30
0.0
 11
-2.672795
 21
46.419253
 31
0.0
  0
LINE
  5
454
100
AcDbEntity
  8
0
 62
     0
100
AcDbLine
 10
-1.093919
 20
46.627116
 30
0.0
 11
-1.093919
 21
46.627116
 31
0.0
  0
LINE
  5
455
100
AcDbEntity
  8
0
 62
     0
100
AcDbLine
 10
-0.468069
 20
46.709511
 30
0.0
 11
-0.468069
 21
46.709511
 31
0.0
  0
LINE
  5
456
100
AcDbEntity
  8
0
 62
     0
100
AcDbLine
 10
0.478761
 20
46.834164
 30
0.0
 11
0.478761
 21
46.834164
 31
0.0
  0
LINE
  5
457
100
AcDbEntity
  8
0
 62
     0
100
AcDbLine
 10
2.057637
 20
47.042027
 30
0.0
 11
2.057637
 21
47.042027
 31
0.0
  0
LINE
  5
458
100
AcDbEntity
  8
0
 62
     0
100
AcDbLine
 10
2.683486
 20
47.124421
 30
0.0
 11
2.683486
 21
47.124421
 31
0.0
  0
LINE
  5
459
100
AcDbEntity
  8
0
 62
     0
100
AcDbLine
 10
-4.903148
 20
45.226177
 30
0.0
 11
-4.903148
 21
45.226177
 31
0.0
  0
LINE
  5
45A
100
AcDbEntity
  8
0
 62
     0
100
AcDbLine
 10
-4.277298
 20
45.308572
 30
0.0
 11
-4.277298
 21
45.308572
 31
0.0
  0
LINE
  5
45B
100
AcDbEntity
  8
0
 62
     0
100
AcDbLine
 10
-3.330468
 20
45.433224
 30
0.0
 11
-3.330468
 21
45.433224
 31
0.0
  0
LINE
  5
45C
100
AcDbEntity
  8
0
 62
     0
100
AcDbLine
 10
-1.751592
 20
45.641087
 30
0.0
 11
-1.751592
 21
45.641087
 31
0.0
  0
LINE
  5
45D
100
AcDbEntity
  8
0
 62
     0
100
AcDbLine
 10
-1.125743
 20
45.723482
 30
0.0
 11
-1.125743
 21
45.723482
 31
0.0
  0
LINE
  5
45E
100
AcDbEntity
  8
0
 62
     0
100
AcDbLine
 10
-0.178913
 20
45.848134
 30
0.0
 11
-0.178913
 21
45.848134
 31
0.0
  0
LINE
  5
45F
100
AcDbEntity
  8
0
 62
     0
100
AcDbLine
 10
1.399963
 20
46.055997
 30
0.0
 11
1.399963
 21
46.055997
 31
0.0
  0
LINE
  5
460
100
AcDbEntity
  8
0
 62
     0
100
AcDbLine
 10
2.025812
 20
46.138392
 30
0.0
 11
2.025812
 21
46.138392
 31
0.0
  0
LINE
  5
461
100
AcDbEntity
  8
0
 62
     0
100
AcDbLine
 10
-5.560822
 20
44.240148
 30
0.0
 11
-5.560822
 21
44.240148
 31
0.0
  0
LINE
  5
462
100
AcDbEntity
  8
0
 62
     0
100
AcDbLine
 10
-4.934972
 20
44.322542
 30
0.0
 11
-4.934972
 21
44.322542
 31
0.0
  0
LINE
  5
463
100
AcDbEntity
  8
0
 62
     0
100
AcDbLine
 10
-3.988142
 20
44.447195
 30
0.0
 11
-3.988142
 21
44.447195
 31
0.0
  0
LINE
  5
464
100
AcDbEntity
  8
0
 62
     0
100
AcDbLine
 10
-2.409266
 20
44.655058
 30
0.0
 11
-2.409266
 21
44.655058
 31
0.0
  0
LINE
  5
465
100
AcDbEntity
  8
0
 62
     0
100
AcDbLine
 10
-1.783417
 20
44.737453
 30
0.0
 11
-1.783417
 21
44.737453
 31
0.0
  0
LINE
  5
466
100
AcDbEntity
  8
0
 62
     0
100
AcDbLine
 10
-0.836587
 20
44.862105
 30
0.0
 11
-0.836587
 21
44.862105
 31
0.0
  0
LINE
  5
467
100
AcDbEntity
  8
0
 62
     0
100
AcDbLine
 10
0.742289
 20
45.069968
 30
0.0
 11
0.742289
 21
45.069968
 31
0.0
  0
LINE
  5
468
100
AcDbEntity
  8
0
 62
     0
100
AcDbLine
 10
1.368139
 20
45.152363
 30
0.0
 11
1.368139
 21
45.152363
 31
0.0
  0
LINE
  5
469
100
AcDbEntity
  8
0
 62
     0
100
AcDbLine
 10
2.314968
 20
45.277015
 30
0.0
 11
2.314968
 21
45.277015
 31
0.0
  0
LINE
  5
46A
100
AcDbEntity
  8
0
 62
     0
100
AcDbLine
 10
-5.592646
 20
43.336513
 30
0.0
 11
-5.592646
 21
43.336513
 31
0.0
  0
LINE
  5
46B
100
AcDbEntity
  8
0
 62
     0
100
AcDbLine
 10
-4.645816
 20
43.461166
 30
0.0
 11
-4.645816
 21
43.461166
 31
0.0
  0
LINE
  5
46C
100
AcDbEntity
  8
0
 62
     0
100
AcDbLine
 10
-3.06694
 20
43.669029
 30
0.0
 11
-3.06694
 21
43.669029
 31
0.0
  0
LINE
  5
46D
100
AcDbEntity
  8
0
 62
     0
100
AcDbLine
 10
-2.441091
 20
43.751423
 30
0.0
 11
-2.441091
 21
43.751423
 31
0.0
  0
LINE
  5
46E
100
AcDbEntity
  8
0
 62
     0
100
AcDbLine
 10
-1.494261
 20
43.876076
 30
0.0
 11
-1.494261
 21
43.876076
 31
0.0
  0
LINE
  5
46F
100
AcDbEntity
  8
0
 62
     0
100
AcDbLine
 10
-5.30349
 20
42.475136
 30
0.0
 11
-5.30349
 21
42.475136
 31
0.0
  0
LINE
  5
470
100
AcDbEntity
  8
0
 62
     0
100
AcDbLine
 10
-3.724614
 20
42.682999
 30
0.0
 11
-3.724614
 21
42.682999
 31
0.0
  0
LINE
  5
471
100
AcDbEntity
  8
0
 62
     0
100
AcDbLine
 10
-3.098764
 20
42.765394
 30
0.0
 11
-3.098764
 21
42.765394
 31
0.0
  0
LINE
  5
472
100
AcDbEntity
  8
0
 62
     0
100
AcDbLine
 10
-2.151935
 20
42.890046
 30
0.0
 11
-2.151935
 21
42.890046
 31
0.0
  0
LINE
  5
473
100
AcDbEntity
  8
0
 62
     0
100
AcDbLine
 10
-0.573059
 20
43.097909
 30
0.0
 11
-0.573059
 21
43.097909
 31
0.0
  0
LINE
  5
474
100
AcDbEntity
  8
0
 62
     0
100
AcDbLine
 10
-5.961164
 20
41.489107
 30
0.0
 11
-5.961164
 21
41.489107
 31
0.0
  0
LINE
  5
475
100
AcDbEntity
  8
0
 62
     0
100
AcDbLine
 10
-4.382288
 20
41.69697
 30
0.0
 11
-4.382288
 21
41.69697
 31
0.0
  0
LINE
  5
476
100
AcDbEntity
  8
0
 62
     0
100
AcDbLine
 10
-3.756438
 20
41.779365
 30
0.0
 11
-3.756438
 21
41.779365
 31
0.0
  0
LINE
  5
477
100
AcDbEntity
  8
0
 62
     0
100
AcDbLine
 10
-2.809608
 20
41.904017
 30
0.0
 11
-2.809608
 21
41.904017
 31
0.0
  0
LINE
  5
478
100
AcDbEntity
  8
0
 62
     0
100
AcDbLine
 10
-1.230732
 20
42.11188
 30
0.0
 11
-1.230732
 21
42.11188
 31
0.0
  0
LINE
  5
479
100
AcDbEntity
  8
0
 62
     0
100
AcDbLine
 10
-0.604883
 20
42.194275
 30
0.0
 11
-0.604883
 21
42.194275
 31
0.0
  0
LINE
  5
47A
100
AcDbEntity
  8
0
 62
     0
100
AcDbLine
 10
-5.039962
 20
40.710941
 30
0.0
 11
-5.039962
 21
40.710941
 31
0.0
  0
LINE
  5
47B
100
AcDbEntity
  8
0
 62
     0
100
AcDbLine
 10
-4.414112
 20
40.793335
 30
0.0
 11
-4.414112
 21
40.793335
 31
0.0
  0
LINE
  5
47C
100
AcDbEntity
  8
0
 62
     0
100
AcDbLine
 10
-3.467282
 20
40.917988
 30
0.0
 11
-3.467282
 21
40.917988
 31
0.0
  0
LINE
  5
47D
100
AcDbEntity
  8
0
 62
     0
100
AcDbLine
 10
-1.888406
 20
41.125851
 30
0.0
 11
-1.888406
 21
41.125851
 31
0.0
  0
LINE
  5
47E
100
AcDbEntity
  8
0
 62
     0
100
AcDbLine
 10
-1.262557
 20
41.208246
 30
0.0
 11
-1.262557
 21
41.208246
 31
0.0
  0
LINE
  5
47F
100
AcDbEntity
  8
0
 62
     0
100
AcDbLine
 10
-0.315727
 20
41.332898
 30
0.0
 11
-0.315727
 21
41.332898
 31
0.0
  0
LINE
  5
480
100
AcDbEntity
  8
0
 62
     0
100
AcDbLine
 10
-5.697635
 20
39.724911
 30
0.0
 11
-5.697635
 21
39.724911
 31
0.0
  0
LINE
  5
481
100
AcDbEntity
  8
0
 62
     0
100
AcDbLine
 10
-5.071786
 20
39.807306
 30
0.0
 11
-5.071786
 21
39.807306
 31
0.0
  0
LINE
  5
482
100
AcDbEntity
  8
0
 62
     0
100
AcDbLine
 10
-4.124956
 20
39.931959
 30
0.0
 11
-4.124956
 21
39.931959
 31
0.0
  0
LINE
  5
483
100
AcDbEntity
  8
0
 62
     0
100
AcDbLine
 10
-2.54608
 20
40.139822
 30
0.0
 11
-2.54608
 21
40.139822
 31
0.0
  0
LINE
  5
484
100
AcDbEntity
  8
0
 62
     0
100
AcDbLine
 10
-1.920231
 20
40.222216
 30
0.0
 11
-1.920231
 21
40.222216
 31
0.0
  0
LINE
  5
485
100
AcDbEntity
  8
0
 62
     0
100
AcDbLine
 10
-0.973401
 20
40.346869
 30
0.0
 11
-0.973401
 21
40.346869
 31
0.0
  0
LINE
  5
486
100
AcDbEntity
  8
0
 62
     0
100
AcDbLine
 10
-5.72946
 20
38.821277
 30
0.0
 11
-5.72946
 21
38.821277
 31
0.0
  0
LINE
  5
487
100
AcDbEntity
  8
0
 62
     0
100
AcDbLine
 10
-4.78263
 20
38.945929
 30
0.0
 11
-4.78263
 21
38.945929
 31
0.0
  0
LINE
  5
488
100
AcDbEntity
  8
0
 62
     0
100
AcDbLine
 10
-3.203754
 20
39.153792
 30
0.0
 11
-3.203754
 21
39.153792
 31
0.0
  0
LINE
  5
489
100
AcDbEntity
  8
0
 62
     0
100
AcDbLine
 10
-2.577904
 20
39.236187
 30
0.0
 11
-2.577904
 21
39.236187
 31
0.0
  0
LINE
  5
48A
100
AcDbEntity
  8
0
 62
     0
100
AcDbLine
 10
-1.631075
 20
39.360839
 30
0.0
 11
-1.631075
 21
39.360839
 31
0.0
  0
LINE
  5
48B
100
AcDbEntity
  8
0
 62
     0
100
AcDbLine
 10
-5.440304
 20
37.9599
 30
0.0
 11
-5.440304
 21
37.9599
 31
0.0
  0
LINE
  5
48C
100
AcDbEntity
  8
0
 62
     0
100
AcDbLine
 10
-3.861428
 20
38.167763
 30
0.0
 11
-3.861428
 21
38.167763
 31
0.0
  0
LINE
  5
48D
100
AcDbEntity
  8
0
 62
     0
100
AcDbLine
 10
-3.235578
 20
38.250158
 30
0.0
 11
-3.235578
 21
38.250158
 31
0.0
  0
LINE
  5
48E
100
AcDbEntity
  8
0
 62
     0
100
AcDbLine
 10
-2.288748
 20
38.37481
 30
0.0
 11
-2.288748
 21
38.37481
 31
0.0
  0
LINE
  5
48F
100
AcDbEntity
  8
0
 62
     0
100
AcDbLine
 10
-0.709872
 20
38.582673
 30
0.0
 11
-0.709872
 21
38.582673
 31
0.0
  0
LINE
  5
490
100
AcDbEntity
  8
0
 62
     0
100
AcDbLine
 10
-6.097978
 20
36.973871
 30
0.0
 11
-6.097978
 21
36.973871
 31
0.0
  0
LINE
  5
491
100
AcDbEntity
  8
0
 62
     0
100
AcDbLine
 10
-4.519102
 20
37.181734
 30
0.0
 11
-4.519102
 21
37.181734
 31
0.0
  0
LINE
  5
492
100
AcDbEntity
  8
0
 62
     0
100
AcDbLine
 10
-3.893252
 20
37.264128
 30
0.0
 11
-3.893252
 21
37.264128
 31
0.0
  0
LINE
  5
493
100
AcDbEntity
  8
0
 62
     0
100
AcDbLine
 10
-2.946422
 20
37.388781
 30
0.0
 11
-2.946422
 21
37.388781
 31
0.0
  0
LINE
  5
494
100
AcDbEntity
  8
0
 62
     0
100
AcDbLine
 10
-1.367546
 20
37.596644
 30
0.0
 11
-1.367546
 21
37.596644
 31
0.0
  0
LINE
  5
495
100
AcDbEntity
  8
0
 62
     0
100
AcDbLine
 10
-0.741697
 20
37.679039
 30
0.0
 11
-0.741697
 21
37.679039
 31
0.0
  0
LINE
  5
496
100
AcDbEntity
  8
0
 62
     0
100
AcDbLine
 10
-5.176776
 20
36.195704
 30
0.0
 11
-5.176776
 21
36.195704
 31
0.0
  0
LINE
  5
497
100
AcDbEntity
  8
0
 62
     0
100
AcDbLine
 10
-4.550926
 20
36.278099
 30
0.0
 11
-4.550926
 21
36.278099
 31
0.0
  0
LINE
  5
498
100
AcDbEntity
  8
0
 62
     0
100
AcDbLine
 10
-3.604096
 20
36.402752
 30
0.0
 11
-3.604096
 21
36.402752
 31
0.0
  0
LINE
  5
499
100
AcDbEntity
  8
0
 62
     0
100
AcDbLine
 10
-2.02522
 20
36.610615
 30
0.0
 11
-2.02522
 21
36.610615
 31
0.0
  0
LINE
  5
49A
100
AcDbEntity
  8
0
 62
     0
100
AcDbLine
 10
-1.399371
 20
36.693009
 30
0.0
 11
-1.399371
 21
36.693009
 31
0.0
  0
LINE
  5
49B
100
AcDbEntity
  8
0
 62
     0
100
AcDbLine
 10
-0.452541
 20
36.817662
 30
0.0
 11
-0.452541
 21
36.817662
 31
0.0
  0
LINE
  5
49C
100
AcDbEntity
  8
0
 62
     0
100
AcDbLine
 10
-5.834449
 20
35.209675
 30
0.0
 11
-5.834449
 21
35.209675
 31
0.0
  0
LINE
  5
49D
100
AcDbEntity
  8
0
 62
     0
100
AcDbLine
 10
-5.2086
 20
35.29207
 30
0.0
 11
-5.2086
 21
35.29207
 31
0.0
  0
LINE
  5
49E
100
AcDbEntity
  8
0
 62
     0
100
AcDbLine
 10
-4.26177
 20
35.416722
 30
0.0
 11
-4.26177
 21
35.416722
 31
0.0
  0
LINE
  5
49F
100
AcDbEntity
  8
0
 62
     0
100
AcDbLine
 10
-2.682894
 20
35.624585
 30
0.0
 11
-2.682894
 21
35.624585
 31
0.0
  0
LINE
  5
4A0
100
AcDbEntity
  8
0
 62
     0
100
AcDbLine
 10
-2.057044
 20
35.70698
 30
0.0
 11
-2.057044
 21
35.70698
 31
0.0
  0
LINE
  5
4A1
100
AcDbEntity
  8
0
 62
     0
100
AcDbLine
 10
-1.110215
 20
35.831633
 30
0.0
 11
-1.110215
 21
35.831633
 31
0.0
  0
LINE
  5
4A2
100
AcDbEntity
  8
0
 62
     0
100
AcDbLine
 10
-5.866274
 20
34.306041
 30
0.0
 11
-5.866274
 21
34.306041
 31
0.0
  0
LINE
  5
4A3
100
AcDbEntity
  8
0
 62
     0
100
AcDbLine
 10
-3.340568
 20
34.638556
 30
0.0
 11
-3.340568
 21
34.638556
 31
0.0
  0
LINE
  5
4A4
100
AcDbEntity
  8
0
 62
     0
100
AcDbLine
 10
-2.714718
 20
34.720951
 30
0.0
 11
-2.714718
 21
34.720951
 31
0.0
  0
LINE
  5
4A5
100
AcDbEntity
  8
0
 62
     0
100
AcDbLine
 10
-1.767888
 20
34.845603
 30
0.0
 11
-1.767888
 21
34.845603
 31
0.0
  0
LINE
  5
4A6
100
AcDbEntity
  8
0
 62
     0
100
AcDbLine
 10
-0.189012
 20
35.053466
 30
0.0
 11
-0.189012
 21
35.053466
 31
0.0
  0
LINE
  5
4A7
100
AcDbEntity
  8
0
 62
     0
100
AcDbLine
 10
-5.577118
 20
33.444664
 30
0.0
 11
-5.577118
 21
33.444664
 31
0.0
  0
LINE
  5
4A8
100
AcDbEntity
  8
0
 62
     0
100
AcDbLine
 10
-3.372392
 20
33.734921
 30
0.0
 11
-3.372392
 21
33.734921
 31
0.0
  0
LINE
  5
4A9
100
AcDbEntity
  8
0
 62
     0
100
AcDbLine
 10
-2.425562
 20
33.859574
 30
0.0
 11
-2.425562
 21
33.859574
 31
0.0
  0
LINE
  5
4AA
100
AcDbEntity
  8
0
 62
     0
100
AcDbLine
 10
-0.846686
 20
34.067437
 30
0.0
 11
-0.846686
 21
34.067437
 31
0.0
  0
LINE
  5
4AB
100
AcDbEntity
  8
0
 62
     0
100
AcDbLine
 10
-0.220837
 20
34.149832
 30
0.0
 11
-0.220837
 21
34.149832
 31
0.0
  0
LINE
  5
4AC
100
AcDbEntity
  8
0
 62
     0
100
AcDbLine
 10
-0.878511
 20
33.163802
 30
0.0
 11
-0.878511
 21
33.163802
 31
0.0
  0
LINE
  5
4AD
100
AcDbEntity
  8
0
 62
     0
100
AcDbLine
 10
-2.162034
 20
32.095378
 30
0.0
 11
-2.162034
 21
32.095378
 31
0.0
  0
LINE
  5
4AE
100
AcDbEntity
  8
0
 62
     0
100
AcDbLine
 10
-4.544849
 20
49.375532
 30
0.0
 11
-4.544849
 21
49.375532
 31
0.0
  0
LINE
  5
4AF
100
AcDbEntity
  8
0
 62
     0
100
AcDbLine
 10
-4.017729
 20
49.039719
 30
0.0
 11
-4.017729
 21
49.039719
 31
0.0
  0
LINE
  5
4B0
100
AcDbEntity
  8
0
 62
     0
100
AcDbLine
 10
-2.373116
 20
47.991985
 30
0.0
 11
-2.373116
 21
47.991985
 31
0.0
  0
LINE
  5
4B1
100
AcDbEntity
  8
0
 62
     0
100
AcDbLine
 10
-0.190841
 20
46.601723
 30
0.0
 11
-0.190841
 21
46.601723
 31
0.0
  0
LINE
  5
4B2
100
AcDbEntity
  8
0
 62
     0
100
AcDbLine
 10
0.336279
 20
46.26591
 30
0.0
 11
0.336279
 21
46.26591
 31
0.0
  0
LINE
  5
4B3
100
AcDbEntity
  8
0
 62
     0
100
AcDbLine
 10
1.980892
 20
45.218176
 30
0.0
 11
1.980892
 21
45.218176
 31
0.0
  0
LINE
  5
4B4
100
AcDbEntity
  8
0
 62
     0
100
AcDbLine
 10
-5.392568
 20
50.709407
 30
0.0
 11
-5.392568
 21
50.709407
 31
0.0
  0
LINE
  5
4B5
100
AcDbEntity
  8
0
 62
     0
100
AcDbLine
 10
-3.210293
 20
49.319145
 30
0.0
 11
-3.210293
 21
49.319145
 31
0.0
  0
LINE
  5
4B6
100
AcDbEntity
  8
0
 62
     0
100
AcDbLine
 10
-2.683173
 20
48.983332
 30
0.0
 11
-2.683173
 21
48.983332
 31
0.0
  0
LINE
  5
4B7
100
AcDbEntity
  8
0
 62
     0
100
AcDbLine
 10
-1.03856
 20
47.935598
 30
0.0
 11
-1.03856
 21
47.935598
 31
0.0
  0
LINE
  5
4B8
100
AcDbEntity
  8
0
 62
     0
100
AcDbLine
 10
1.143715
 20
46.545335
 30
0.0
 11
1.143715
 21
46.545335
 31
0.0
  0
LINE
  5
4B9
100
AcDbEntity
  8
0
 62
     0
100
AcDbLine
 10
1.670835
 20
46.209523
 30
0.0
 11
1.670835
 21
46.209523
 31
0.0
  0
LINE
  5
4BA
100
AcDbEntity
  8
0
 62
     0
100
AcDbLine
 10
-5.702626
 20
51.700754
 30
0.0
 11
-5.702626
 21
51.700754
 31
0.0
  0
LINE
  5
4BB
100
AcDbEntity
  8
0
 62
     0
100
AcDbLine
 10
-4.058012
 20
50.65302
 30
0.0
 11
-4.058012
 21
50.65302
 31
0.0
  0
LINE
  5
4BC
100
AcDbEntity
  8
0
 62
     0
100
AcDbLine
 10
-1.875737
 20
49.262757
 30
0.0
 11
-1.875737
 21
49.262757
 31
0.0
  0
LINE
  5
4BD
100
AcDbEntity
  8
0
 62
     0
100
AcDbLine
 10
-1.348617
 20
48.926945
 30
0.0
 11
-1.348617
 21
48.926945
 31
0.0
  0
LINE
  5
4BE
100
AcDbEntity
  8
0
 62
     0
100
AcDbLine
 10
0.295996
 20
47.879211
 30
0.0
 11
0.295996
 21
47.879211
 31
0.0
  0
LINE
  5
4BF
100
AcDbEntity
  8
0
 62
     0
100
AcDbLine
 10
2.478271
 20
46.488948
 30
0.0
 11
2.478271
 21
46.488948
 31
0.0
  0
LINE
  5
4C0
100
AcDbEntity
  8
0
 62
     0
100
AcDbLine
 10
-4.895189
 20
51.980179
 30
0.0
 11
-4.895189
 21
51.980179
 31
0.0
  0
LINE
  5
4C1
100
AcDbEntity
  8
0
 62
     0
100
AcDbLine
 10
-4.36807
 20
51.644367
 30
0.0
 11
-4.36807
 21
51.644367
 31
0.0
  0
LINE
  5
4C2
100
AcDbEntity
  8
0
 62
     0
100
AcDbLine
 10
-2.723456
 20
50.596633
 30
0.0
 11
-2.723456
 21
50.596633
 31
0.0
  0
LINE
  5
4C3
100
AcDbEntity
  8
0
 62
     0
100
AcDbLine
 10
-0.541181
 20
49.20637
 30
0.0
 11
-0.541181
 21
49.20637
 31
0.0
  0
LINE
  5
4C4
100
AcDbEntity
  8
0
 62
     0
100
AcDbLine
 10
-0.014061
 20
48.870558
 30
0.0
 11
-0.014061
 21
48.870558
 31
0.0
  0
LINE
  5
4C5
100
AcDbEntity
  8
0
 62
     0
100
AcDbLine
 10
1.630552
 20
47.822824
 30
0.0
 11
1.630552
 21
47.822824
 31
0.0
  0
LINE
  5
4C6
100
AcDbEntity
  8
0
 62
     0
100
AcDbLine
 10
-5.742908
 20
53.314055
 30
0.0
 11
-5.742908
 21
53.314055
 31
0.0
  0
LINE
  5
4C7
100
AcDbEntity
  8
0
 62
     0
100
AcDbLine
 10
-3.560633
 20
51.923792
 30
0.0
 11
-3.560633
 21
51.923792
 31
0.0
  0
LINE
  5
4C8
100
AcDbEntity
  8
0
 62
     0
100
AcDbLine
 10
-3.033513
 20
51.58798
 30
0.0
 11
-3.033513
 21
51.58798
 31
0.0
  0
LINE
  5
4C9
100
AcDbEntity
  8
0
 62
     0
100
AcDbLine
 10
-1.3889
 20
50.540246
 30
0.0
 11
-1.3889
 21
50.540246
 31
0.0
  0
LINE
  5
4CA
100
AcDbEntity
  8
0
 62
     0
100
AcDbLine
 10
0.793375
 20
49.149983
 30
0.0
 11
0.793375
 21
49.149983
 31
0.0
  0
LINE
  5
4CB
100
AcDbEntity
  8
0
 62
     0
100
AcDbLine
 10
1.320495
 20
48.814171
 30
0.0
 11
1.320495
 21
48.814171
 31
0.0
  0
LINE
  5
4CC
100
AcDbEntity
  8
0
 62
     0
100
AcDbLine
 10
-6.052966
 20
54.305402
 30
0.0
 11
-6.052966
 21
54.305402
 31
0.0
  0
LINE
  5
4CD
100
AcDbEntity
  8
0
 62
     0
100
AcDbLine
 10
-4.408352
 20
53.257668
 30
0.0
 11
-4.408352
 21
53.257668
 31
0.0
  0
LINE
  5
4CE
100
AcDbEntity
  8
0
 62
     0
100
AcDbLine
 10
-2.226077
 20
51.867405
 30
0.0
 11
-2.226077
 21
51.867405
 31
0.0
  0
LINE
  5
4CF
100
AcDbEntity
  8
0
 62
     0
100
AcDbLine
 10
-1.698957
 20
51.531593
 30
0.0
 11
-1.698957
 21
51.531593
 31
0.0
  0
LINE
  5
4D0
100
AcDbEntity
  8
0
 62
     0
100
AcDbLine
 10
-0.054344
 20
50.483859
 30
0.0
 11
-0.054344
 21
50.483859
 31
0.0
  0
LINE
  5
4D1
100
AcDbEntity
  8
0
 62
     0
100
AcDbLine
 10
2.127931
 20
49.093596
 30
0.0
 11
2.127931
 21
49.093596
 31
0.0
  0
LINE
  5
4D2
100
AcDbEntity
  8
0
 62
     0
100
AcDbLine
 10
2.655051
 20
48.757784
 30
0.0
 11
2.655051
 21
48.757784
 31
0.0
  0
LINE
  5
4D3
100
AcDbEntity
  8
0
 62
     0
100
AcDbLine
 10
-5.245529
 20
54.584827
 30
0.0
 11
-5.245529
 21
54.584827
 31
0.0
  0
LINE
  5
4D4
100
AcDbEntity
  8
0
 62
     0
100
AcDbLine
 10
-4.71841
 20
54.249015
 30
0.0
 11
-4.71841
 21
54.249015
 31
0.0
  0
LINE
  5
4D5
100
AcDbEntity
  8
0
 62
     0
100
AcDbLine
 10
-3.073796
 20
53.201281
 30
0.0
 11
-3.073796
 21
53.201281
 31
0.0
  0
LINE
  5
4D6
100
AcDbEntity
  8
0
 62
     0
100
AcDbLine
 10
-0.891521
 20
51.811018
 30
0.0
 11
-0.891521
 21
51.811018
 31
0.0
  0
LINE
  5
4D7
100
AcDbEntity
  8
0
 62
     0
100
AcDbLine
 10
-0.364401
 20
51.475206
 30
0.0
 11
-0.364401
 21
51.475206
 31
0.0
  0
LINE
  5
4D8
100
AcDbEntity
  8
0
 62
     0
100
AcDbLine
 10
1.280212
 20
50.427471
 30
0.0
 11
1.280212
 21
50.427471
 31
0.0
  0
LINE
  5
4D9
100
AcDbEntity
  8
0
 62
     0
100
AcDbLine
 10
-6.093249
 20
55.918703
 30
0.0
 11
-6.093249
 21
55.918703
 31
0.0
  0
LINE
  5
4DA
100
AcDbEntity
  8
0
 62
     0
100
AcDbLine
 10
-3.910973
 20
54.52844
 30
0.0
 11
-3.910973
 21
54.52844
 31
0.0
  0
LINE
  5
4DB
100
AcDbEntity
  8
0
 62
     0
100
AcDbLine
 10
-3.383853
 20
54.192628
 30
0.0
 11
-3.383853
 21
54.192628
 31
0.0
  0
LINE
  5
4DC
100
AcDbEntity
  8
0
 62
     0
100
AcDbLine
 10
-1.73924
 20
53.144893
 30
0.0
 11
-1.73924
 21
53.144893
 31
0.0
  0
LINE
  5
4DD
100
AcDbEntity
  8
0
 62
     0
100
AcDbLine
 10
2.614768
 20
50.371084
 30
0.0
 11
2.614768
 21
50.371084
 31
0.0
  0
LINE
  5
4DE
100
AcDbEntity
  8
0
 62
     0
100
AcDbLine
 10
-4.758692
 20
55.862316
 30
0.0
 11
-4.758692
 21
55.862316
 31
0.0
  0
LINE
  5
4DF
100
AcDbEntity
  8
0
 62
     0
100
AcDbLine
 10
-2.576417
 20
54.472053
 30
0.0
 11
-2.576417
 21
54.472053
 31
0.0
  0
LINE
  5
4E0
100
AcDbEntity
  8
0
 62
     0
100
AcDbLine
 10
-2.049297
 20
54.136241
 30
0.0
 11
-2.049297
 21
54.136241
 31
0.0
  0
LINE
  5
4E1
100
AcDbEntity
  8
0
 62
     0
100
AcDbLine
 10
-0.404684
 20
53.088506
 30
0.0
 11
-0.404684
 21
53.088506
 31
0.0
  0
LINE
  5
4E2
100
AcDbEntity
  8
0
 62
     0
100
AcDbLine
 10
-5.595869
 20
57.189475
 30
0.0
 11
-5.595869
 21
57.189475
 31
0.0
  0
LINE
  5
4E3
100
AcDbEntity
  8
0
 62
     0
100
AcDbLine
 10
-5.06875
 20
56.853663
 30
0.0
 11
-5.06875
 21
56.853663
 31
0.0
  0
LINE
  5
4E4
100
AcDbEntity
  8
0
 62
     0
100
AcDbLine
 10
-3.424136
 20
55.805928
 30
0.0
 11
-3.424136
 21
55.805928
 31
0.0
  0
LINE
  5
4E5
100
AcDbEntity
  8
0
 62
     0
100
AcDbLine
 10
-1.241861
 20
54.415666
 30
0.0
 11
-1.241861
 21
54.415666
 31
0.0
  0
LINE
  5
4E6
100
AcDbEntity
  8
0
 62
     0
100
AcDbLine
 10
-0.714741
 20
54.079853
 30
0.0
 11
-0.714741
 21
54.079853
 31
0.0
  0
LINE
  5
4E7
100
AcDbEntity
  8
0
 62
     0
100
AcDbLine
 10
-4.261313
 20
57.133088
 30
0.0
 11
-4.261313
 21
57.133088
 31
0.0
  0
LINE
  5
4E8
100
AcDbEntity
  8
0
 62
     0
100
AcDbLine
 10
-3.734194
 20
56.797275
 30
0.0
 11
-3.734194
 21
56.797275
 31
0.0
  0
LINE
  5
4E9
100
AcDbEntity
  8
0
 62
     0
100
AcDbLine
 10
-2.08958
 20
55.749541
 30
0.0
 11
-2.08958
 21
55.749541
 31
0.0
  0
LINE
  5
4EA
100
AcDbEntity
  8
0
 62
     0
100
AcDbLine
 10
-5.109032
 20
58.466963
 30
0.0
 11
-5.109032
 21
58.466963
 31
0.0
  0
LINE
  5
4EB
100
AcDbEntity
  8
0
 62
     0
100
AcDbLine
 10
-2.926757
 20
57.0767
 30
0.0
 11
-2.926757
 21
57.0767
 31
0.0
  0
LINE
  5
4EC
100
AcDbEntity
  8
0
 62
     0
100
AcDbLine
 10
-2.399637
 20
56.740888
 30
0.0
 11
-2.399637
 21
56.740888
 31
0.0
  0
LINE
  5
4ED
100
AcDbEntity
  8
0
 62
     0
100
AcDbLine
 10
-0.755024
 20
55.693154
 30
0.0
 11
-0.755024
 21
55.693154
 31
0.0
  0
LINE
  5
4EE
100
AcDbEntity
  8
0
 62
     0
100
AcDbLine
 10
-5.946209
 20
59.794123
 30
0.0
 11
-5.946209
 21
59.794123
 31
0.0
  0
LINE
  5
4EF
100
AcDbEntity
  8
0
 62
     0
100
AcDbLine
 10
-5.41909
 20
59.45831
 30
0.0
 11
-5.41909
 21
59.45831
 31
0.0
  0
LINE
  5
4F0
100
AcDbEntity
  8
0
 62
     0
100
AcDbLine
 10
-3.774476
 20
58.410576
 30
0.0
 11
-3.774476
 21
58.410576
 31
0.0
  0
LINE
  5
4F1
100
AcDbEntity
  8
0
 62
     0
100
AcDbLine
 10
-1.592201
 20
57.020313
 30
0.0
 11
-1.592201
 21
57.020313
 31
0.0
  0
LINE
  5
4F2
100
AcDbEntity
  8
0
 62
     0
100
AcDbLine
 10
-1.065081
 20
56.684501
 30
0.0
 11
-1.065081
 21
56.684501
 31
0.0
  0
LINE
  5
4F3
100
AcDbEntity
  8
0
 62
     0
100
AcDbLine
 10
-4.611653
 20
59.737735
 30
0.0
 11
-4.611653
 21
59.737735
 31
0.0
  0
LINE
  5
4F4
100
AcDbEntity
  8
0
 62
     0
100
AcDbLine
 10
-4.084534
 20
59.401923
 30
0.0
 11
-4.084534
 21
59.401923
 31
0.0
  0
LINE
  5
4F5
100
AcDbEntity
  8
0
 62
     0
100
AcDbLine
 10
-2.43992
 20
58.354189
 30
0.0
 11
-2.43992
 21
58.354189
 31
0.0
  0
LINE
  5
4F6
100
AcDbEntity
  8
0
 62
     0
100
AcDbLine
 10
-0.257645
 20
56.963926
 30
0.0
 11
-0.257645
 21
56.963926
 31
0.0
  0
LINE
  5
4F7
100
AcDbEntity
  8
0
 62
     0
100
AcDbLine
 10
-5.459373
 20
61.071611
 30
0.0
 11
-5.459373
 21
61.071611
 31
0.0
  0
LINE
  5
4F8
100
AcDbEntity
  8
0
 62
     0
100
AcDbLine
 10
-3.277097
 20
59.681348
 30
0.0
 11
-3.277097
 21
59.681348
 31
0.0
  0
LINE
  5
4F9
100
AcDbEntity
  8
0
 62
     0
100
AcDbLine
 10
-2.749978
 20
59.345536
 30
0.0
 11
-2.749978
 21
59.345536
 31
0.0
  0
LINE
  5
4FA
100
AcDbEntity
  8
0
 62
     0
100
AcDbLine
 10
-1.105364
 20
58.297802
 30
0.0
 11
-1.105364
 21
58.297802
 31
0.0
  0
LINE
  5
4FB
100
AcDbEntity
  8
0
 62
     0
100
AcDbLine
 10
-5.76943
 20
62.062958
 30
0.0
 11
-5.76943
 21
62.062958
 31
0.0
  0
LINE
  5
4FC
100
AcDbEntity
  8
0
 62
     0
100
AcDbLine
 10
-4.124816
 20
61.015224
 30
0.0
 11
-4.124816
 21
61.015224
 31
0.0
  0
LINE
  5
4FD
100
AcDbEntity
  8
0
 62
     0
100
AcDbLine
 10
-1.942541
 20
59.624961
 30
0.0
 11
-1.942541
 21
59.624961
 31
0.0
  0
LINE
  5
4FE
100
AcDbEntity
  8
0
 62
     0
100
AcDbLine
 10
-1.415421
 20
59.289149
 30
0.0
 11
-1.415421
 21
59.289149
 31
0.0
  0
LINE
  5
4FF
100
AcDbEntity
  8
0
 62
     0
100
AcDbLine
 10
-4.961993
 20
62.342383
 30
0.0
 11
-4.961993
 21
62.342383
 31
0.0
  0
LINE
  5
500
100
AcDbEntity
  8
0
 62
     0
100
AcDbLine
 10
-4.434874
 20
62.006571
 30
0.0
 11
-4.434874
 21
62.006571
 31
0.0
  0
LINE
  5
501
100
AcDbEntity
  8
0
 62
     0
100
AcDbLine
 10
-2.79026
 20
60.958837
 30
0.0
 11
-2.79026
 21
60.958837
 31
0.0
  0
LINE
  5
502
100
AcDbEntity
  8
0
 62
     0
100
AcDbLine
 10
-0.607985
 20
59.568574
 30
0.0
 11
-0.607985
 21
59.568574
 31
0.0
  0
LINE
  5
503
100
AcDbEntity
  8
0
 62
     0
100
AcDbLine
 10
-3.627437
 20
62.285996
 30
0.0
 11
-3.627437
 21
62.285996
 31
0.0
  0
LINE
  5
504
100
AcDbEntity
  8
0
 62
     0
100
AcDbLine
 10
-3.100318
 20
61.950184
 30
0.0
 11
-3.100318
 21
61.950184
 31
0.0
  0
LINE
  5
505
100
AcDbEntity
  8
0
 62
     0
100
AcDbLine
 10
-1.455704
 20
60.902449
 30
0.0
 11
-1.455704
 21
60.902449
 31
0.0
  0
LINE
  5
506
100
AcDbEntity
  8
0
 62
     0
100
AcDbLine
 10
-4.475157
 20
63.619871
 30
0.0
 11
-4.475157
 21
63.619871
 31
0.0
  0
LINE
  5
507
100
AcDbEntity
  8
0
 62
     0
100
AcDbLine
 10
-4.785214
 20
64.611218
 30
0.0
 11
-4.785214
 21
64.611218
 31
0.0
  0
LINE
  5
508
100
AcDbEntity
  8
0
 62
     0
100
AcDbLine
 10
-0.958325
 20
62.173221
 30
0.0
 11
-0.958325
 21
62.173221
 31
0.0
  0
LINE
  5
509
100
AcDbEntity
  8
0
 62
     0
100
AcDbLine
 10
-0.431205
 20
61.837409
 30
0.0
 11
-0.431205
 21
61.837409
 31
0.0
  0
LINE
  5
50A
100
AcDbEntity
  8
0
 62
     0
100
AcDbLine
 10
-5.879405
 20
49.431919
 30
0.0
 11
-5.879405
 21
49.431919
 31
0.0
  0
LINE
  5
50B
100
AcDbEntity
  8
0
 62
     0
100
AcDbLine
 10
-5.352286
 20
49.096107
 30
0.0
 11
-5.352286
 21
49.096107
 31
0.0
  0
LINE
  5
50C
100
AcDbEntity
  8
0
 62
     0
100
AcDbLine
 10
-3.707672
 20
48.048372
 30
0.0
 11
-3.707672
 21
48.048372
 31
0.0
  0
LINE
  5
50D
100
AcDbEntity
  8
0
 62
     0
100
AcDbLine
 10
-1.525397
 20
46.65811
 30
0.0
 11
-1.525397
 21
46.65811
 31
0.0
  0
LINE
  5
50E
100
AcDbEntity
  8
0
 62
     0
100
AcDbLine
 10
-0.998277
 20
46.322297
 30
0.0
 11
-0.998277
 21
46.322297
 31
0.0
  0
LINE
  5
50F
100
AcDbEntity
  8
0
 62
     0
100
AcDbLine
 10
0.646336
 20
45.274563
 30
0.0
 11
0.646336
 21
45.274563
 31
0.0
  0
LINE
  5
510
100
AcDbEntity
  8
0
 62
     0
100
AcDbLine
 10
-5.042228
 20
48.10476
 30
0.0
 11
-5.042228
 21
48.10476
 31
0.0
  0
LINE
  5
511
100
AcDbEntity
  8
0
 62
     0
100
AcDbLine
 10
-2.859953
 20
46.714497
 30
0.0
 11
-2.859953
 21
46.714497
 31
0.0
  0
LINE
  5
512
100
AcDbEntity
  8
0
 62
     0
100
AcDbLine
 10
-2.332833
 20
46.378685
 30
0.0
 11
-2.332833
 21
46.378685
 31
0.0
  0
LINE
  5
513
100
AcDbEntity
  8
0
 62
     0
100
AcDbLine
 10
-0.68822
 20
45.33095
 30
0.0
 11
-0.68822
 21
45.33095
 31
0.0
  0
LINE
  5
514
100
AcDbEntity
  8
0
 62
     0
100
AcDbLine
 10
-4.194509
 20
46.770884
 30
0.0
 11
-4.194509
 21
46.770884
 31
0.0
  0
LINE
  5
515
100
AcDbEntity
  8
0
 62
     0
100
AcDbLine
 10
-3.667389
 20
46.435072
 30
0.0
 11
-3.667389
 21
46.435072
 31
0.0
  0
LINE
  5
516
100
AcDbEntity
  8
0
 62
     0
100
AcDbLine
 10
-2.022776
 20
45.387338
 30
0.0
 11
-2.022776
 21
45.387338
 31
0.0
  0
LINE
  5
517
100
AcDbEntity
  8
0
 62
     0
100
AcDbLine
 10
-5.529065
 20
46.827271
 30
0.0
 11
-5.529065
 21
46.827271
 31
0.0
  0
LINE
  5
518
100
AcDbEntity
  8
0
 62
     0
100
AcDbLine
 10
-5.001945
 20
46.491459
 30
0.0
 11
-5.001945
 21
46.491459
 31
0.0
  0
LINE
  5
519
100
AcDbEntity
  8
0
 62
     0
100
AcDbLine
 10
-3.357332
 20
45.443725
 30
0.0
 11
-3.357332
 21
45.443725
 31
0.0
  0
LINE
  5
51A
100
AcDbEntity
  8
0
 62
     0
100
AcDbLine
 10
-1.175057
 20
44.053462
 30
0.0
 11
-1.175057
 21
44.053462
 31
0.0
  0
LINE
  5
51B
100
AcDbEntity
  8
0
 62
     0
100
AcDbLine
 10
-0.647937
 20
43.71765
 30
0.0
 11
-0.647937
 21
43.71765
 31
0.0
  0
LINE
  5
51C
100
AcDbEntity
  8
0
 62
     0
100
AcDbLine
 10
-4.691888
 20
45.500112
 30
0.0
 11
-4.691888
 21
45.500112
 31
0.0
  0
LINE
  5
51D
100
AcDbEntity
  8
0
 62
     0
100
AcDbLine
 10
-2.509613
 20
44.109849
 30
0.0
 11
-2.509613
 21
44.109849
 31
0.0
  0
LINE
  5
51E
100
AcDbEntity
  8
0
 62
     0
100
AcDbLine
 10
-1.982493
 20
43.774037
 30
0.0
 11
-1.982493
 21
43.774037
 31
0.0
  0
LINE
  5
51F
100
AcDbEntity
  8
0
 62
     0
100
AcDbLine
 10
-0.33788
 20
42.726303
 30
0.0
 11
-0.33788
 21
42.726303
 31
0.0
  0
LINE
  5
520
100
AcDbEntity
  8
0
 62
     0
100
AcDbLine
 10
-6.026444
 20
45.556499
 30
0.0
 11
-6.026444
 21
45.556499
 31
0.0
  0
LINE
  5
521
100
AcDbEntity
  8
0
 62
     0
100
AcDbLine
 10
-3.844169
 20
44.166236
 30
0.0
 11
-3.844169
 21
44.166236
 31
0.0
  0
LINE
  5
522
100
AcDbEntity
  8
0
 62
     0
100
AcDbLine
 10
-3.317049
 20
43.830424
 30
0.0
 11
-3.317049
 21
43.830424
 31
0.0
  0
LINE
  5
523
100
AcDbEntity
  8
0
 62
     0
100
AcDbLine
 10
-1.672436
 20
42.78269
 30
0.0
 11
-1.672436
 21
42.78269
 31
0.0
  0
LINE
  5
524
100
AcDbEntity
  8
0
 62
     0
100
AcDbLine
 10
-5.178725
 20
44.222624
 30
0.0
 11
-5.178725
 21
44.222624
 31
0.0
  0
LINE
  5
525
100
AcDbEntity
  8
0
 62
     0
100
AcDbLine
 10
-4.651605
 20
43.886811
 30
0.0
 11
-4.651605
 21
43.886811
 31
0.0
  0
LINE
  5
526
100
AcDbEntity
  8
0
 62
     0
100
AcDbLine
 10
-3.006992
 20
42.839077
 30
0.0
 11
-3.006992
 21
42.839077
 31
0.0
  0
LINE
  5
527
100
AcDbEntity
  8
0
 62
     0
100
AcDbLine
 10
-0.824717
 20
41.448814
 30
0.0
 11
-0.824717
 21
41.448814
 31
0.0
  0
LINE
  5
528
100
AcDbEntity
  8
0
 62
     0
100
AcDbLine
 10
-0.297597
 20
41.113002
 30
0.0
 11
-0.297597
 21
41.113002
 31
0.0
  0
LINE
  5
529
100
AcDbEntity
  8
0
 62
     0
100
AcDbLine
 10
-5.986161
 20
43.943198
 30
0.0
 11
-5.986161
 21
43.943198
 31
0.0
  0
LINE
  5
52A
100
AcDbEntity
  8
0
 62
     0
100
AcDbLine
 10
-4.341548
 20
42.895464
 30
0.0
 11
-4.341548
 21
42.895464
 31
0.0
  0
LINE
  5
52B
100
AcDbEntity
  8
0
 62
     0
100
AcDbLine
 10
-2.159273
 20
41.505202
 30
0.0
 11
-2.159273
 21
41.505202
 31
0.0
  0
LINE
  5
52C
100
AcDbEntity
  8
0
 62
     0
100
AcDbLine
 10
-1.632153
 20
41.169389
 30
0.0
 11
-1.632153
 21
41.169389
 31
0.0
  0
LINE
  5
52D
100
AcDbEntity
  8
0
 62
     0
100
AcDbLine
 10
-5.676104
 20
42.951851
 30
0.0
 11
-5.676104
 21
42.951851
 31
0.0
  0
LINE
  5
52E
100
AcDbEntity
  8
0
 62
     0
100
AcDbLine
 10
-3.493829
 20
41.561589
 30
0.0
 11
-3.493829
 21
41.561589
 31
0.0
  0
LINE
  5
52F
100
AcDbEntity
  8
0
 62
     0
100
AcDbLine
 10
-2.966709
 20
41.225776
 30
0.0
 11
-2.966709
 21
41.225776
 31
0.0
  0
LINE
  5
530
100
AcDbEntity
  8
0
 62
     0
100
AcDbLine
 10
-1.322096
 20
40.178042
 30
0.0
 11
-1.322096
 21
40.178042
 31
0.0
  0
LINE
  5
531
100
AcDbEntity
  8
0
 62
     0
100
AcDbLine
 10
-4.828385
 20
41.617976
 30
0.0
 11
-4.828385
 21
41.617976
 31
0.0
  0
LINE
  5
532
100
AcDbEntity
  8
0
 62
     0
100
AcDbLine
 10
-4.301265
 20
41.282164
 30
0.0
 11
-4.301265
 21
41.282164
 31
0.0
  0
LINE
  5
533
100
AcDbEntity
  8
0
 62
     0
100
AcDbLine
 10
-2.656652
 20
40.234429
 30
0.0
 11
-2.656652
 21
40.234429
 31
0.0
  0
LINE
  5
534
100
AcDbEntity
  8
0
 62
     0
100
AcDbLine
 10
-0.474377
 20
38.844167
 30
0.0
 11
-0.474377
 21
38.844167
 31
0.0
  0
LINE
  5
535
100
AcDbEntity
  8
0
 62
     0
100
AcDbLine
 10
-6.162941
 20
41.674363
 30
0.0
 11
-6.162941
 21
41.674363
 31
0.0
  0
LINE
  5
536
100
AcDbEntity
  8
0
 62
     0
100
AcDbLine
 10
-5.635821
 20
41.338551
 30
0.0
 11
-5.635821
 21
41.338551
 31
0.0
  0
LINE
  5
537
100
AcDbEntity
  8
0
 62
     0
100
AcDbLine
 10
-3.991208
 20
40.290817
 30
0.0
 11
-3.991208
 21
40.290817
 31
0.0
  0
LINE
  5
538
100
AcDbEntity
  8
0
 62
     0
100
AcDbLine
 10
-1.808933
 20
38.900554
 30
0.0
 11
-1.808933
 21
38.900554
 31
0.0
  0
LINE
  5
539
100
AcDbEntity
  8
0
 62
     0
100
AcDbLine
 10
-1.281813
 20
38.564742
 30
0.0
 11
-1.281813
 21
38.564742
 31
0.0
  0
LINE
  5
53A
100
AcDbEntity
  8
0
 62
     0
100
AcDbLine
 10
-5.325764
 20
40.347204
 30
0.0
 11
-5.325764
 21
40.347204
 31
0.0
  0
LINE
  5
53B
100
AcDbEntity
  8
0
 62
     0
100
AcDbLine
 10
-3.143489
 20
38.956941
 30
0.0
 11
-3.143489
 21
38.956941
 31
0.0
  0
LINE
  5
53C
100
AcDbEntity
  8
0
 62
     0
100
AcDbLine
 10
-2.616369
 20
38.621129
 30
0.0
 11
-2.616369
 21
38.621129
 31
0.0
  0
LINE
  5
53D
100
AcDbEntity
  8
0
 62
     0
100
AcDbLine
 10
-0.971756
 20
37.573395
 30
0.0
 11
-0.971756
 21
37.573395
 31
0.0
  0
LINE
  5
53E
100
AcDbEntity
  8
0
 62
     0
100
AcDbLine
 10
-4.478045
 20
39.013328
 30
0.0
 11
-4.478045
 21
39.013328
 31
0.0
  0
LINE
  5
53F
100
AcDbEntity
  8
0
 62
     0
100
AcDbLine
 10
-3.950925
 20
38.677516
 30
0.0
 11
-3.950925
 21
38.677516
 31
0.0
  0
LINE
  5
540
100
AcDbEntity
  8
0
 62
     0
100
AcDbLine
 10
-2.306312
 20
37.629782
 30
0.0
 11
-2.306312
 21
37.629782
 31
0.0
  0
LINE
  5
541
100
AcDbEntity
  8
0
 62
     0
100
AcDbLine
 10
-5.812601
 20
39.069715
 30
0.0
 11
-5.812601
 21
39.069715
 31
0.0
  0
LINE
  5
542
100
AcDbEntity
  8
0
 62
     0
100
AcDbLine
 10
-5.285481
 20
38.733903
 30
0.0
 11
-5.285481
 21
38.733903
 31
0.0
  0
LINE
  5
543
100
AcDbEntity
  8
0
 62
     0
100
AcDbLine
 10
-3.640868
 20
37.686169
 30
0.0
 11
-3.640868
 21
37.686169
 31
0.0
  0
LINE
  5
544
100
AcDbEntity
  8
0
 62
     0
100
AcDbLine
 10
-1.458593
 20
36.295906
 30
0.0
 11
-1.458593
 21
36.295906
 31
0.0
  0
LINE
  5
545
100
AcDbEntity
  8
0
 62
     0
100
AcDbLine
 10
-0.931473
 20
35.960094
 30
0.0
 11
-0.931473
 21
35.960094
 31
0.0
  0
LINE
  5
546
100
AcDbEntity
  8
0
 62
     0
100
AcDbLine
 10
-4.975424
 20
37.742556
 30
0.0
 11
-4.975424
 21
37.742556
 31
0.0
  0
LINE
  5
547
100
AcDbEntity
  8
0
 62
     0
100
AcDbLine
 10
-2.793149
 20
36.352293
 30
0.0
 11
-2.793149
 21
36.352293
 31
0.0
  0
LINE
  5
548
100
AcDbEntity
  8
0
 62
     0
100
AcDbLine
 10
-2.266029
 20
36.016481
 30
0.0
 11
-2.266029
 21
36.016481
 31
0.0
  0
LINE
  5
549
100
AcDbEntity
  8
0
 62
     0
100
AcDbLine
 10
-0.621416
 20
34.968747
 30
0.0
 11
-0.621416
 21
34.968747
 31
0.0
  0
LINE
  5
54A
100
AcDbEntity
  8
0
 62
     0
100
AcDbLine
 10
-4.127705
 20
36.40868
 30
0.0
 11
-4.127705
 21
36.40868
 31
0.0
  0
LINE
  5
54B
100
AcDbEntity
  8
0
 62
     0
100
AcDbLine
 10
-3.600585
 20
36.072868
 30
0.0
 11
-3.600585
 21
36.072868
 31
0.0
  0
LINE
  5
54C
100
AcDbEntity
  8
0
 62
     0
100
AcDbLine
 10
-1.955972
 20
35.025134
 30
0.0
 11
-1.955972
 21
35.025134
 31
0.0
  0
LINE
  5
54D
100
AcDbEntity
  8
0
 62
     0
100
AcDbLine
 10
-5.462261
 20
36.465068
 30
0.0
 11
-5.462261
 21
36.465068
 31
0.0
  0
LINE
  5
54E
100
AcDbEntity
  8
0
 62
     0
100
AcDbLine
 10
-4.935141
 20
36.129255
 30
0.0
 11
-4.935141
 21
36.129255
 31
0.0
  0
LINE
  5
54F
100
AcDbEntity
  8
0
 62
     0
100
AcDbLine
 10
-3.290528
 20
35.081521
 30
0.0
 11
-3.290528
 21
35.081521
 31
0.0
  0
LINE
  5
550
100
AcDbEntity
  8
0
 62
     0
100
AcDbLine
 10
-1.108253
 20
33.691258
 30
0.0
 11
-1.108253
 21
33.691258
 31
0.0
  0
LINE
  5
551
100
AcDbEntity
  8
0
 62
     0
100
AcDbLine
 10
-0.581133
 20
33.355446
 30
0.0
 11
-0.581133
 21
33.355446
 31
0.0
  0
LINE
  5
552
100
AcDbEntity
  8
0
 62
     0
100
AcDbLine
 10
-4.625084
 20
35.137908
 30
0.0
 11
-4.625084
 21
35.137908
 31
0.0
  0
LINE
  5
553
100
AcDbEntity
  8
0
 62
     0
100
AcDbLine
 10
-2.442809
 20
33.747646
 30
0.0
 11
-2.442809
 21
33.747646
 31
0.0
  0
LINE
  5
554
100
AcDbEntity
  8
0
 62
     0
100
AcDbLine
 10
-1.915689
 20
33.411833
 30
0.0
 11
-1.915689
 21
33.411833
 31
0.0
  0
LINE
  5
555
100
AcDbEntity
  8
0
 62
     0
100
AcDbLine
 10
-5.95964
 20
35.194296
 30
0.0
 11
-5.95964
 21
35.194296
 31
0.0
  0
LINE
  5
556
100
AcDbEntity
  8
0
 62
     0
100
AcDbLine
 10
-3.777365
 20
33.804033
 30
0.0
 11
-3.777365
 21
33.804033
 31
0.0
  0
LINE
  5
557
100
AcDbEntity
  8
0
 62
     0
100
AcDbLine
 10
-3.250245
 20
33.468221
 30
0.0
 11
-3.250245
 21
33.468221
 31
0.0
  0
LINE
  5
558
100
AcDbEntity
  8
0
 62
     0
100
AcDbLine
 10
-5.111921
 20
33.86042
 30
0.0
 11
-5.111921
 21
33.86042
 31
0.0
  0
LINE
  5
559
100
AcDbEntity
  8
0
 62
     0
100
AcDbLine
 10
-5.919357
 20
33.580995
 30
0.0
 11
-5.919357
 21
33.580995
 31
0.0
  0
LINE
  5
55A
100
AcDbEntity
  8
0
 62
     0
100
AcDbLine
 10
-5.063448
 20
49.900865
 30
0.0
 11
-5.063448
 21
49.900865
 31
0.0
  0
LINE
  5
55B
100
AcDbEntity
  8
0
 62
     0
100
AcDbLine
 10
-4.46441
 20
49.351948
 30
0.0
 11
-4.46441
 21
49.351948
 31
0.0
  0
LINE
  5
55C
100
AcDbEntity
  8
0
 62
     0
100
AcDbLine
 10
-3.509636
 20
48.477059
 30
0.0
 11
-3.509636
 21
48.477059
 31
0.0
  0
LINE
  5
55D
100
AcDbEntity
  8
0
 62
     0
100
AcDbLine
 10
-2.154889
 20
47.235662
 30
0.0
 11
-2.154889
 21
47.235662
 31
0.0
  0
LINE
  5
55E
100
AcDbEntity
  8
0
 62
     0
100
AcDbLine
 10
-1.555851
 20
46.686745
 30
0.0
 11
-1.555851
 21
46.686745
 31
0.0
  0
LINE
  5
55F
100
AcDbEntity
  8
0
 62
     0
100
AcDbLine
 10
-0.601077
 20
45.811855
 30
0.0
 11
-0.601077
 21
45.811855
 31
0.0
  0
LINE
  5
560
100
AcDbEntity
  8
0
 62
     0
100
AcDbLine
 10
-5.915004
 20
52.267414
 30
0.0
 11
-5.915004
 21
52.267414
 31
0.0
  0
LINE
  5
561
100
AcDbEntity
  8
0
 62
     0
100
AcDbLine
 10
-4.96023
 20
51.392525
 30
0.0
 11
-4.96023
 21
51.392525
 31
0.0
  0
LINE
  5
562
100
AcDbEntity
  8
0
 62
     0
100
AcDbLine
 10
-3.605483
 20
50.151128
 30
0.0
 11
-3.605483
 21
50.151128
 31
0.0
  0
LINE
  5
563
100
AcDbEntity
  8
0
 62
     0
100
AcDbLine
 10
-3.006445
 20
49.602211
 30
0.0
 11
-3.006445
 21
49.602211
 31
0.0
  0
LINE
  5
564
100
AcDbEntity
  8
0
 62
     0
100
AcDbLine
 10
-2.051671
 20
48.727321
 30
0.0
 11
-2.051671
 21
48.727321
 31
0.0
  0
LINE
  5
565
100
AcDbEntity
  8
0
 62
     0
100
AcDbLine
 10
-0.696924
 20
47.485924
 30
0.0
 11
-0.696924
 21
47.485924
 31
0.0
  0
LINE
  5
566
100
AcDbEntity
  8
0
 62
     0
100
AcDbLine
 10
-0.097886
 20
46.937007
 30
0.0
 11
-0.097886
 21
46.937007
 31
0.0
  0
LINE
  5
567
100
AcDbEntity
  8
0
 62
     0
100
AcDbLine
 10
0.856888
 20
46.062118
 30
0.0
 11
0.856888
 21
46.062118
 31
0.0
  0
LINE
  5
568
100
AcDbEntity
  8
0
 62
     0
100
AcDbLine
 10
2.211635
 20
44.820721
 30
0.0
 11
2.211635
 21
44.820721
 31
0.0
  0
LINE
  5
569
100
AcDbEntity
  8
0
 62
     0
100
AcDbLine
 10
-5.056076
 20
53.066593
 30
0.0
 11
-5.056076
 21
53.066593
 31
0.0
  0
LINE
  5
56A
100
AcDbEntity
  8
0
 62
     0
100
AcDbLine
 10
-4.457039
 20
52.517676
 30
0.0
 11
-4.457039
 21
52.517676
 31
0.0
  0
LINE
  5
56B
100
AcDbEntity
  8
0
 62
     0
100
AcDbLine
 10
-3.502264
 20
51.642787
 30
0.0
 11
-3.502264
 21
51.642787
 31
0.0
  0
LINE
  5
56C
100
AcDbEntity
  8
0
 62
     0
100
AcDbLine
 10
-2.147517
 20
50.40139
 30
0.0
 11
-2.147517
 21
50.40139
 31
0.0
  0
LINE
  5
56D
100
AcDbEntity
  8
0
 62
     0
100
AcDbLine
 10
-1.54848
 20
49.852473
 30
0.0
 11
-1.54848
 21
49.852473
 31
0.0
  0
LINE
  5
56E
100
AcDbEntity
  8
0
 62
     0
100
AcDbLine
 10
-0.593705
 20
48.977584
 30
0.0
 11
-0.593705
 21
48.977584
 31
0.0
  0
LINE
  5
56F
100
AcDbEntity
  8
0
 62
     0
100
AcDbLine
 10
0.761042
 20
47.736187
 30
0.0
 11
0.761042
 21
47.736187
 31
0.0
  0
LINE
  5
570
100
AcDbEntity
  8
0
 62
     0
100
AcDbLine
 10
1.36008
 20
47.18727
 30
0.0
 11
1.36008
 21
47.18727
 31
0.0
  0
LINE
  5
571
100
AcDbEntity
  8
0
 62
     0
100
AcDbLine
 10
2.314854
 20
46.31238
 30
0.0
 11
2.314854
 21
46.31238
 31
0.0
  0
LINE
  5
572
100
AcDbEntity
  8
0
 62
     0
100
AcDbLine
 10
-5.907632
 20
55.433142
 30
0.0
 11
-5.907632
 21
55.433142
 31
0.0
  0
LINE
  5
573
100
AcDbEntity
  8
0
 62
     0
100
AcDbLine
 10
-4.952858
 20
54.558253
 30
0.0
 11
-4.952858
 21
54.558253
 31
0.0
  0
LINE
  5
574
100
AcDbEntity
  8
0
 62
     0
100
AcDbLine
 10
-3.598111
 20
53.316856
 30
0.0
 11
-3.598111
 21
53.316856
 31
0.0
  0
LINE
  5
575
100
AcDbEntity
  8
0
 62
     0
100
AcDbLine
 10
-2.999073
 20
52.767939
 30
0.0
 11
-2.999073
 21
52.767939
 31
0.0
  0
LINE
  5
576
100
AcDbEntity
  8
0
 62
     0
100
AcDbLine
 10
-2.044299
 20
51.893049
 30
0.0
 11
-2.044299
 21
51.893049
 31
0.0
  0
LINE
  5
577
100
AcDbEntity
  8
0
 62
     0
100
AcDbLine
 10
-0.689552
 20
50.651652
 30
0.0
 11
-0.689552
 21
50.651652
 31
0.0
  0
LINE
  5
578
100
AcDbEntity
  8
0
 62
     0
100
AcDbLine
 10
-0.090514
 20
50.102735
 30
0.0
 11
-0.090514
 21
50.102735
 31
0.0
  0
LINE
  5
579
100
AcDbEntity
  8
0
 62
     0
100
AcDbLine
 10
0.86426
 20
49.227846
 30
0.0
 11
0.86426
 21
49.227846
 31
0.0
  0
LINE
  5
57A
100
AcDbEntity
  8
0
 62
     0
100
AcDbLine
 10
2.219007
 20
47.986449
 30
0.0
 11
2.219007
 21
47.986449
 31
0.0
  0
LINE
  5
57B
100
AcDbEntity
  8
0
 62
     0
100
AcDbLine
 10
2.818045
 20
47.437532
 30
0.0
 11
2.818045
 21
47.437532
 31
0.0
  0
LINE
  5
57C
100
AcDbEntity
  8
0
 62
     0
100
AcDbLine
 10
-5.048705
 20
56.232322
 30
0.0
 11
-5.048705
 21
56.232322
 31
0.0
  0
LINE
  5
57D
100
AcDbEntity
  8
0
 62
     0
100
AcDbLine
 10
-4.449667
 20
55.683405
 30
0.0
 11
-4.449667
 21
55.683405
 31
0.0
  0
LINE
  5
57E
100
AcDbEntity
  8
0
 62
     0
100
AcDbLine
 10
-3.494893
 20
54.808515
 30
0.0
 11
-3.494893
 21
54.808515
 31
0.0
  0
LINE
  5
57F
100
AcDbEntity
  8
0
 62
     0
100
AcDbLine
 10
-2.140146
 20
53.567118
 30
0.0
 11
-2.140146
 21
53.567118
 31
0.0
  0
LINE
  5
580
100
AcDbEntity
  8
0
 62
     0
100
AcDbLine
 10
-1.541108
 20
53.018201
 30
0.0
 11
-1.541108
 21
53.018201
 31
0.0
  0
LINE
  5
581
100
AcDbEntity
  8
0
 62
     0
100
AcDbLine
 10
-0.586334
 20
52.143312
 30
0.0
 11
-0.586334
 21
52.143312
 31
0.0
  0
LINE
  5
582
100
AcDbEntity
  8
0
 62
     0
100
AcDbLine
 10
1.367451
 20
50.352998
 30
0.0
 11
1.367451
 21
50.352998
 31
0.0
  0
LINE
  5
583
100
AcDbEntity
  8
0
 62
     0
100
AcDbLine
 10
2.322225
 20
49.478109
 30
0.0
 11
2.322225
 21
49.478109
 31
0.0
  0
LINE
  5
584
100
AcDbEntity
  8
0
 62
     0
100
AcDbLine
 10
-5.900261
 20
58.59887
 30
0.0
 11
-5.900261
 21
58.59887
 31
0.0
  0
LINE
  5
585
100
AcDbEntity
  8
0
 62
     0
100
AcDbLine
 10
-4.945486
 20
57.723981
 30
0.0
 11
-4.945486
 21
57.723981
 31
0.0
  0
LINE
  5
586
100
AcDbEntity
  8
0
 62
     0
100
AcDbLine
 10
-3.590739
 20
56.482584
 30
0.0
 11
-3.590739
 21
56.482584
 31
0.0
  0
LINE
  5
587
100
AcDbEntity
  8
0
 62
     0
100
AcDbLine
 10
-2.991701
 20
55.933667
 30
0.0
 11
-2.991701
 21
55.933667
 31
0.0
  0
LINE
  5
588
100
AcDbEntity
  8
0
 62
     0
100
AcDbLine
 10
-2.036927
 20
55.058778
 30
0.0
 11
-2.036927
 21
55.058778
 31
0.0
  0
LINE
  5
589
100
AcDbEntity
  8
0
 62
     0
100
AcDbLine
 10
-0.68218
 20
53.817381
 30
0.0
 11
-0.68218
 21
53.817381
 31
0.0
  0
LINE
  5
58A
100
AcDbEntity
  8
0
 62
     0
100
AcDbLine
 10
2.825417
 20
50.60326
 30
0.0
 11
2.825417
 21
50.60326
 31
0.0
  0
LINE
  5
58B
100
AcDbEntity
  8
0
 62
     0
100
AcDbLine
 10
-5.041333
 20
59.39805
 30
0.0
 11
-5.041333
 21
59.39805
 31
0.0
  0
LINE
  5
58C
100
AcDbEntity
  8
0
 62
     0
100
AcDbLine
 10
-4.442295
 20
58.849133
 30
0.0
 11
-4.442295
 21
58.849133
 31
0.0
  0
LINE
  5
58D
100
AcDbEntity
  8
0
 62
     0
100
AcDbLine
 10
-3.487521
 20
57.974244
 30
0.0
 11
-3.487521
 21
57.974244
 31
0.0
  0
LINE
  5
58E
100
AcDbEntity
  8
0
 62
     0
100
AcDbLine
 10
-2.132774
 20
56.732847
 30
0.0
 11
-2.132774
 21
56.732847
 31
0.0
  0
LINE
  5
58F
100
AcDbEntity
  8
0
 62
     0
100
AcDbLine
 10
-1.533736
 20
56.18393
 30
0.0
 11
-1.533736
 21
56.18393
 31
0.0
  0
LINE
  5
590
100
AcDbEntity
  8
0
 62
     0
100
AcDbLine
 10
-0.578962
 20
55.30904
 30
0.0
 11
-0.578962
 21
55.30904
 31
0.0
  0
LINE
  5
591
100
AcDbEntity
  8
0
 62
     0
100
AcDbLine
 10
-5.892889
 20
61.764599
 30
0.0
 11
-5.892889
 21
61.764599
 31
0.0
  0
LINE
  5
592
100
AcDbEntity
  8
0
 62
     0
100
AcDbLine
 10
-4.938115
 20
60.889709
 30
0.0
 11
-4.938115
 21
60.889709
 31
0.0
  0
LINE
  5
593
100
AcDbEntity
  8
0
 62
     0
100
AcDbLine
 10
-3.583368
 20
59.648312
 30
0.0
 11
-3.583368
 21
59.648312
 31
0.0
  0
LINE
  5
594
100
AcDbEntity
  8
0
 62
     0
100
AcDbLine
 10
-2.98433
 20
59.099395
 30
0.0
 11
-2.98433
 21
59.099395
 31
0.0
  0
LINE
  5
595
100
AcDbEntity
  8
0
 62
     0
100
AcDbLine
 10
-2.029556
 20
58.224506
 30
0.0
 11
-2.029556
 21
58.224506
 31
0.0
  0
LINE
  5
596
100
AcDbEntity
  8
0
 62
     0
100
AcDbLine
 10
-0.674808
 20
56.983109
 30
0.0
 11
-0.674808
 21
56.983109
 31
0.0
  0
LINE
  5
597
100
AcDbEntity
  8
0
 62
     0
100
AcDbLine
 10
-5.033961
 20
62.563778
 30
0.0
 11
-5.033961
 21
62.563778
 31
0.0
  0
LINE
  5
598
100
AcDbEntity
  8
0
 62
     0
100
AcDbLine
 10
-4.434923
 20
62.014861
 30
0.0
 11
-4.434923
 21
62.014861
 31
0.0
  0
LINE
  5
599
100
AcDbEntity
  8
0
 62
     0
100
AcDbLine
 10
-3.480149
 20
61.139972
 30
0.0
 11
-3.480149
 21
61.139972
 31
0.0
  0
LINE
  5
59A
100
AcDbEntity
  8
0
 62
     0
100
AcDbLine
 10
-2.125402
 20
59.898575
 30
0.0
 11
-2.125402
 21
59.898575
 31
0.0
  0
LINE
  5
59B
100
AcDbEntity
  8
0
 62
     0
100
AcDbLine
 10
-1.526364
 20
59.349658
 30
0.0
 11
-1.526364
 21
59.349658
 31
0.0
  0
LINE
  5
59C
100
AcDbEntity
  8
0
 62
     0
100
AcDbLine
 10
-0.57159
 20
58.474769
 30
0.0
 11
-0.57159
 21
58.474769
 31
0.0
  0
LINE
  5
59D
100
AcDbEntity
  8
0
 62
     0
100
AcDbLine
 10
-4.930743
 20
64.055438
 30
0.0
 11
-4.930743
 21
64.055438
 31
0.0
  0
LINE
  5
59E
100
AcDbEntity
  8
0
 62
     0
100
AcDbLine
 10
-3.575996
 20
62.814041
 30
0.0
 11
-3.575996
 21
62.814041
 31
0.0
  0
LINE
  5
59F
100
AcDbEntity
  8
0
 62
     0
100
AcDbLine
 10
-2.976958
 20
62.265124
 30
0.0
 11
-2.976958
 21
62.265124
 31
0.0
  0
LINE
  5
5A0
100
AcDbEntity
  8
0
 62
     0
100
AcDbLine
 10
-2.022184
 20
61.390234
 30
0.0
 11
-2.022184
 21
61.390234
 31
0.0
  0
LINE
  5
5A1
100
AcDbEntity
  8
0
 62
     0
100
AcDbLine
 10
-0.667437
 20
60.148837
 30
0.0
 11
-0.667437
 21
60.148837
 31
0.0
  0
LINE
  5
5A2
100
AcDbEntity
  8
0
 62
     0
100
AcDbLine
 10
-1.518993
 20
62.515386
 30
0.0
 11
-1.518993
 21
62.515386
 31
0.0
  0
LINE
  5
5A3
100
AcDbEntity
  8
0
 62
     0
100
AcDbLine
 10
-0.564218
 20
61.640497
 30
0.0
 11
-0.564218
 21
61.640497
 31
0.0
  0
LINE
  5
5A4
100
AcDbEntity
  8
0
 62
     0
100
AcDbLine
 10
-5.922376
 20
49.101686
 30
0.0
 11
-5.922376
 21
49.101686
 31
0.0
  0
LINE
  5
5A5
100
AcDbEntity
  8
0
 62
     0
100
AcDbLine
 10
-4.967602
 20
48.226796
 30
0.0
 11
-4.967602
 21
48.226796
 31
0.0
  0
LINE
  5
5A6
100
AcDbEntity
  8
0
 62
     0
100
AcDbLine
 10
-3.612855
 20
46.985399
 30
0.0
 11
-3.612855
 21
46.985399
 31
0.0
  0
LINE
  5
5A7
100
AcDbEntity
  8
0
 62
     0
100
AcDbLine
 10
-3.013817
 20
46.436482
 30
0.0
 11
-3.013817
 21
46.436482
 31
0.0
  0
LINE
  5
5A8
100
AcDbEntity
  8
0
 62
     0
100
AcDbLine
 10
-2.059043
 20
45.561593
 30
0.0
 11
-2.059043
 21
45.561593
 31
0.0
  0
LINE
  5
5A9
100
AcDbEntity
  8
0
 62
     0
100
AcDbLine
 10
-0.704295
 20
44.320196
 30
0.0
 11
-0.704295
 21
44.320196
 31
0.0
  0
LINE
  5
5AA
100
AcDbEntity
  8
0
 62
     0
100
AcDbLine
 10
-5.07082
 20
46.735137
 30
0.0
 11
-5.07082
 21
46.735137
 31
0.0
  0
LINE
  5
5AB
100
AcDbEntity
  8
0
 62
     0
100
AcDbLine
 10
-4.471782
 20
46.18622
 30
0.0
 11
-4.471782
 21
46.18622
 31
0.0
  0
LINE
  5
5AC
100
AcDbEntity
  8
0
 62
     0
100
AcDbLine
 10
-3.517008
 20
45.31133
 30
0.0
 11
-3.517008
 21
45.31133
 31
0.0
  0
LINE
  5
5AD
100
AcDbEntity
  8
0
 62
     0
100
AcDbLine
 10
-2.162261
 20
44.069933
 30
0.0
 11
-2.162261
 21
44.069933
 31
0.0
  0
LINE
  5
5AE
100
AcDbEntity
  8
0
 62
     0
100
AcDbLine
 10
-1.563223
 20
43.521016
 30
0.0
 11
-1.563223
 21
43.521016
 31
0.0
  0
LINE
  5
5AF
100
AcDbEntity
  8
0
 62
     0
100
AcDbLine
 10
-0.608449
 20
42.646127
 30
0.0
 11
-0.608449
 21
42.646127
 31
0.0
  0
LINE
  5
5B0
100
AcDbEntity
  8
0
 62
     0
100
AcDbLine
 10
-5.929748
 20
45.935957
 30
0.0
 11
-5.929748
 21
45.935957
 31
0.0
  0
LINE
  5
5B1
100
AcDbEntity
  8
0
 62
     0
100
AcDbLine
 10
-4.974973
 20
45.061068
 30
0.0
 11
-4.974973
 21
45.061068
 31
0.0
  0
LINE
  5
5B2
100
AcDbEntity
  8
0
 62
     0
100
AcDbLine
 10
-3.620226
 20
43.819671
 30
0.0
 11
-3.620226
 21
43.819671
 31
0.0
  0
LINE
  5
5B3
100
AcDbEntity
  8
0
 62
     0
100
AcDbLine
 10
-3.021188
 20
43.270754
 30
0.0
 11
-3.021188
 21
43.270754
 31
0.0
  0
LINE
  5
5B4
100
AcDbEntity
  8
0
 62
     0
100
AcDbLine
 10
-2.066414
 20
42.395865
 30
0.0
 11
-2.066414
 21
42.395865
 31
0.0
  0
LINE
  5
5B5
100
AcDbEntity
  8
0
 62
     0
100
AcDbLine
 10
-0.711667
 20
41.154468
 30
0.0
 11
-0.711667
 21
41.154468
 31
0.0
  0
LINE
  5
5B6
100
AcDbEntity
  8
0
 62
     0
100
AcDbLine
 10
-5.078192
 20
43.569409
 30
0.0
 11
-5.078192
 21
43.569409
 31
0.0
  0
LINE
  5
5B7
100
AcDbEntity
  8
0
 62
     0
100
AcDbLine
 10
-4.479154
 20
43.020492
 30
0.0
 11
-4.479154
 21
43.020492
 31
0.0
  0
LINE
  5
5B8
100
AcDbEntity
  8
0
 62
     0
100
AcDbLine
 10
-3.52438
 20
42.145602
 30
0.0
 11
-3.52438
 21
42.145602
 31
0.0
  0
LINE
  5
5B9
100
AcDbEntity
  8
0
 62
     0
100
AcDbLine
 10
-2.169633
 20
40.904205
 30
0.0
 11
-2.169633
 21
40.904205
 31
0.0
  0
LINE
  5
5BA
100
AcDbEntity
  8
0
 62
     0
100
AcDbLine
 10
-1.570595
 20
40.355288
 30
0.0
 11
-1.570595
 21
40.355288
 31
0.0
  0
LINE
  5
5BB
100
AcDbEntity
  8
0
 62
     0
100
AcDbLine
 10
-0.615821
 20
39.480399
 30
0.0
 11
-0.615821
 21
39.480399
 31
0.0
  0
LINE
  5
5BC
100
AcDbEntity
  8
0
 62
     0
100
AcDbLine
 10
-5.937119
 20
42.770229
 30
0.0
 11
-5.937119
 21
42.770229
 31
0.0
  0
LINE
  5
5BD
100
AcDbEntity
  8
0
 62
     0
100
AcDbLine
 10
-4.982345
 20
41.89534
 30
0.0
 11
-4.982345
 21
41.89534
 31
0.0
  0
LINE
  5
5BE
100
AcDbEntity
  8
0
 62
     0
100
AcDbLine
 10
-3.627598
 20
40.653943
 30
0.0
 11
-3.627598
 21
40.653943
 31
0.0
  0
LINE
  5
5BF
100
AcDbEntity
  8
0
 62
     0
100
AcDbLine
 10
-3.02856
 20
40.105026
 30
0.0
 11
-3.02856
 21
40.105026
 31
0.0
  0
LINE
  5
5C0
100
AcDbEntity
  8
0
 62
     0
100
AcDbLine
 10
-2.073786
 20
39.230136
 30
0.0
 11
-2.073786
 21
39.230136
 31
0.0
  0
LINE
  5
5C1
100
AcDbEntity
  8
0
 62
     0
100
AcDbLine
 10
-0.719039
 20
37.988739
 30
0.0
 11
-0.719039
 21
37.988739
 31
0.0
  0
LINE
  5
5C2
100
AcDbEntity
  8
0
 62
     0
100
AcDbLine
 10
-5.085563
 20
40.40368
 30
0.0
 11
-5.085563
 21
40.40368
 31
0.0
  0
LINE
  5
5C3
100
AcDbEntity
  8
0
 62
     0
100
AcDbLine
 10
-4.486526
 20
39.854763
 30
0.0
 11
-4.486526
 21
39.854763
 31
0.0
  0
LINE
  5
5C4
100
AcDbEntity
  8
0
 62
     0
100
AcDbLine
 10
-3.531751
 20
38.979874
 30
0.0
 11
-3.531751
 21
38.979874
 31
0.0
  0
LINE
  5
5C5
100
AcDbEntity
  8
0
 62
     0
100
AcDbLine
 10
-2.177004
 20
37.738477
 30
0.0
 11
-2.177004
 21
37.738477
 31
0.0
  0
LINE
  5
5C6
100
AcDbEntity
  8
0
 62
     0
100
AcDbLine
 10
-1.577967
 20
37.18956
 30
0.0
 11
-1.577967
 21
37.18956
 31
0.0
  0
LINE
  5
5C7
100
AcDbEntity
  8
0
 62
     0
100
AcDbLine
 10
-0.623192
 20
36.314671
 30
0.0
 11
-0.623192
 21
36.314671
 31
0.0
  0
LINE
  5
5C8
100
AcDbEntity
  8
0
 62
     0
100
AcDbLine
 10
-5.944491
 20
39.604501
 30
0.0
 11
-5.944491
 21
39.604501
 31
0.0
  0
LINE
  5
5C9
100
AcDbEntity
  8
0
 62
     0
100
AcDbLine
 10
-4.989717
 20
38.729611
 30
0.0
 11
-4.989717
 21
38.729611
 31
0.0
  0
LINE
  5
5CA
100
AcDbEntity
  8
0
 62
     0
100
AcDbLine
 10
-3.63497
 20
37.488214
 30
0.0
 11
-3.63497
 21
37.488214
 31
0.0
  0
LINE
  5
5CB
100
AcDbEntity
  8
0
 62
     0
100
AcDbLine
 10
-3.035932
 20
36.939297
 30
0.0
 11
-3.035932
 21
36.939297
 31
0.0
  0
LINE
  5
5CC
100
AcDbEntity
  8
0
 62
     0
100
AcDbLine
 10
-2.081158
 20
36.064408
 30
0.0
 11
-2.081158
 21
36.064408
 31
0.0
  0
LINE
  5
5CD
100
AcDbEntity
  8
0
 62
     0
100
AcDbLine
 10
-0.726411
 20
34.823011
 30
0.0
 11
-0.726411
 21
34.823011
 31
0.0
  0
LINE
  5
5CE
100
AcDbEntity
  8
0
 62
     0
100
AcDbLine
 10
-5.092935
 20
37.237952
 30
0.0
 11
-5.092935
 21
37.237952
 31
0.0
  0
LINE
  5
5CF
100
AcDbEntity
  8
0
 62
     0
100
AcDbLine
 10
-4.493897
 20
36.689035
 30
0.0
 11
-4.493897
 21
36.689035
 31
0.0
  0
LINE
  5
5D0
100
AcDbEntity
  8
0
 62
     0
100
AcDbLine
 10
-3.539123
 20
35.814146
 30
0.0
 11
-3.539123
 21
35.814146
 31
0.0
  0
LINE
  5
5D1
100
AcDbEntity
  8
0
 62
     0
100
AcDbLine
 10
-2.184376
 20
34.572749
 30
0.0
 11
-2.184376
 21
34.572749
 31
0.0
  0
LINE
  5
5D2
100
AcDbEntity
  8
0
 62
     0
100
AcDbLine
 10
-1.585338
 20
34.023832
 30
0.0
 11
-1.585338
 21
34.023832
 31
0.0
  0
LINE
  5
5D3
100
AcDbEntity
  8
0
 62
     0
100
AcDbLine
 10
-0.630564
 20
33.148942
 30
0.0
 11
-0.630564
 21
33.148942
 31
0.0
  0
LINE
  5
5D4
100
AcDbEntity
  8
0
 62
     0
100
AcDbLine
 10
-5.951863
 20
36.438773
 30
0.0
 11
-5.951863
 21
36.438773
 31
0.0
  0
LINE
  5
5D5
100
AcDbEntity
  8
0
 62
     0
100
AcDbLine
 10
-4.997089
 20
35.563883
 30
0.0
 11
-4.997089
 21
35.563883
 31
0.0
  0
LINE
  5
5D6
100
AcDbEntity
  8
0
 62
     0
100
AcDbLine
 10
-3.642342
 20
34.322486
 30
0.0
 11
-3.642342
 21
34.322486
 31
0.0
  0
LINE
  5
5D7
100
AcDbEntity
  8
0
 62
     0
100
AcDbLine
 10
-3.043304
 20
33.773569
 30
0.0
 11
-3.043304
 21
33.773569
 31
0.0
  0
LINE
  5
5D8
100
AcDbEntity
  8
0
 62
     0
100
AcDbLine
 10
-2.08853
 20
32.89868
 30
0.0
 11
-2.08853
 21
32.89868
 31
0.0
  0
LINE
  5
5D9
100
AcDbEntity
  8
0
 62
     0
100
AcDbLine
 10
-5.100307
 20
34.072224
 30
0.0
 11
-5.100307
 21
34.072224
 31
0.0
  0
LINE
  5
5DA
100
AcDbEntity
  8
0
 62
     0
100
AcDbLine
 10
-5.959235
 20
33.273044
 30
0.0
 11
-5.959235
 21
33.273044
 31
0.0
  0
ENDBLK
  5
5DB
100
AcDbEntity
  8
0
100
AcDbBlockEnd
  0
ENDSEC
  0
SECTION
  2
ENTITIES
  0
LINE
  5
5DC
100
AcDbEntity
  8
DRAWING
100
AcDbLine
 10
23.693513
 20
47.029053
 30
0.0
 11
47.943513
 21
47.029053
 31
0.0
  0
LINE
  5
5DD
100
AcDbEntity
  8
DRAWING
100
AcDbLine
 10
26.443513
 20
37.529053
 30
0.0
 11
47.943513
 21
37.529053
 31
0.0
  0
LINE
  5
5DE
100
AcDbEntity
  8
DRAWING
100
AcDbLine
 10
20.943513
 20
48.279053
 30
0.0
 11
47.943513
 21
48.279053
 31
0.0
  0
TEXT
  5
5DF
100
AcDbEntity
  8
DIM_TEXT
100
AcDbText
 10
39.483513
 20
58.294194
 30
0.0
 40
1.125
  1
Rastra Block Wall
 51
15.0
  7
INFO
 11
39.483513
 21
58.856694
 31
0.0
100
AcDbText
 73
     2
  0
TEXT
  5
5E1
100
AcDbEntity
  8
DIM_TEXT
100
AcDbText
 10
40.563513
 20
52.294194
 30
0.0
 40
1.125
  1
3x Pressure Treated Ledger (see Plan)
 51
15.0
  7
INFO
 11
40.563513
 21
52.856694
 31
0.0
100
AcDbText
 73
     2
  0
LINE
  5
5E2
100
AcDbEntity
  8
DIM_TEXT
100
AcDbLine
 10
37.883081
 20
38.260168
 30
0.0
 11
53.943513
 21
31.856694
 31
0.0
  0
LINE
  5
5E3
100
AcDbEntity
  8
DIM_TEXT
100
AcDbLine
 10
25.812526
 20
37.778636
 30
0.0
 11
53.943513
 21
22.856694
 31
0.0
  0
TEXT
  5
5E4
100
AcDbEntity
  8
DIM_TEXT
100
AcDbText
 10
31.563513
 20
16.294194
 30
0.0
 40
1.125
  1
Cut 6" diameter hole
 51
15.0
  7
INFO
 11
31.563513
 21
16.856694
 31
0.0
100
AcDbText
 73
     2
  0
TEXT
  5
5E5
100
AcDbEntity
  8
DIM_TEXT
100
AcDbText
 10
31.563513
 20
14.733932
 30
0.0
 40
1.125
  1
from Form @ ea. Bolt location
 51
15.0
  7
INFO
 11
31.563513
 21
15.296432
 31
0.0
100
AcDbText
 73
     2
  0
TEXT
  5
5E6
100
AcDbEntity
  8
DIM_TEXT
100
AcDbText
 10
31.563513
 20
13.192932
 30
0.0
 40
1.125
  1
to allow direct bearing
 51
15.0
  7
INFO
 11
31.563513
 21
13.755432
 31
0.0
100
AcDbText
 73
     2
  0
TEXT
  5
5E7
100
AcDbEntity
  8
DIM_TEXT
100
AcDbText
 10
31.563513
 20
11.671195
 30
0.0
 40
1.125
  1
of Ledger to concrete.
 51
15.0
  7
INFO
 11
31.563513
 21
12.233695
 31
0.0
100
AcDbText
 73
     2
  0
LINE
  5
5E8
100
AcDbEntity
  8
DIM_TEXT
100
AcDbLine
 10
32.943513
 20
43.856694
 30
0.0
 11
53.943513
 21
43.856694
 31
0.0
  0
TEXT
  5
5E9
100
AcDbEntity
  8
DRAWING
100
AcDbText
 10
26.943513
 20
4.856694
 30
0.0
 40
2.5
  1
FLOOR LEDGER
  7
TITLE
 72
     1
 11
41.943513
 21
4.856694
 31
0.0
100
AcDbText
  0
INSERT
  5
5EB
100
AcDbEntity
  8
HATCH
100
AcDbBlockReference
  2
*X1
 10
-0.056487
 20
-16.143306
 30
0.0
1001
ACAD
1000
HATCH
1002
{
1070
    16
1000
ANSI38
1040
4.0
1040
0.0
1002
}
  0
LINE
  5
5EC
100
AcDbEntity
  8
DRAWING
100
AcDbLine
 10
20.943513
 20
28.856694
 30
0.0
 11
20.943513
 21
58.856694
 31
0.0
  0
LINE
  5
5ED
100
AcDbEntity
  8
DRAWING
100
AcDbLine
 10
8.943513
 20
28.856694
 30
0.0
 11
8.943513
 21
58.856694
 31
0.0
  0
ARC
  5
5EE
100
AcDbEntity
  8
DRAWING
100
AcDbCircle
 10
14.943513
 20
28.856694
 30
0.0
 40
3.0
100
AcDbArc
 50
360.0
 51
180.0
  0
LINE
  5
5EF
100
AcDbEntity
  8
DRAWING
100
AcDbLine
 10
11.943513
 20
28.856694
 30
0.0
 11
11.943513
 21
58.856694
 31
0.0
  0
LINE
  5
5F0
100
AcDbEntity
  8
DRAWING
100
AcDbLine
 10
17.943513
 20
40.490473
 30
0.0
 11
17.943513
 21
28.856694
 31
0.0
  0
INSERT
  5
5F1
100
AcDbEntity
  8
HATCH
100
AcDbBlockReference
  2
*X0
 10
-54.083284
 20
-14.105947
 30
0.0
1001
ACAD
1000
HATCH
1002
{
1070
    16
1000
ANSI33
1040
5.0
1040
0.0
1002
}
  0
LINE
  5
5F2
100
AcDbEntity
  8
DIM_TEXT
100
AcDbLine
 10
19.6491
 20
40.858748
 30
0.0
 11
29.943513
 21
16.856694
 31
0.0
  0
LINE
  5
5F3
100
AcDbEntity
  8
DIM_TEXT
100
AcDbLine
 10
29.943513
 20
16.856694
 30
0.0
 11
31.023513
 21
16.856694
 31
0.0
  0
CIRCLE
  5
5F4
100
AcDbEntity
  8
DRAWING
100
AcDbCircle
 10
14.943513
 20
43.856694
 30
0.0
 40
3.0
  0
ARC
  5
5F5
100
AcDbEntity
  8
DRAWING
100
AcDbCircle
 10
14.943513
 20
58.856694
 30
0.0
 40
3.0
100
AcDbArc
 50
180.0
 51
0.0
  0
LWPOLYLINE
  5
5F6
100
AcDbEntity
  8
DRAWING
100
AcDbPolyline
 90
        4
 70
     0
 43
0.4
 10
20.943513
 20
44.573823
 10
14.918232
 20
44.573823
 42
0.414214
 10
14.518232
 20
44.173823
 10
14.518232
 20
42.255402
  0
LINE
  5
5FC
100
AcDbEntity
  8
DRAWING
100
AcDbLine
 10
11.943513
 20
43.856694
 30
0.0
 11
8.943513
 21
43.856694
 31
0.0
  0
LINE
  5
5FD
100
AcDbEntity
  8
DRAWING
100
AcDbLine
 10
17.943513
 20
58.856694
 30
0.0
 11
17.943513
 21
46.490473
 31
0.0
  0
LINE
  5
5FE
100
AcDbEntity
  8
DIM_TEXT
100
AcDbLine
 10
22.38438
 20
55.534289
 30
0.0
 11
38.943513
 21
58.856694
 31
0.0
  0
LINE
  5
5FF
100
AcDbEntity
  8
DIM_TEXT
100
AcDbLine
 10
23.340434
 20
46.449807
 30
0.0
 11
38.943513
 21
52.856694
 31
0.0
  0
LINE
  5
600
100
AcDbEntity
  8
DIM_TEXT
100
AcDbLine
 10
26.611868
 20
44.451271
 30
0.0
 11
32.943513
 21
43.856694
 31
0.0
  0
LINE
  5
601
100
AcDbEntity
  8
DIM_TEXT
100
AcDbLine
 10
26.847069
 20
41.057755
 30
0.0
 11
32.943513
 21
43.856694
 31
0.0
  0
LINE
  5
602
100
AcDbEntity
  8
HATCH
100
AcDbLine
 10
20.943513
 20
47.029053
 30
0.0
 11
23.693513
 21
37.529053
 31
0.0
  0
LINE
  5
603
100
AcDbEntity
  8
HATCH
100
AcDbLine
 10
23.693513
 20
47.029053
 30
0.0
 11
20.943513
 21
37.529053
 31
0.0
  0
LINE
  5
604
100
AcDbEntity
  8
DRAWING
100
AcDbLine
 10
24.193513
 20
43.948823
 30
0.0
 11
26.443513
 21
37.529053
 31
0.0
  0
LINE
  5
605
100
AcDbEntity
  8
DRAWING
100
AcDbLine
 10
20.943513
 20
37.529053
 30
0.0
 11
20.943513
 21
47.029053
 31
0.0
  0
LINE
  5
606
100
AcDbEntity
  8
DRAWING
100
AcDbLine
 10
23.693513
 20
47.029053
 30
0.0
 11
23.693513
 21
37.529053
 31
0.0
  0
LINE
  5
607
100
AcDbEntity
  8
DRAWING
100
AcDbLine
 10
26.443513
 20
37.529053
 30
0.0
 11
23.693513
 21
37.529053
 31
0.0
  0
LINE
  5
608
100
AcDbEntity
  8
DRAWING
100
AcDbLine
 10
17.943513
 20
40.490473
 30
0.0
 11
20.943513
 21
40.490473
 31
0.0
  0
SOLID
  5
609
100
AcDbEntity
  8
DIM_TEXT
100
AcDbTrace
 10
19.483673
 20
40.787797
 30
0.0
 11
19.814526
 21
40.929699
 31
0.0
 12
19.223394
 22
41.851307
 32
0.0
 13
19.223394
 23
41.851307
 33
0.0
  0
LINE
  5
60A
100
AcDbEntity
  8
DRAWING
100
AcDbLine
 10
23.693513
 20
37.529053
 30
0.0
 11
20.943513
 21
37.529053
 31
0.0
  0
SOLID
  5
60B
100
AcDbEntity
  8
DIM_TEXT
100
AcDbTrace
 10
25.728178
 20
37.619622
 30
0.0
 11
25.896874
 21
37.93765
 31
0.0
 12
24.858443
 22
38.284725
 32
0.0
 13
24.858443
 23
38.284725
 33
0.0
  0
SOLID
  5
60C
100
AcDbEntity
  8
DIM_TEXT
100
AcDbTrace
 10
26.922172
 20
40.894171
 30
0.0
 11
26.771966
 21
41.221338
 31
0.0
 12
25.865568
 22
40.607138
 32
0.0
 13
25.865568
 23
40.607138
 33
0.0
  0
LINE
  5
60D
100
AcDbEntity
  8
DRAWING
100
AcDbLine
 10
23.693513
 20
44.249315
 30
0.0
 11
24.193513
 21
44.249315
 31
0.0
  0
LINE
  5
60E
100
AcDbEntity
  8
DRAWING
100
AcDbLine
 10
23.693513
 20
44.893751
 30
0.0
 11
24.193513
 21
44.893751
 31
0.0
  0
LINE
  5
60F
100
AcDbEntity
  8
DRAWING
100
AcDbLine
 10
23.693513
 20
45.198823
 30
0.0
 11
24.193513
 21
45.198823
 31
0.0
  0
LINE
  5
610
100
AcDbEntity
  8
DRAWING
100
AcDbLine
 10
24.193513
 20
43.948823
 30
0.0
 11
23.693513
 21
43.948823
 31
0.0
  0
LINE
  5
611
100
AcDbEntity
  8
DRAWING
100
AcDbLine
 10
17.943513
 20
46.490473
 30
0.0
 11
20.943513
 21
46.490473
 31
0.0
  0
LINE
  5
612
100
AcDbEntity
  8
DRAWING
100
AcDbLine
 10
17.943513
 20
43.856694
 30
0.0
 11
20.943513
 21
43.856694
 31
0.0
  0
SOLID
  5
613
100
AcDbEntity
  8
DIM_TEXT
100
AcDbTrace
 10
23.408806
 20
46.283297
 30
0.0
 11
23.272063
 21
46.616316
 31
0.0
 12
22.341379
 22
46.039577
 32
0.0
 13
22.341379
 23
46.039577
 33
0.0
  0
LINE
  5
614
100
AcDbEntity
  8
DRAWING
100
AcDbLine
 10
23.693513
 20
43.948823
 30
0.0
 11
23.693513
 21
45.198823
 31
0.0
  0
LINE
  5
615
100
AcDbEntity
  8
DRAWING
100
AcDbLine
 10
20.943513
 20
47.029053
 30
0.0
 11
23.693513
 21
47.029053
 31
0.0
  0
SOLID
  5
616
100
AcDbEntity
  8
DIM_TEXT
100
AcDbTrace
 10
22.419789
 20
55.357806
 30
0.0
 11
22.34897
 21
55.710771
 31
0.0
 12
21.325483
 22
55.321833
 32
0.0
 13
21.325483
 23
55.321833
 33
0.0
  0
SOLID
  5
617
100
AcDbEntity
  8
DIM_TEXT
100
AcDbTrace
 10
26.595039
 20
44.272059
 30
0.0
 11
26.628697
 21
44.630482
 31
0.0
 12
25.536599
 22
44.552244
 32
0.0
 13
25.536599
 23
44.552244
 33
0.0
  0
LWPOLYLINE
  5
618
100
AcDbEntity
  8
DRAWING
100
AcDbPolyline
 90
        2
 70
     0
 43
0.4
 10
24.193513
 20
44.573823
 10
25.193513
 20
44.573823
  0
LINE
  5
61C
100
AcDbEntity
  8
DRAWING
100
AcDbLine
 10
24.193513
 20
45.198823
 30
0.0
 11
24.193513
 21
43.948823
 31
0.0
  0
SOLID
  5
61D
100
AcDbEntity
  8
DIM_TEXT
100
AcDbTrace
 10
37.816416
 20
38.092967
 30
0.0
 11
37.949745
 21
38.427368
 31
0.0
 12
36.87988
 22
38.660155
 32
0.0
 13
36.87988
 23
38.660155
 33
0.0
  0
LINE
  5
61E
100
AcDbEntity
  8
DIM_TEXT
100
AcDbLine
 10
32.943513
 20
43.856694
 30
0.0
 11
34.023513
 21
43.856694
 31
0.0
  0
LINE
  5
61F
100
AcDbEntity
  8
DIM_TEXT
100
AcDbLine
 10
38.943513
 20
52.856694
 30
0.0
 11
40.023513
 21
52.856694
 31
0.0
  0
TEXT
  5
620
100
AcDbEntity
  8
DIM_TEXT
100
AcDbText
 10
55.563513
 20
22.294194
 30
0.0
 40
1.125
  1
Joist Hanger
 51
15.0
  7
INFO
 11
55.563513
 21
22.856694
 31
0.0
100
AcDbText
 73
     2
  0
LINE
  5
621
100
AcDbEntity
  8
DIM_TEXT
100
AcDbLine
 10
53.943513
 20
22.856694
 30
0.0
 11
55.023513
 21
22.856694
 31
0.0
  0
TEXT
  5
622
100
AcDbEntity
  8
DIM_TEXT
100
AcDbText
 10
54.483513
 20
41.755602
 30
0.0
 40
1.125
  1
staggered along Ledger.
 51
15.0
  7
INFO
 11
54.483513
 21
42.318102
 31
0.0
100
AcDbText
 73
     2
  0
TEXT
  5
623
100
AcDbEntity
  8
DIM_TEXT
100
AcDbText
 10
54.483513
 20
40.205538
 30
0.0
 40
1.125
  1
(see Plan for Size & Spacing).
 51
15.0
  7
INFO
 11
54.483513
 21
40.768038
 31
0.0
100
AcDbText
 73
     2
  0
TEXT
  5
624
100
AcDbEntity
  8
DIM_TEXT
100
AcDbText
 10
54.483513
 20
43.294194
 30
0.0
 40
1.125
  1
5/8" A-Bolts
 51
15.0
  7
INFO
 11
54.483513
 21
43.856694
 31
0.0
100
AcDbText
 73
     2
  0
TEXT
  5
625
100
AcDbEntity
  8
DIM_TEXT
100
AcDbText
 10
55.563513
 20
31.294194
 30
0.0
 40
1.125
  1
2x Floor Joists
 51
15.0
  7
INFO
 11
55.563513
 21
31.856694
 31
0.0
100
AcDbText
 73
     2
  0
LWPOLYLINE
  5
626
100
AcDbEntity
  8
HATCH
100
AcDbPolyline
 90
        6
 70
     0
 43
0.0
 10
47.943513
 20
34.304053
 10
47.943513
 20
40.754053
 10
45.793513
 20
38.872803
 10
50.093513
 20
46.935303
 10
47.943513
 20
45.054053
 10
47.943513
 20
47.029053
  0
LINE
  5
62E
100
AcDbEntity
  8
DIM_TEXT
100
AcDbLine
 10
53.943513
 20
31.856694
 30
0.0
 11
55.023513
 21
31.856694
 31
0.0
  0
LWPOLYLINE
  5
62F
100
AcDbEntity
  8
HATCH
100
AcDbPolyline
 90
        2
 70
     0
 43
0.0
 10
47.943513
 20
47.029053
 10
47.943513
 20
51.504053
  0
LINE
  5
633
100
AcDbEntity
  8
DRAWING
100
AcDbLine
 10
14.943513
 20
58.758629
 30
0.0
 11
14.943513
 21
28.758629
 31
0.0
  0
CIRCLE
  5
634
100
AcDbEntity
  8
DRAWING
100
AcDbCircle
 10
15.406017
 20
41.406289
 30
0.0
 40
0.242342
  0
LWPOLYLINE
  5
635
100
AcDbEntity
  8
HATCH
100
AcDbPolyline
 90
        6
 70
     0
 43
0.0
 10
6.669648
 20
28.856694
 10
13.374822
 20
28.856694
 10
12.937499
 20
30.856694
 10
16.762002
 20
26.856694
 10
16.380937
 20
28.856694
 10
23.49356
 20
28.856694
  0
LWPOLYLINE
  5
63D
100
AcDbEntity
  8
HATCH
100
AcDbPolyline
 90
        6
 70
     0
 43
0.0
 10
6.669648
 20
58.856694
 10
13.374822
 20
58.856694
 10
12.937499
 20
60.856694
 10
16.762002
 20
56.856694
 10
16.380937
 20
58.856694
 10
23.49356
 20
58.856694
  0
INSERT
  5
645
100
AcDbEntity
  8
HATCH
100
AcDbBlockReference
  2
*X2
 10
18.117739
 20
-4.25
 30
0.0
1001
ACAD
1000
HATCH
1002
{
1070
    16
1000
AR-CONC
1040
0.25
1040
0.0
1002
}
  0
LINE
  5
651
100
AcDbEntity
  8
DRAWING
100
AcDbLine
 10
23.693513
 20
41.001256
 30
0.0
 11
24.193513
 21
41.001256
 31
0.0
  0
LINE
  5
652
100
AcDbEntity
  8
DRAWING
100
AcDbLine
 10
23.693513
 20
40.696184
 30
0.0
 11
24.193513
 21
40.696184
 31
0.0
  0
LINE
  5
653
100
AcDbEntity
  8
DRAWING
100
AcDbLine
 10
24.193513
 20
41.001256
 30
0.0
 11
24.193513
 21
39.751256
 31
0.0
  0
LINE
  5
654
100
AcDbEntity
  8
DRAWING
100
AcDbLine
 10
23.693513
 20
40.051748
 30
0.0
 11
24.193513
 21
40.051748
 31
0.0
  0
LINE
  5
655
100
AcDbEntity
  8
DRAWING
100
AcDbLine
 10
24.193513
 20
39.751256
 30
0.0
 11
23.693513
 21
39.751256
 31
0.0
  0
LWPOLYLINE
  5
656
100
AcDbEntity
  8
DRAWING
100
AcDbPolyline
 90
        2
 70
     0
 43
0.4
 10
24.193513
 20
40.376256
 10
25.193513
 20
40.376256
  0
ENDSEC
  0
SECTION
  2
OBJECTS
  0
DICTIONARY
  5
C
100
AcDbDictionary
  3
ACAD_GROUP
350
D
  3
ACAD_MLINESTYLE
350
1A
  3
ACDBVARIABLEDICTIONARY
350
2C
  0
DICTIONARY
  5
D
102
{ACAD_REACTORS
330
C
102
}
100
AcDbDictionary
  0
DICTIONARY
  5
1A
102
{ACAD_REACTORS
330
C
102
}
100
AcDbDictionary
  3
STANDARD
350
1B
  0
DICTIONARY
  5
2C
102
{ACAD_REACTORS
330
C
102
}
100
AcDbDictionary
  3
DIMADEC
350
2D
  0
MLINESTYLE
  5
1B
102
{ACAD_REACTORS
330
1A
102
}
100
AcDbMlineStyle
  2
STANDARD
 70
     0
  3

 62
   256
 51
90.0
 52
90.0
 71
     2
 49
0.5
 62
   256
  6
BYLAYER
 49
-0.5
 62
   256
  6
BYLAYER
  0
DICTIONARYVAR
  5
2D
102
{ACAD_REACTORS
330
2C
102
}
100
DictionaryVariables
280
     0
  1
0
  0
ENDSEC
  0
EOF
