  0
SECTION
  2
HEADER
  9
$ACADVER
  1
AC1014
  9
$ACADMAINTVER
 70
     8
  9
$DWGCODEPAGE
  3
ANSI_1252
  9
$INSBASE
 10
0.0
 20
0.0
 30
0.0
  9
$EXTMIN
 10
3.192087
 20
4.991508
 30
0.0
  9
$EXTMAX
 10
71.878696
 20
64.064713
 30
0.0
  9
$LIMMIN
 10
0.0
 20
0.0
  9
$LIMMAX
 10
85.0
 20
110.0
  9
$ORTHOMODE
 70
     1
  9
$REGENMODE
 70
     1
  9
$FILLMODE
 70
     1
  9
$QTEXTMODE
 70
     0
  9
$MIRRTEXT
 70
     1
  9
$DRAGMODE
 70
     2
  9
$LTSCALE
 40
1.0
  9
$OSMODE
 70
    37
  9
$ATTMODE
 70
     1
  9
$TEXTSIZE
 40
0.2
  9
$TRACEWID
 40
0.05
  9
$TEXTSTYLE
  7
STANDARD
  9
$CLAYER
  8
0
  9
$CELTYPE
  6
BYLAYER
  9
$CECOLOR
 62
   256
  9
$CELTSCALE
 40
1.0
  9
$DELOBJ
 70
     1
  9
$DISPSILH
 70
     0
  9
$DIMSCALE
 40
1.0
  9
$DIMASZ
 40
0.18
  9
$DIMEXO
 40
0.0625
  9
$DIMDLI
 40
0.38
  9
$DIMRND
 40
0.0
  9
$DIMDLE
 40
0.0
  9
$DIMEXE
 40
0.18
  9
$DIMTP
 40
0.0
  9
$DIMTM
 40
0.0
  9
$DIMTXT
 40
0.18
  9
$DIMCEN
 40
0.09
  9
$DIMTSZ
 40
0.0
  9
$DIMTOL
 70
     0
  9
$DIMLIM
 70
     0
  9
$DIMTIH
 70
     1
  9
$DIMTOH
 70
     1
  9
$DIMSE1
 70
     0
  9
$DIMSE2
 70
     0
  9
$DIMTAD
 70
     0
  9
$DIMZIN
 70
     0
  9
$DIMBLK
  1

  9
$DIMASO
 70
     1
  9
$DIMSHO
 70
     1
  9
$DIMPOST
  1

  9
$DIMAPOST
  1

  9
$DIMALT
 70
     0
  9
$DIMALTD
 70
     2
  9
$DIMALTF
 40
25.4
  9
$DIMLFAC
 40
1.0
  9
$DIMTOFL
 70
     0
  9
$DIMTVP
 40
0.0
  9
$DIMTIX
 70
     0
  9
$DIMSOXD
 70
     0
  9
$DIMSAH
 70
     0
  9
$DIMBLK1
  1

  9
$DIMBLK2
  1

  9
$DIMSTYLE
  2
STANDARD
  9
$DIMCLRD
 70
     0
  9
$DIMCLRE
 70
     0
  9
$DIMCLRT
 70
     0
  9
$DIMTFAC
 40
1.0
  9
$DIMGAP
 40
0.09
  9
$DIMJUST
 70
     0
  9
$DIMSD1
 70
     0
  9
$DIMSD2
 70
     0
  9
$DIMTOLJ
 70
     1
  9
$DIMTZIN
 70
     0
  9
$DIMALTZ
 70
     0
  9
$DIMALTTZ
 70
     0
  9
$DIMFIT
 70
     5
  9
$DIMUPT
 70
     0
  9
$DIMUNIT
 70
     4
  9
$DIMDEC
 70
     4
  9
$DIMTDEC
 70
     4
  9
$DIMALTU
 70
     4
  9
$DIMALTTD
 70
     2
  9
$DIMTXSTY
  7
STANDARD
  9
$DIMAUNIT
 70
     2
  9
$LUNITS
 70
     4
  9
$LUPREC
 70
     4
  9
$SKETCHINC
 40
0.1
  9
$FILLETRAD
 40
0.0
  9
$AUNITS
 70
     2
  9
$AUPREC
 70
     0
  9
$MENU
  1
acad
  9
$ELEVATION
 40
0.0
  9
$PELEVATION
 40
0.0
  9
$THICKNESS
 40
0.0
  9
$LIMCHECK
 70
     0
  9
$BLIPMODE
 70
     1
  9
$CHAMFERA
 40
0.0
  9
$CHAMFERB
 40
0.0
  9
$CHAMFERC
 40
0.0
  9
$CHAMFERD
 40
0.0
  9
$SKPOLY
 70
     0
  9
$TDCREATE
 40
2451165.750322222
  9
$TDUPDATE
 40
2452237.735576851
  9
$TDINDWG
 40
0.0770297454
  9
$TDUSRTIMER
 40
0.0770297454
  9
$USRTIMER
 70
     1
  9
$ANGBASE
 50
0.0
  9
$ANGDIR
 70
     0
  9
$PDMODE
 70
     0
  9
$PDSIZE
 40
0.0
  9
$PLINEWID
 40
0.0
  9
$COORDS
 70
     1
  9
$SPLFRAME
 70
     0
  9
$SPLINETYPE
 70
     6
  9
$SPLINESEGS
 70
     8
  9
$ATTDIA
 70
     0
  9
$ATTREQ
 70
     1
  9
$HANDLING
 70
     1
  9
$HANDSEED
  5
2B2
  9
$SURFTAB1
 70
     6
  9
$SURFTAB2
 70
     6
  9
$SURFTYPE
 70
     6
  9
$SURFU
 70
     6
  9
$SURFV
 70
     6
  9
$UCSNAME
  2

  9
$UCSORG
 10
0.0
 20
0.0
 30
0.0
  9
$UCSXDIR
 10
1.0
 20
0.0
 30
0.0
  9
$UCSYDIR
 10
0.0
 20
1.0
 30
0.0
  9
$PUCSNAME
  2

  9
$PUCSORG
 10
0.0
 20
0.0
 30
0.0
  9
$PUCSXDIR
 10
1.0
 20
0.0
 30
0.0
  9
$PUCSYDIR
 10
0.0
 20
1.0
 30
0.0
  9
$USERI1
 70
     0
  9
$USERI2
 70
     0
  9
$USERI3
 70
     0
  9
$USERI4
 70
     0
  9
$USERI5
 70
     0
  9
$USERR1
 40
0.0
  9
$USERR2
 40
0.0
  9
$USERR3
 40
0.0
  9
$USERR4
 40
0.0
  9
$USERR5
 40
0.0
  9
$WORLDVIEW
 70
     1
  9
$SHADEDGE
 70
     3
  9
$SHADEDIF
 70
    70
  9
$TILEMODE
 70
     1
  9
$MAXACTVP
 70
    16
  9
$PINSBASE
 10
0.0
 20
0.0
 30
0.0
  9
$PLIMCHECK
 70
     0
  9
$PEXTMIN
 10
1.000000E+20
 20
1.000000E+20
 30
1.000000E+20
  9
$PEXTMAX
 10
-1.000000E+20
 20
-1.000000E+20
 30
-1.000000E+20
  9
$PLIMMIN
 10
0.0
 20
0.0
  9
$PLIMMAX
 10
12.0
 20
9.0
  9
$UNITMODE
 70
     0
  9
$VISRETAIN
 70
     0
  9
$PLINEGEN
 70
     0
  9
$PSLTSCALE
 70
     1
  9
$TREEDEPTH
 70
  3020
  9
$PICKSTYLE
 70
     1
  9
$CMLSTYLE
  2
STANDARD
  9
$CMLJUST
 70
     0
  9
$CMLSCALE
 40
1.0
  9
$PROXYGRAPHICS
 70
     1
  9
$MEASUREMENT
 70
     0
  0
ENDSEC
  0
SECTION
  2
CLASSES
  0
CLASS
  1
DICTIONARYVAR
  2
AcDbDictionaryVar
  3
"AutoCAD"
 90
        0
280
     0
281
     0
  0
ENDSEC
  0
SECTION
  2
TABLES
  0
TABLE
  2
VPORT
  5
8
100
AcDbSymbolTable
 70
     1
  0
VPORT
  5
2AB
100
AcDbSymbolTableRecord
100
AcDbViewportTableRecord
  2
*ACTIVE
 70
     0
 10
0.0
 20
0.0
 11
1.0
 21
1.0
 12
38.617814
 22
35.001245
 13
0.0
 23
0.0
 14
1.0
 24
1.0
 15
1.0
 25
1.0
 16
0.0
 26
0.0
 36
1.0
 17
0.0
 27
0.0
 37
0.0
 40
67.781637
 41
1.474388
 42
50.0
 43
0.0
 44
0.0
 50
0.0
 51
0.0
 71
     0
 72
   100
 73
     1
 74
     1
 75
     0
 76
     0
 77
     0
 78
     0
  0
ENDTAB
  0
TABLE
  2
LTYPE
  5
5
100
AcDbSymbolTable
 70
     1
  0
LTYPE
  5
11
100
AcDbSymbolTableRecord
100
AcDbLinetypeTableRecord
  2
BYBLOCK
 70
     0
  3

 72
    65
 73
     0
 40
0.0
  0
LTYPE
  5
12
100
AcDbSymbolTableRecord
100
AcDbLinetypeTableRecord
  2
BYLAYER
 70
     0
  3

 72
    65
 73
     0
 40
0.0
  0
LTYPE
  5
13
100
AcDbSymbolTableRecord
100
AcDbLinetypeTableRecord
  2
CONTINUOUS
 70
     0
  3
Solid line
 72
    65
 73
     0
 40
0.0
  0
ENDTAB
  0
TABLE
  2
LAYER
  5
2
100
AcDbSymbolTable
 70
     6
  0
LAYER
  5
E
100
AcDbSymbolTableRecord
100
AcDbLayerTableRecord
  2
0
 70
     0
 62
     7
  6
CONTINUOUS
  0
LAYER
  5
22
100
AcDbSymbolTableRecord
100
AcDbLayerTableRecord
  2
DRAWING
 70
     0
 62
     7
  6
CONTINUOUS
  0
LAYER
  5
23
100
AcDbSymbolTableRecord
100
AcDbLayerTableRecord
  2
HATCH
 70
     0
 62
     3
  6
CONTINUOUS
  0
LAYER
  5
24
100
AcDbSymbolTableRecord
100
AcDbLayerTableRecord
  2
DIM_TEXT
 70
     0
 62
     6
  6
CONTINUOUS
  0
LAYER
  5
25C
100
AcDbSymbolTableRecord
100
AcDbLayerTableRecord
  2
BORDER
 70
     0
 62
    14
  6
CONTINUOUS
  0
LAYER
  5
25D
100
AcDbSymbolTableRecord
100
AcDbLayerTableRecord
  2
RF-SW
 70
     0
 62
     9
  6
CONTINUOUS
  0
ENDTAB
  0
TABLE
  2
STYLE
  5
3
100
AcDbSymbolTable
 70
     5
  0
STYLE
  5
F
100
AcDbSymbolTableRecord
100
AcDbTextStyleTableRecord
  2
STANDARD
 70
     0
 40
0.0
 41
1.0
 50
0.0
 71
     0
 42
0.2
  3
txt
  4

  0
STYLE
  5
1C
100
AcDbSymbolTableRecord
100
AcDbTextStyleTableRecord
  2
INFO
 70
     0
 40
0.0
 41
1.0
 50
15.0
 71
     0
 42
1.08
  3
C:\ACADWIN\FONTS\ROMANS.SHX
  4

  0
STYLE
  5
1D
100
AcDbSymbolTableRecord
100
AcDbTextStyleTableRecord
  2
TITLE
 70
     0
 40
0.0
 41
1.0
 50
0.0
 71
     0
 42
2.8
  3
C:\ACADWIN\FONTS\ROMANC.SHX
  4

  0
STYLE
  5
25E
100
AcDbSymbolTableRecord
100
AcDbTextStyleTableRecord
  2
ROMAN
 70
     0
 40
0.0
 41
1.0
 50
0.0
 71
     0
 42
2.25
  3
romans.shx
  4

  0
STYLE
  5
25F
100
AcDbSymbolTableRecord
100
AcDbTextStyleTableRecord
  2
ROMANS
 70
     0
 40
0.0
 41
1.0
 50
0.0
 71
     0
 42
2.25
  3
romans
  4

  0
ENDTAB
  0
TABLE
  2
VIEW
  5
6
100
AcDbSymbolTable
 70
     0
  0
ENDTAB
  0
TABLE
  2
UCS
  5
7
100
AcDbSymbolTable
 70
     0
  0
ENDTAB
  0
TABLE
  2
APPID
  5
9
100
AcDbSymbolTable
 70
     2
  0
APPID
  5
10
100
AcDbSymbolTableRecord
100
AcDbRegAppTableRecord
  2
ACAD
 70
     0
  0
APPID
  5
21
100
AcDbSymbolTableRecord
100
AcDbRegAppTableRecord
  2
ZIMM
 70
     0
  0
ENDTAB
  0
TABLE
  2
DIMSTYLE
  5
A
100
AcDbSymbolTable
 70
     2
  0
DIMSTYLE
105
253
100
AcDbSymbolTableRecord
100
AcDbDimStyleTableRecord
  2
STANDARD
 70
     0
  3

  4

  5

  6

  7

 40
1.0
 41
0.18
 42
0.0625
 43
0.38
 44
0.18
 45
0.0
 46
0.0
 47
0.0
 48
0.0
140
0.18
141
0.09
142
0.0
143
25.4
144
1.0
145
0.0
146
1.0
147
0.09
 71
     0
 72
     0
 73
     1
 74
     1
 75
     0
 76
     0
 77
     0
 78
     0
170
     0
171
     2
172
     0
173
     0
174
     0
175
     0
176
     0
177
     0
178
     0
270
     2
271
     4
272
     4
273
     2
274
     2
340
F
275
     0
280
     0
281
     0
282
     0
283
     1
284
     0
285
     0
286
     0
287
     3
288
     0
  0
DIMSTYLE
105
260
100
AcDbSymbolTableRecord
100
AcDbDimStyleTableRecord
  2
ARCHITECTURAL
 70
     0
  3

  4

  5

  6

  7

 40
1.0
 41
0.125
 42
0.0
 43
0.375
 44
0.0
 45
0.0
 46
0.0
 47
0.0
 48
0.0
140
0.09375
141
0.0625
142
0.0
143
25.4
144
1.0
145
0.0
146
1.0
147
0.0
 71
     0
 72
     0
 73
     0
 74
     0
 75
     0
 76
     0
 77
     1
 78
    13
170
     0
171
     2
172
     0
173
     0
174
     0
175
     0
176
    13
177
    13
178
     7
270
     6
271
     4
272
     4
273
     2
274
     2
340
25F
275
     1
280
     0
281
     0
282
     0
283
     1
284
    13
285
     0
286
     0
287
     3
288
     0
  0
ENDTAB
  0
TABLE
  2
BLOCK_RECORD
  5
1
100
AcDbSymbolTable
 70
     2
  0
BLOCK_RECORD
  5
17
100
AcDbSymbolTableRecord
100
AcDbBlockTableRecord
  2
*MODEL_SPACE
  0
BLOCK_RECORD
  5
14
100
AcDbSymbolTableRecord
100
AcDbBlockTableRecord
  2
*PAPER_SPACE
  0
BLOCK_RECORD
  5
256
100
AcDbSymbolTableRecord
100
AcDbBlockTableRecord
  2
_CLOSEDBLANK
  0
BLOCK_RECORD
  5
261
100
AcDbSymbolTableRecord
100
AcDbBlockTableRecord
  2
A$C4268076B
  0
ENDTAB
  0
ENDSEC
  0
SECTION
  2
BLOCKS
  0
BLOCK
  5
27
100
AcDbEntity
  8
0
100
AcDbBlockBegin
  2
*MODEL_SPACE
 70
     0
 10
0.0
 20
0.0
 30
0.0
  3
*MODEL_SPACE
  1

  0
ENDBLK
  5
28
100
AcDbEntity
  8
0
100
AcDbBlockEnd
  0
BLOCK
  5
25
100
AcDbEntity
 67
     1
  8
0
100
AcDbBlockBegin
  2
*PAPER_SPACE
 70
     0
 10
0.0
 20
0.0
 30
0.0
  3
*PAPER_SPACE
  1

  0
ENDBLK
  5
26
100
AcDbEntity
 67
     1
  8
0
100
AcDbBlockEnd
  0
BLOCK
  5
25A
100
AcDbEntity
  8
0
100
AcDbBlockBegin
  2
_CLOSEDBLANK
 70
     0
 10
0.0
 20
0.0
 30
0.0
  3
_CLOSEDBLANK
  1

  0
LINE
  5
257
100
AcDbEntity
  8
0
  6
BYBLOCK
 62
     0
100
AcDbLine
 10
-1.0
 20
0.166667
 30
0.0
 11
0.0
 21
0.0
 31
0.0
  0
LINE
  5
258
100
AcDbEntity
  8
0
  6
BYBLOCK
 62
     0
100
AcDbLine
 10
0.0
 20
0.0
 30
0.0
 11
-1.0
 21
-0.166667
 31
0.0
  0
LINE
  5
259
100
AcDbEntity
  8
0
  6
BYBLOCK
 62
     0
100
AcDbLine
 10
-1.0
 20
0.166667
 30
0.0
 11
-1.0
 21
-0.166667
 31
0.0
  0
ENDBLK
  5
25B
100
AcDbEntity
  8
0
100
AcDbBlockEnd
  0
BLOCK
  5
282
100
AcDbEntity
  8
0
100
AcDbBlockBegin
  2
A$C4268076B
 70
     0
 10
0.0
 20
0.0
 30
0.0
  3
A$C4268076B
  1

  0
TEXT
  5
262
100
AcDbEntity
  8
BORDER
  6
CONTINUOUS
 62
    15
100
AcDbText
 10
7.860816
 20
34.370492
 30
0.0
 40
1.125
  1
TRUSS BOTTOM CHORD
  7
ROMAN
100
AcDbText
  0
TEXT
  5
263
100
AcDbEntity
  8
BORDER
  6
CONTINUOUS
 62
    15
100
AcDbText
 10
45.032318
 20
36.238047
 30
0.0
 40
1.125
  1
ROOF/WALL ANCHORAGE
  7
ROMAN
100
AcDbText
  0
LINE
  5
264
100
AcDbEntity
  8
BORDER
  6
CONTINUOUS
 62
    15
100
AcDbLine
 10
43.125243
 20
36.769647
 30
0.0
 11
39.490473
 21
30.381884
 31
0.0
  0
LINE
  5
265
100
AcDbEntity
  8
BORDER
  6
CONTINUOUS
 62
    15
100
AcDbLine
 10
29.002161
 20
34.905437
 30
0.0
 11
31.875929
 21
31.195626
 31
0.0
  0
LINE
  5
266
100
AcDbEntity
  8
BORDER
  6
CONTINUOUS
 62
    15
100
AcDbLine
 10
44.678018
 20
36.769647
 30
0.0
 11
43.125243
 21
36.769647
 31
0.0
  0
LINE
  5
267
100
AcDbEntity
  8
BORDER
  6
CONTINUOUS
 62
    15
100
AcDbLine
 10
39.164507
 20
30.567424
 30
0.0
 11
39.81644
 21
30.196344
 31
0.0
  0
LINE
  5
268
100
AcDbEntity
  8
BORDER
  6
CONTINUOUS
 62
    15
100
AcDbLine
 10
38.934154
 20
29.403983
 30
0.0
 11
39.81644
 21
30.196344
 31
0.0
  0
LINE
  5
269
100
AcDbEntity
  8
BORDER
  6
CONTINUOUS
 62
    15
100
AcDbLine
 10
38.934154
 20
29.403983
 30
0.0
 11
39.164507
 21
30.567424
 31
0.0
  0
LINE
  5
26A
100
AcDbEntity
  8
BORDER
  6
CONTINUOUS
 62
    15
100
AcDbLine
 10
32.573115
 20
30.312225
 30
0.0
 11
31.598015
 21
30.987225
 31
0.0
  0
LINE
  5
26B
100
AcDbEntity
  8
BORDER
  6
CONTINUOUS
 62
    15
100
AcDbLine
 10
31.598015
 20
30.987225
 30
0.0
 11
32.198115
 21
31.437225
 31
0.0
  0
LINE
  5
26C
100
AcDbEntity
  8
BORDER
  6
CONTINUOUS
 62
    15
100
AcDbLine
 10
32.573115
 20
30.312225
 30
0.0
 11
32.198115
 21
31.437225
 31
0.0
  0
LINE
  5
26D
100
AcDbEntity
  8
BORDER
  6
CONTINUOUS
 62
    15
100
AcDbLine
 10
27.62139
 20
34.865659
 30
0.0
 11
29.053016
 21
34.906903
 31
0.0
  0
LINE
  5
26E
100
AcDbEntity
  8
BORDER
  6
CONTINUOUS
 62
    15
100
AcDbLine
 10
29.644462
 20
19.418239
 30
0.0
 11
34.136503
 21
25.217115
 31
0.0
  0
LINE
  5
26F
100
AcDbEntity
  8
BORDER
  6
CONTINUOUS
 62
    15
100
AcDbLine
 10
34.811603
 20
26.117115
 30
0.0
 11
34.436603
 21
24.992115
 31
0.0
  0
LINE
  5
270
100
AcDbEntity
  8
BORDER
  6
CONTINUOUS
 62
    15
100
AcDbLine
 10
34.811603
 20
26.117115
 30
0.0
 11
33.836503
 21
25.442115
 31
0.0
  0
LINE
  5
271
100
AcDbEntity
  8
BORDER
  6
CONTINUOUS
 62
    15
100
AcDbLine
 10
33.836503
 20
25.442115
 30
0.0
 11
34.436603
 21
24.992115
 31
0.0
  0
LINE
  5
272
100
AcDbEntity
  8
BORDER
  6
CONTINUOUS
 62
    15
100
AcDbLine
 10
28.26369
 20
19.37846
 30
0.0
 11
29.695317
 21
19.419704
 31
0.0
  0
TEXT
  5
273
100
AcDbEntity
  8
BORDER
  6
CONTINUOUS
 62
    15
100
AcDbText
 10
-0.160714
 20
18.805271
 30
0.0
 40
1.125
  1
2 X 6 PL. WITH ANCHOR BOLTS
  7
ROMAN
100
AcDbText
  0
TEXT
  5
274
100
AcDbEntity
  8
BORDER
  6
CONTINUOUS
 62
    15
100
AcDbText
 10
-0.160714
 20
16.998925
 30
0.0
 40
1.125
  1
(MIN.-1/2"%%C A.B. @ 45" O.C.)
  7
ROMAN
100
AcDbText
  0
LINE
  5
275
100
AcDbEntity
  8
BORDER
  6
CONTINUOUS
 62
    15
100
AcDbLine
 10
47.976603
 20
16.924415
 30
0.0
 11
46.559203
 21
16.924415
 31
0.0
  0
LINE
  5
276
100
AcDbEntity
  8
BORDER
  6
CONTINUOUS
 62
    15
100
AcDbLine
 10
46.559203
 20
16.924415
 30
0.0
 11
43.463203
 21
18.674315
 31
0.0
  0
TEXT
  5
277
100
AcDbEntity
  8
BORDER
  6
CONTINUOUS
 62
    15
100
AcDbText
 10
48.330903
 20
16.392815
 30
0.0
 40
1.125
  1
RASTRA WALL
  7
ROMAN
100
AcDbText
  0
LINE
  5
278
100
AcDbEntity
  8
BORDER
  6
CONTINUOUS
 62
    15
100
AcDbLine
 10
43.647803
 20
19.000815
 30
0.0
 11
43.278603
 21
18.347815
 31
0.0
  0
LINE
  5
279
100
AcDbEntity
  8
BORDER
  6
CONTINUOUS
 62
    15
100
AcDbLine
 10
42.483703
 20
19.227815
 30
0.0
 11
43.647803
 21
19.000815
 31
0.0
  0
LINE
  5
27A
100
AcDbEntity
  8
BORDER
  6
CONTINUOUS
 62
    15
100
AcDbLine
 10
42.483703
 20
19.227815
 30
0.0
 11
43.278603
 21
18.347815
 31
0.0
  0
LEADER
  5
27B
100
AcDbEntity
  8
RF-SW
 62
    13
100
AcDbLeader
  3
ARCHITECTURAL
 76
     3
 10
36.438825
 20
11.032556
 30
0.0
 10
25.252687
 20
3.957397
 30
0.0
 10
23.463418
 20
3.957397
 30
0.0
 77
    13
1001
ACAD
1000
DSTYLE
1002
{
1070
    40
1040
12.0
1070
   173
1070
     1
1070
     7
1000
_CLOSEDBLANK
1070
     6
1000
_CLOSEDBLANK
1002
}
  0
LEADER
  5
27C
100
AcDbEntity
  8
RF-SW
 62
    13
100
AcDbLeader
  3
ARCHITECTURAL
 76
     3
 10
37.51576
 20
9.837567
 30
0.0
 10
47.299045
 20
6.956544
 30
0.0
 10
49.088313
 20
6.956544
 30
0.0
 77
    13
211
-1.0
221
0.0
231
0.0
1001
ACAD
1000
DSTYLE
1002
{
1070
    40
1040
12.0
1070
   173
1070
     1
1070
     7
1000
_CLOSEDBLANK
1070
     6
1000
_CLOSEDBLANK
1002
}
  0
TEXT
  5
27D
100
AcDbEntity
  8
0
  6
CONTINUOUS
 62
    15
100
AcDbText
 10
49.599809
 20
6.67321
 30
0.0
 40
1.125
  1
VERT. REINF.
  7
ROMAN
100
AcDbText
  0
TEXT
  5
27E
100
AcDbEntity
  8
0
  6
CONTINUOUS
 62
    15
100
AcDbText
 10
48.732489
 20
5.223672
 30
0.0
 40
1.125
  1
(MIN. #4 @ 30" O.C.
  7
ROMAN
100
AcDbText
  0
TEXT
  5
27F
100
AcDbEntity
  8
0
  6
CONTINUOUS
 62
    15
100
AcDbText
 10
11.827286
 20
3.55954
 30
0.0
 40
1.125
  1
HORIZ. REINF.
  7
ROMAN
100
AcDbText
  0
TEXT
  5
280
100
AcDbEntity
  8
0
  6
CONTINUOUS
 62
    15
100
AcDbText
 10
6.188454
 20
2.006321
 30
0.0
 40
1.125
  1
(MIN. #4 @ 30" O.C.
  7
ROMAN
100
AcDbText
  0
TEXT
  5
281
100
AcDbEntity
  8
0
  6
CONTINUOUS
 62
    15
100
AcDbText
 10
3.499835
 20
0.375
 30
0.0
 40
1.125
  1
REQUIRED, PER DESIGN)
  7
ROMAN
100
AcDbText
  0
ENDBLK
  5
283
100
AcDbEntity
  8
0
100
AcDbBlockEnd
  0
ENDSEC
  0
SECTION
  2
ENTITIES
  0
LINE
  5
2B
100
AcDbEntity
  8
DRAWING
100
AcDbLine
 10
61.384395
 20
51.646508
 30
0.0
 11
21.660795
 21
45.025608
 31
0.0
  0
LINE
  5
2C
100
AcDbEntity
  8
DRAWING
100
AcDbLine
 10
38.598795
 20
51.396908
 30
0.0
 11
20.735195
 21
48.419608
 31
0.0
  0
TEXT
  5
2D
100
AcDbEntity
  8
DIM_TEXT
100
AcDbText
 10
7.938595
 20
52.201408
 30
0.0
 40
1.125
  1
TRUSS BOTTOM CHORD
 51
15.0
  7
INFO
100
AcDbText
  0
TEXT
  5
2F
100
AcDbEntity
  8
DRAWING
100
AcDbText
 10
18.279995
 20
9.491508
 30
0.0
 40
2.5
  1
NON-BEARING WALL TO
  7
TITLE
100
AcDbText
  0
LINE
  5
31
100
AcDbEntity
  8
HATCH
100
AcDbLine
 10
20.555595
 20
49.077108
 30
0.0
 11
20.975995
 21
47.535408
 31
0.0
  0
LINE
  5
32
100
AcDbEntity
  8
HATCH
100
AcDbLine
 10
21.465695
 20
45.740208
 30
0.0
 11
21.902195
 21
44.139508
 31
0.0
  0
LINE
  5
33
100
AcDbEntity
  8
HATCH
100
AcDbLine
 10
20.998395
 20
47.541608
 30
0.0
 11
22.091195
 21
47.305308
 31
0.0
  0
LINE
  5
34
100
AcDbEntity
  8
HATCH
100
AcDbLine
 10
22.091195
 20
47.305308
 30
0.0
 11
20.053595
 21
45.740208
 31
0.0
  0
LINE
  5
35
100
AcDbEntity
  8
HATCH
100
AcDbLine
 10
20.053595
 20
45.740208
 30
0.0
 11
21.589295
 21
45.740208
 31
0.0
  0
LINE
  5
36
100
AcDbEntity
  8
DRAWING
100
AcDbLine
 10
45.432995
 20
25.626808
 30
0.0
 11
45.432995
 21
33.657508
 31
0.0
  0
LINE
  5
37
100
AcDbEntity
  8
DRAWING
100
AcDbLine
 10
35.432995
 20
33.657508
 30
0.0
 11
35.432995
 21
25.626808
 31
0.0
  0
LINE
  5
38
100
AcDbEntity
  8
DRAWING
100
AcDbLine
 10
37.307995
 20
33.657508
 30
0.0
 11
37.307995
 21
25.626808
 31
0.0
  0
LINE
  5
39
100
AcDbEntity
  8
DRAWING
100
AcDbLine
 10
43.557995
 20
25.626808
 30
0.0
 11
43.557995
 21
33.657508
 31
0.0
  0
LINE
  5
3A
100
AcDbEntity
  8
DRAWING
100
AcDbLine
 10
40.187195
 20
48.068708
 30
0.0
 11
40.187195
 21
26.156508
 31
0.0
  0
LINE
  5
3B
100
AcDbEntity
  8
HATCH
100
AcDbLine
 10
37.841395
 20
27.142608
 30
0.0
 11
37.900295
 21
27.164008
 31
0.0
  0
LINE
  5
3C
100
AcDbEntity
  8
HATCH
100
AcDbLine
 10
40.190795
 20
27.997708
 30
0.0
 11
40.249695
 21
28.019008
 31
0.0
  0
LINE
  5
3D
100
AcDbEntity
  8
HATCH
100
AcDbLine
 10
42.540195
 20
28.852708
 30
0.0
 11
42.598995
 21
28.874108
 31
0.0
  0
LINE
  5
3E
100
AcDbEntity
  8
HATCH
100
AcDbLine
 10
41.045795
 20
25.648408
 30
0.0
 11
41.104595
 21
25.669808
 31
0.0
  0
LINE
  5
3F
100
AcDbEntity
  8
HATCH
100
AcDbLine
 10
43.395195
 20
26.503508
 30
0.0
 11
43.453995
 21
26.524808
 31
0.0
  0
LINE
  5
40
100
AcDbEntity
  8
HATCH
100
AcDbLine
 10
38.712095
 20
27.716908
 30
0.0
 11
38.747895
 21
27.768208
 31
0.0
  0
LINE
  5
41
100
AcDbEntity
  8
HATCH
100
AcDbLine
 10
40.759895
 20
26.283108
 30
0.0
 11
40.795795
 21
26.334308
 31
0.0
  0
LINE
  5
42
100
AcDbEntity
  8
HATCH
100
AcDbLine
 10
42.193995
 20
28.330908
 30
0.0
 11
42.229895
 21
28.382208
 31
0.0
  0
LINE
  5
43
100
AcDbEntity
  8
HATCH
100
AcDbLine
 10
39.010195
 20
26.301308
 30
0.0
 11
39.020895
 21
26.362908
 31
0.0
  0
LINE
  5
44
100
AcDbEntity
  8
HATCH
100
AcDbLine
 10
39.444195
 20
28.763408
 30
0.0
 11
39.454995
 21
28.824908
 31
0.0
  0
LINE
  5
45
100
AcDbEntity
  8
HATCH
100
AcDbLine
 10
41.471795
 20
25.867208
 30
0.0
 11
41.482595
 21
25.928808
 31
0.0
  0
LINE
  5
46
100
AcDbEntity
  8
HATCH
100
AcDbLine
 10
41.905895
 20
28.329308
 30
0.0
 11
41.916595
 21
28.390908
 31
0.0
  0
LINE
  5
47
100
AcDbEntity
  8
HATCH
100
AcDbLine
 10
35.879795
 20
29.303008
 30
0.0
 11
35.879795
 21
29.303008
 31
0.0
  0
LINE
  5
48
100
AcDbEntity
  8
HATCH
100
AcDbLine
 10
36.348495
 20
29.303008
 30
0.0
 11
36.348495
 21
29.303008
 31
0.0
  0
LINE
  5
49
100
AcDbEntity
  8
HATCH
100
AcDbLine
 10
36.817295
 20
29.303008
 30
0.0
 11
36.817295
 21
29.303008
 31
0.0
  0
LINE
  5
4A
100
AcDbEntity
  8
HATCH
100
AcDbLine
 10
37.285995
 20
29.303008
 30
0.0
 11
37.285995
 21
29.303008
 31
0.0
  0
LINE
  5
4B
100
AcDbEntity
  8
HATCH
100
AcDbLine
 10
35.645395
 20
28.834208
 30
0.0
 11
35.645395
 21
28.834208
 31
0.0
  0
LINE
  5
4C
100
AcDbEntity
  8
HATCH
100
AcDbLine
 10
36.114195
 20
28.834208
 30
0.0
 11
36.114195
 21
28.834208
 31
0.0
  0
LINE
  5
4D
100
AcDbEntity
  8
HATCH
100
AcDbLine
 10
36.582895
 20
28.834208
 30
0.0
 11
36.582895
 21
28.834208
 31
0.0
  0
LINE
  5
4E
100
AcDbEntity
  8
HATCH
100
AcDbLine
 10
37.051695
 20
28.834208
 30
0.0
 11
37.051695
 21
28.834208
 31
0.0
  0
LINE
  5
4F
100
AcDbEntity
  8
HATCH
100
AcDbLine
 10
35.879795
 20
28.365508
 30
0.0
 11
35.879795
 21
28.365508
 31
0.0
  0
LINE
  5
50
100
AcDbEntity
  8
HATCH
100
AcDbLine
 10
36.348495
 20
28.365508
 30
0.0
 11
36.348495
 21
28.365508
 31
0.0
  0
LINE
  5
51
100
AcDbEntity
  8
HATCH
100
AcDbLine
 10
36.817295
 20
28.365508
 30
0.0
 11
36.817295
 21
28.365508
 31
0.0
  0
LINE
  5
52
100
AcDbEntity
  8
HATCH
100
AcDbLine
 10
37.285995
 20
28.365508
 30
0.0
 11
37.285995
 21
28.365508
 31
0.0
  0
LINE
  5
53
100
AcDbEntity
  8
HATCH
100
AcDbLine
 10
35.645395
 20
27.896708
 30
0.0
 11
35.645395
 21
27.896708
 31
0.0
  0
LINE
  5
54
100
AcDbEntity
  8
HATCH
100
AcDbLine
 10
36.114195
 20
27.896708
 30
0.0
 11
36.114195
 21
27.896708
 31
0.0
  0
LINE
  5
55
100
AcDbEntity
  8
HATCH
100
AcDbLine
 10
36.582895
 20
27.896708
 30
0.0
 11
36.582895
 21
27.896708
 31
0.0
  0
LINE
  5
56
100
AcDbEntity
  8
HATCH
100
AcDbLine
 10
37.051695
 20
27.896708
 30
0.0
 11
37.051695
 21
27.896708
 31
0.0
  0
LINE
  5
57
100
AcDbEntity
  8
HATCH
100
AcDbLine
 10
35.879795
 20
27.428008
 30
0.0
 11
35.879795
 21
27.428008
 31
0.0
  0
LINE
  5
58
100
AcDbEntity
  8
HATCH
100
AcDbLine
 10
36.348495
 20
27.428008
 30
0.0
 11
36.348495
 21
27.428008
 31
0.0
  0
LINE
  5
59
100
AcDbEntity
  8
HATCH
100
AcDbLine
 10
36.817295
 20
27.428008
 30
0.0
 11
36.817295
 21
27.428008
 31
0.0
  0
LINE
  5
5A
100
AcDbEntity
  8
HATCH
100
AcDbLine
 10
37.285995
 20
27.428008
 30
0.0
 11
37.285995
 21
27.428008
 31
0.0
  0
LINE
  5
5B
100
AcDbEntity
  8
HATCH
100
AcDbLine
 10
35.645395
 20
26.959208
 30
0.0
 11
35.645395
 21
26.959208
 31
0.0
  0
LINE
  5
5C
100
AcDbEntity
  8
HATCH
100
AcDbLine
 10
36.114195
 20
26.959208
 30
0.0
 11
36.114195
 21
26.959208
 31
0.0
  0
LINE
  5
5D
100
AcDbEntity
  8
HATCH
100
AcDbLine
 10
36.582895
 20
26.959208
 30
0.0
 11
36.582895
 21
26.959208
 31
0.0
  0
LINE
  5
5E
100
AcDbEntity
  8
HATCH
100
AcDbLine
 10
37.051695
 20
26.959208
 30
0.0
 11
37.051695
 21
26.959208
 31
0.0
  0
LINE
  5
5F
100
AcDbEntity
  8
HATCH
100
AcDbLine
 10
35.879795
 20
26.490508
 30
0.0
 11
35.879795
 21
26.490508
 31
0.0
  0
LINE
  5
60
100
AcDbEntity
  8
HATCH
100
AcDbLine
 10
36.348495
 20
26.490508
 30
0.0
 11
36.348495
 21
26.490508
 31
0.0
  0
LINE
  5
61
100
AcDbEntity
  8
HATCH
100
AcDbLine
 10
36.817295
 20
26.490508
 30
0.0
 11
36.817295
 21
26.490508
 31
0.0
  0
LINE
  5
62
100
AcDbEntity
  8
HATCH
100
AcDbLine
 10
37.285995
 20
26.490508
 30
0.0
 11
37.285995
 21
26.490508
 31
0.0
  0
LINE
  5
63
100
AcDbEntity
  8
HATCH
100
AcDbLine
 10
35.645395
 20
26.021708
 30
0.0
 11
35.645395
 21
26.021708
 31
0.0
  0
LINE
  5
64
100
AcDbEntity
  8
HATCH
100
AcDbLine
 10
36.114195
 20
26.021708
 30
0.0
 11
36.114195
 21
26.021708
 31
0.0
  0
LINE
  5
65
100
AcDbEntity
  8
HATCH
100
AcDbLine
 10
36.582895
 20
26.021708
 30
0.0
 11
36.582895
 21
26.021708
 31
0.0
  0
LINE
  5
66
100
AcDbEntity
  8
HATCH
100
AcDbLine
 10
37.051695
 20
26.021708
 30
0.0
 11
37.051695
 21
26.021708
 31
0.0
  0
LINE
  5
67
100
AcDbEntity
  8
HATCH
100
AcDbLine
 10
43.848495
 20
29.303008
 30
0.0
 11
43.848495
 21
29.303008
 31
0.0
  0
LINE
  5
68
100
AcDbEntity
  8
HATCH
100
AcDbLine
 10
44.317295
 20
29.303008
 30
0.0
 11
44.317295
 21
29.303008
 31
0.0
  0
LINE
  5
69
100
AcDbEntity
  8
HATCH
100
AcDbLine
 10
44.785995
 20
29.303008
 30
0.0
 11
44.785995
 21
29.303008
 31
0.0
  0
LINE
  5
6A
100
AcDbEntity
  8
HATCH
100
AcDbLine
 10
45.254795
 20
29.303008
 30
0.0
 11
45.254795
 21
29.303008
 31
0.0
  0
LINE
  5
6B
100
AcDbEntity
  8
HATCH
100
AcDbLine
 10
43.614195
 20
28.834208
 30
0.0
 11
43.614195
 21
28.834208
 31
0.0
  0
LINE
  5
6C
100
AcDbEntity
  8
HATCH
100
AcDbLine
 10
44.082895
 20
28.834208
 30
0.0
 11
44.082895
 21
28.834208
 31
0.0
  0
LINE
  5
6D
100
AcDbEntity
  8
HATCH
100
AcDbLine
 10
44.551695
 20
28.834208
 30
0.0
 11
44.551695
 21
28.834208
 31
0.0
  0
LINE
  5
6E
100
AcDbEntity
  8
HATCH
100
AcDbLine
 10
45.020395
 20
28.834208
 30
0.0
 11
45.020395
 21
28.834208
 31
0.0
  0
LINE
  5
6F
100
AcDbEntity
  8
HATCH
100
AcDbLine
 10
43.848495
 20
28.365508
 30
0.0
 11
43.848495
 21
28.365508
 31
0.0
  0
LINE
  5
70
100
AcDbEntity
  8
HATCH
100
AcDbLine
 10
44.317295
 20
28.365508
 30
0.0
 11
44.317295
 21
28.365508
 31
0.0
  0
LINE
  5
71
100
AcDbEntity
  8
HATCH
100
AcDbLine
 10
44.785995
 20
28.365508
 30
0.0
 11
44.785995
 21
28.365508
 31
0.0
  0
LINE
  5
72
100
AcDbEntity
  8
HATCH
100
AcDbLine
 10
45.254795
 20
28.365508
 30
0.0
 11
45.254795
 21
28.365508
 31
0.0
  0
LINE
  5
73
100
AcDbEntity
  8
HATCH
100
AcDbLine
 10
43.614195
 20
27.896708
 30
0.0
 11
43.614195
 21
27.896708
 31
0.0
  0
LINE
  5
74
100
AcDbEntity
  8
HATCH
100
AcDbLine
 10
44.082895
 20
27.896708
 30
0.0
 11
44.082895
 21
27.896708
 31
0.0
  0
LINE
  5
75
100
AcDbEntity
  8
HATCH
100
AcDbLine
 10
44.551695
 20
27.896708
 30
0.0
 11
44.551695
 21
27.896708
 31
0.0
  0
LINE
  5
76
100
AcDbEntity
  8
HATCH
100
AcDbLine
 10
45.020395
 20
27.896708
 30
0.0
 11
45.020395
 21
27.896708
 31
0.0
  0
LINE
  5
77
100
AcDbEntity
  8
HATCH
100
AcDbLine
 10
43.848495
 20
27.428008
 30
0.0
 11
43.848495
 21
27.428008
 31
0.0
  0
LINE
  5
78
100
AcDbEntity
  8
HATCH
100
AcDbLine
 10
44.317295
 20
27.428008
 30
0.0
 11
44.317295
 21
27.428008
 31
0.0
  0
LINE
  5
79
100
AcDbEntity
  8
HATCH
100
AcDbLine
 10
44.785995
 20
27.428008
 30
0.0
 11
44.785995
 21
27.428008
 31
0.0
  0
LINE
  5
7A
100
AcDbEntity
  8
HATCH
100
AcDbLine
 10
45.254795
 20
27.428008
 30
0.0
 11
45.254795
 21
27.428008
 31
0.0
  0
LINE
  5
7B
100
AcDbEntity
  8
HATCH
100
AcDbLine
 10
43.614195
 20
26.959208
 30
0.0
 11
43.614195
 21
26.959208
 31
0.0
  0
LINE
  5
7C
100
AcDbEntity
  8
HATCH
100
AcDbLine
 10
44.082895
 20
26.959208
 30
0.0
 11
44.082895
 21
26.959208
 31
0.0
  0
LINE
  5
7D
100
AcDbEntity
  8
HATCH
100
AcDbLine
 10
44.551695
 20
26.959208
 30
0.0
 11
44.551695
 21
26.959208
 31
0.0
  0
LINE
  5
7E
100
AcDbEntity
  8
HATCH
100
AcDbLine
 10
45.020395
 20
26.959208
 30
0.0
 11
45.020395
 21
26.959208
 31
0.0
  0
LINE
  5
7F
100
AcDbEntity
  8
HATCH
100
AcDbLine
 10
43.848495
 20
26.490508
 30
0.0
 11
43.848495
 21
26.490508
 31
0.0
  0
LINE
  5
80
100
AcDbEntity
  8
HATCH
100
AcDbLine
 10
44.317295
 20
26.490508
 30
0.0
 11
44.317295
 21
26.490508
 31
0.0
  0
LINE
  5
81
100
AcDbEntity
  8
HATCH
100
AcDbLine
 10
44.785995
 20
26.490508
 30
0.0
 11
44.785995
 21
26.490508
 31
0.0
  0
LINE
  5
82
100
AcDbEntity
  8
HATCH
100
AcDbLine
 10
45.254795
 20
26.490508
 30
0.0
 11
45.254795
 21
26.490508
 31
0.0
  0
LINE
  5
83
100
AcDbEntity
  8
HATCH
100
AcDbLine
 10
43.614195
 20
26.021708
 30
0.0
 11
43.614195
 21
26.021708
 31
0.0
  0
LINE
  5
84
100
AcDbEntity
  8
HATCH
100
AcDbLine
 10
44.082895
 20
26.021708
 30
0.0
 11
44.082895
 21
26.021708
 31
0.0
  0
LINE
  5
85
100
AcDbEntity
  8
HATCH
100
AcDbLine
 10
44.551695
 20
26.021708
 30
0.0
 11
44.551695
 21
26.021708
 31
0.0
  0
LINE
  5
86
100
AcDbEntity
  8
HATCH
100
AcDbLine
 10
45.020395
 20
26.021708
 30
0.0
 11
45.020395
 21
26.021708
 31
0.0
  0
LINE
  5
87
100
AcDbEntity
  8
HATCH
100
AcDbLine
 10
46.566095
 20
25.626808
 30
0.0
 11
42.136395
 21
25.626808
 31
0.0
  0
LINE
  5
88
100
AcDbEntity
  8
HATCH
100
AcDbLine
 10
38.710595
 20
25.626808
 30
0.0
 11
34.280895
 21
25.626808
 31
0.0
  0
LINE
  5
89
100
AcDbEntity
  8
HATCH
100
AcDbLine
 10
38.710595
 20
25.626808
 30
0.0
 11
39.537495
 21
27.280608
 31
0.0
  0
LINE
  5
8A
100
AcDbEntity
  8
HATCH
100
AcDbLine
 10
39.537495
 20
27.280608
 30
0.0
 11
41.486495
 21
23.973008
 31
0.0
  0
LINE
  5
8B
100
AcDbEntity
  8
HATCH
100
AcDbLine
 10
41.486495
 20
23.973008
 30
0.0
 11
42.136395
 21
25.626808
 31
0.0
  0
LINE
  5
8F
100
AcDbEntity
  8
DRAWING
100
AcDbLine
 10
45.432995
 20
33.657508
 30
0.0
 11
43.557995
 21
33.657508
 31
0.0
  0
LINE
  5
90
100
AcDbEntity
  8
DRAWING
100
AcDbLine
 10
37.307995
 20
33.657508
 30
0.0
 11
35.432995
 21
33.657508
 31
0.0
  0
LINE
  5
91
100
AcDbEntity
  8
DRAWING
100
AcDbLine
 10
35.432995
 20
33.657508
 30
0.0
 11
37.307995
 21
33.657508
 31
0.0
  0
LINE
  5
92
100
AcDbEntity
  8
DRAWING
100
AcDbLine
 10
45.432995
 20
33.657508
 30
0.0
 11
45.432995
 21
48.657508
 31
0.0
  0
LINE
  5
93
100
AcDbEntity
  8
DRAWING
100
AcDbLine
 10
45.432995
 20
48.657508
 30
0.0
 11
43.557995
 21
48.657508
 31
0.0
  0
LINE
  5
94
100
AcDbEntity
  8
DRAWING
100
AcDbLine
 10
35.432995
 20
47.321108
 30
0.0
 11
35.432995
 21
33.657508
 31
0.0
  0
LINE
  5
95
100
AcDbEntity
  8
DRAWING
100
AcDbLine
 10
37.307995
 20
47.633608
 30
0.0
 11
37.307995
 21
33.657508
 31
0.0
  0
LINE
  5
96
100
AcDbEntity
  8
DRAWING
100
AcDbLine
 10
43.557995
 20
33.657508
 30
0.0
 11
43.557995
 21
48.657508
 31
0.0
  0
ARC
  5
97
100
AcDbEntity
  8
DRAWING
100
AcDbCircle
 10
40.432995
 20
33.657508
 30
0.0
 40
3.0
100
AcDbArc
 50
0.0
 51
180.0
  0
ARC
  5
98
100
AcDbEntity
  8
DRAWING
100
AcDbCircle
 10
40.432995
 20
48.657508
 30
0.0
 40
3.0
100
AcDbArc
 50
198.9821
 51
268.802431
  0
LINE
  5
99
100
AcDbEntity
  8
DRAWING
100
AcDbLine
 10
43.557995
 20
33.657508
 30
0.0
 11
45.432995
 21
33.657508
 31
0.0
  0
LINE
  5
9A
100
AcDbEntity
  8
HATCH
100
AcDbLine
 10
39.335795
 20
45.347008
 30
0.0
 11
39.394695
 21
45.368308
 31
0.0
  0
LINE
  5
9B
100
AcDbEntity
  8
HATCH
100
AcDbLine
 10
37.841395
 20
42.142608
 30
0.0
 11
37.900295
 21
42.164008
 31
0.0
  0
LINE
  5
9C
100
AcDbEntity
  8
HATCH
100
AcDbLine
 10
40.190795
 20
42.997708
 30
0.0
 11
40.249695
 21
43.019008
 31
0.0
  0
LINE
  5
9D
100
AcDbEntity
  8
HATCH
100
AcDbLine
 10
42.540195
 20
43.852708
 30
0.0
 11
42.598995
 21
43.874108
 31
0.0
  0
LINE
  5
9E
100
AcDbEntity
  8
HATCH
100
AcDbLine
 10
38.696395
 20
39.793408
 30
0.0
 11
38.755295
 21
39.814708
 31
0.0
  0
LINE
  5
9F
100
AcDbEntity
  8
HATCH
100
AcDbLine
 10
41.045795
 20
40.648408
 30
0.0
 11
41.104595
 21
40.669808
 31
0.0
  0
LINE
  5
A0
100
AcDbEntity
  8
HATCH
100
AcDbLine
 10
43.395195
 20
41.503508
 30
0.0
 11
43.453995
 21
41.524808
 31
0.0
  0
LINE
  5
A1
100
AcDbEntity
  8
HATCH
100
AcDbLine
 10
39.551395
 20
37.444108
 30
0.0
 11
39.610195
 21
37.465508
 31
0.0
  0
LINE
  5
A2
100
AcDbEntity
  8
HATCH
100
AcDbLine
 10
41.900795
 20
38.299208
 30
0.0
 11
41.959595
 21
38.320608
 31
0.0
  0
LINE
  5
A3
100
AcDbEntity
  8
HATCH
100
AcDbLine
 10
42.755495
 20
35.950008
 30
0.0
 11
42.814295
 21
35.971408
 31
0.0
  0
LINE
  5
A4
100
AcDbEntity
  8
HATCH
100
AcDbLine
 10
38.097995
 20
46.198808
 30
0.0
 11
38.133895
 21
46.250008
 31
0.0
  0
LINE
  5
A5
100
AcDbEntity
  8
HATCH
100
AcDbLine
 10
38.712095
 20
42.717008
 30
0.0
 11
38.747895
 21
42.768108
 31
0.0
  0
LINE
  5
A6
100
AcDbEntity
  8
HATCH
100
AcDbLine
 10
40.146095
 20
41.337508
 30
0.0
 11
40.181995
 21
41.388708
 31
0.0
  0
LINE
  5
A7
100
AcDbEntity
  8
HATCH
100
AcDbLine
 10
37.891695
 20
37.187308
 30
0.0
 11
37.927595
 21
37.238508
 31
0.0
  0
LINE
  5
A8
100
AcDbEntity
  8
HATCH
100
AcDbLine
 10
39.325795
 20
39.235208
 30
0.0
 11
39.361695
 21
39.286408
 31
0.0
  0
LINE
  5
A9
100
AcDbEntity
  8
HATCH
100
AcDbLine
 10
40.759895
 20
41.283108
 30
0.0
 11
40.795795
 21
41.334308
 31
0.0
  0
LINE
  5
AA
100
AcDbEntity
  8
HATCH
100
AcDbLine
 10
42.193995
 20
43.331008
 30
0.0
 11
42.229895
 21
43.382108
 31
0.0
  0
LINE
  5
AB
100
AcDbEntity
  8
HATCH
100
AcDbLine
 10
41.373695
 20
37.801308
 30
0.0
 11
41.409595
 21
37.852508
 31
0.0
  0
LINE
  5
AC
100
AcDbEntity
  8
HATCH
100
AcDbLine
 10
42.807795
 20
39.849208
 30
0.0
 11
42.843595
 21
39.900308
 31
0.0
  0
LINE
  5
AD
100
AcDbEntity
  8
HATCH
100
AcDbLine
 10
43.421295
 20
36.367508
 30
0.0
 11
43.457195
 21
36.418708
 31
0.0
  0
LINE
  5
AE
100
AcDbEntity
  8
HATCH
100
AcDbLine
 10
37.416395
 20
46.659508
 30
0.0
 11
37.427095
 21
46.721008
 31
0.0
  0
LINE
  5
AF
100
AcDbEntity
  8
HATCH
100
AcDbLine
 10
38.141995
 20
36.377208
 30
0.0
 11
38.152695
 21
36.438808
 31
0.0
  0
LINE
  5
B0
100
AcDbEntity
  8
HATCH
100
AcDbLine
 10
38.576095
 20
38.839308
 30
0.0
 11
38.586795
 21
38.900808
 31
0.0
  0
LINE
  5
B1
100
AcDbEntity
  8
HATCH
100
AcDbLine
 10
39.010195
 20
41.301308
 30
0.0
 11
39.020895
 21
41.362808
 31
0.0
  0
LINE
  5
B2
100
AcDbEntity
  8
HATCH
100
AcDbLine
 10
39.444195
 20
43.763408
 30
0.0
 11
39.454995
 21
43.824908
 31
0.0
  0
LINE
  5
B3
100
AcDbEntity
  8
HATCH
100
AcDbLine
 10
41.037695
 20
38.405208
 30
0.0
 11
41.048495
 21
38.466708
 31
0.0
  0
LINE
  5
B4
100
AcDbEntity
  8
HATCH
100
AcDbLine
 10
41.471795
 20
40.867208
 30
0.0
 11
41.482595
 21
40.928808
 31
0.0
  0
LINE
  5
B5
100
AcDbEntity
  8
HATCH
100
AcDbLine
 10
41.905895
 20
43.329308
 30
0.0
 11
41.916595
 21
43.390808
 31
0.0
  0
LINE
  5
B6
100
AcDbEntity
  8
HATCH
100
AcDbLine
 10
42.339995
 20
45.791308
 30
0.0
 11
42.350695
 21
45.852808
 31
0.0
  0
LINE
  5
B7
100
AcDbEntity
  8
HATCH
100
AcDbLine
 10
43.065595
 20
35.509108
 30
0.0
 11
43.076295
 21
35.570608
 31
0.0
  0
LINE
  5
B8
100
AcDbEntity
  8
HATCH
100
AcDbLine
 10
43.499695
 20
37.971108
 30
0.0
 11
43.510395
 21
38.032608
 31
0.0
  0
LINE
  5
B9
100
AcDbEntity
  8
HATCH
100
AcDbLine
 10
35.879795
 20
47.115408
 30
0.0
 11
35.879795
 21
47.115408
 31
0.0
  0
LINE
  5
BA
100
AcDbEntity
  8
HATCH
100
AcDbLine
 10
36.348495
 20
47.115408
 30
0.0
 11
36.348495
 21
47.115408
 31
0.0
  0
LINE
  5
BB
100
AcDbEntity
  8
HATCH
100
AcDbLine
 10
36.817295
 20
47.115408
 30
0.0
 11
36.817295
 21
47.115408
 31
0.0
  0
LINE
  5
BC
100
AcDbEntity
  8
HATCH
100
AcDbLine
 10
37.285995
 20
47.115408
 30
0.0
 11
37.285995
 21
47.115408
 31
0.0
  0
LINE
  5
BD
100
AcDbEntity
  8
HATCH
100
AcDbLine
 10
35.645395
 20
46.646708
 30
0.0
 11
35.645395
 21
46.646708
 31
0.0
  0
LINE
  5
BE
100
AcDbEntity
  8
HATCH
100
AcDbLine
 10
36.114195
 20
46.646708
 30
0.0
 11
36.114195
 21
46.646708
 31
0.0
  0
LINE
  5
BF
100
AcDbEntity
  8
HATCH
100
AcDbLine
 10
36.582895
 20
46.646708
 30
0.0
 11
36.582895
 21
46.646708
 31
0.0
  0
LINE
  5
C0
100
AcDbEntity
  8
HATCH
100
AcDbLine
 10
37.051695
 20
46.646708
 30
0.0
 11
37.051695
 21
46.646708
 31
0.0
  0
LINE
  5
C1
100
AcDbEntity
  8
HATCH
100
AcDbLine
 10
35.879795
 20
46.177908
 30
0.0
 11
35.879795
 21
46.177908
 31
0.0
  0
LINE
  5
C2
100
AcDbEntity
  8
HATCH
100
AcDbLine
 10
36.348495
 20
46.177908
 30
0.0
 11
36.348495
 21
46.177908
 31
0.0
  0
LINE
  5
C3
100
AcDbEntity
  8
HATCH
100
AcDbLine
 10
36.817295
 20
46.177908
 30
0.0
 11
36.817295
 21
46.177908
 31
0.0
  0
LINE
  5
C4
100
AcDbEntity
  8
HATCH
100
AcDbLine
 10
37.285995
 20
46.177908
 30
0.0
 11
37.285995
 21
46.177908
 31
0.0
  0
LINE
  5
C5
100
AcDbEntity
  8
HATCH
100
AcDbLine
 10
35.645395
 20
45.709208
 30
0.0
 11
35.645395
 21
45.709208
 31
0.0
  0
LINE
  5
C6
100
AcDbEntity
  8
HATCH
100
AcDbLine
 10
36.114195
 20
45.709208
 30
0.0
 11
36.114195
 21
45.709208
 31
0.0
  0
LINE
  5
C7
100
AcDbEntity
  8
HATCH
100
AcDbLine
 10
36.582895
 20
45.709208
 30
0.0
 11
36.582895
 21
45.709208
 31
0.0
  0
LINE
  5
C8
100
AcDbEntity
  8
HATCH
100
AcDbLine
 10
37.051695
 20
45.709208
 30
0.0
 11
37.051695
 21
45.709208
 31
0.0
  0
LINE
  5
C9
100
AcDbEntity
  8
HATCH
100
AcDbLine
 10
35.879795
 20
45.240408
 30
0.0
 11
35.879795
 21
45.240408
 31
0.0
  0
LINE
  5
CA
100
AcDbEntity
  8
HATCH
100
AcDbLine
 10
36.348495
 20
45.240408
 30
0.0
 11
36.348495
 21
45.240408
 31
0.0
  0
LINE
  5
CB
100
AcDbEntity
  8
HATCH
100
AcDbLine
 10
36.817295
 20
45.240408
 30
0.0
 11
36.817295
 21
45.240408
 31
0.0
  0
LINE
  5
CC
100
AcDbEntity
  8
HATCH
100
AcDbLine
 10
37.285995
 20
45.240408
 30
0.0
 11
37.285995
 21
45.240408
 31
0.0
  0
LINE
  5
CD
100
AcDbEntity
  8
HATCH
100
AcDbLine
 10
35.645395
 20
44.771708
 30
0.0
 11
35.645395
 21
44.771708
 31
0.0
  0
LINE
  5
CE
100
AcDbEntity
  8
HATCH
100
AcDbLine
 10
36.114195
 20
44.771708
 30
0.0
 11
36.114195
 21
44.771708
 31
0.0
  0
LINE
  5
CF
100
AcDbEntity
  8
HATCH
100
AcDbLine
 10
36.582895
 20
44.771708
 30
0.0
 11
36.582895
 21
44.771708
 31
0.0
  0
LINE
  5
D0
100
AcDbEntity
  8
HATCH
100
AcDbLine
 10
37.051695
 20
44.771708
 30
0.0
 11
37.051695
 21
44.771708
 31
0.0
  0
LINE
  5
D1
100
AcDbEntity
  8
HATCH
100
AcDbLine
 10
35.879795
 20
44.302908
 30
0.0
 11
35.879795
 21
44.302908
 31
0.0
  0
LINE
  5
D2
100
AcDbEntity
  8
HATCH
100
AcDbLine
 10
36.348495
 20
44.302908
 30
0.0
 11
36.348495
 21
44.302908
 31
0.0
  0
LINE
  5
D3
100
AcDbEntity
  8
HATCH
100
AcDbLine
 10
36.817295
 20
44.302908
 30
0.0
 11
36.817295
 21
44.302908
 31
0.0
  0
LINE
  5
D4
100
AcDbEntity
  8
HATCH
100
AcDbLine
 10
37.285995
 20
44.302908
 30
0.0
 11
37.285995
 21
44.302908
 31
0.0
  0
LINE
  5
D5
100
AcDbEntity
  8
HATCH
100
AcDbLine
 10
35.645395
 20
43.834208
 30
0.0
 11
35.645395
 21
43.834208
 31
0.0
  0
LINE
  5
D6
100
AcDbEntity
  8
HATCH
100
AcDbLine
 10
36.114195
 20
43.834208
 30
0.0
 11
36.114195
 21
43.834208
 31
0.0
  0
LINE
  5
D7
100
AcDbEntity
  8
HATCH
100
AcDbLine
 10
36.582895
 20
43.834208
 30
0.0
 11
36.582895
 21
43.834208
 31
0.0
  0
LINE
  5
D8
100
AcDbEntity
  8
HATCH
100
AcDbLine
 10
37.051695
 20
43.834208
 30
0.0
 11
37.051695
 21
43.834208
 31
0.0
  0
LINE
  5
D9
100
AcDbEntity
  8
HATCH
100
AcDbLine
 10
35.879795
 20
43.365408
 30
0.0
 11
35.879795
 21
43.365408
 31
0.0
  0
LINE
  5
DA
100
AcDbEntity
  8
HATCH
100
AcDbLine
 10
36.348495
 20
43.365408
 30
0.0
 11
36.348495
 21
43.365408
 31
0.0
  0
LINE
  5
DB
100
AcDbEntity
  8
HATCH
100
AcDbLine
 10
36.817295
 20
43.365408
 30
0.0
 11
36.817295
 21
43.365408
 31
0.0
  0
LINE
  5
DC
100
AcDbEntity
  8
HATCH
100
AcDbLine
 10
37.285995
 20
43.365408
 30
0.0
 11
37.285995
 21
43.365408
 31
0.0
  0
LINE
  5
DD
100
AcDbEntity
  8
HATCH
100
AcDbLine
 10
35.645395
 20
42.896708
 30
0.0
 11
35.645395
 21
42.896708
 31
0.0
  0
LINE
  5
DE
100
AcDbEntity
  8
HATCH
100
AcDbLine
 10
36.114195
 20
42.896708
 30
0.0
 11
36.114195
 21
42.896708
 31
0.0
  0
LINE
  5
DF
100
AcDbEntity
  8
HATCH
100
AcDbLine
 10
36.582895
 20
42.896708
 30
0.0
 11
36.582895
 21
42.896708
 31
0.0
  0
LINE
  5
E0
100
AcDbEntity
  8
HATCH
100
AcDbLine
 10
37.051695
 20
42.896708
 30
0.0
 11
37.051695
 21
42.896708
 31
0.0
  0
LINE
  5
E1
100
AcDbEntity
  8
HATCH
100
AcDbLine
 10
35.879795
 20
42.427908
 30
0.0
 11
35.879795
 21
42.427908
 31
0.0
  0
LINE
  5
E2
100
AcDbEntity
  8
HATCH
100
AcDbLine
 10
36.348495
 20
42.427908
 30
0.0
 11
36.348495
 21
42.427908
 31
0.0
  0
LINE
  5
E3
100
AcDbEntity
  8
HATCH
100
AcDbLine
 10
36.817295
 20
42.427908
 30
0.0
 11
36.817295
 21
42.427908
 31
0.0
  0
LINE
  5
E4
100
AcDbEntity
  8
HATCH
100
AcDbLine
 10
37.285995
 20
42.427908
 30
0.0
 11
37.285995
 21
42.427908
 31
0.0
  0
LINE
  5
E5
100
AcDbEntity
  8
HATCH
100
AcDbLine
 10
35.645395
 20
41.959208
 30
0.0
 11
35.645395
 21
41.959208
 31
0.0
  0
LINE
  5
E6
100
AcDbEntity
  8
HATCH
100
AcDbLine
 10
36.114195
 20
41.959208
 30
0.0
 11
36.114195
 21
41.959208
 31
0.0
  0
LINE
  5
E7
100
AcDbEntity
  8
HATCH
100
AcDbLine
 10
36.582895
 20
41.959208
 30
0.0
 11
36.582895
 21
41.959208
 31
0.0
  0
LINE
  5
E8
100
AcDbEntity
  8
HATCH
100
AcDbLine
 10
37.051695
 20
41.959208
 30
0.0
 11
37.051695
 21
41.959208
 31
0.0
  0
LINE
  5
E9
100
AcDbEntity
  8
HATCH
100
AcDbLine
 10
35.879795
 20
41.490408
 30
0.0
 11
35.879795
 21
41.490408
 31
0.0
  0
LINE
  5
EA
100
AcDbEntity
  8
HATCH
100
AcDbLine
 10
36.348495
 20
41.490408
 30
0.0
 11
36.348495
 21
41.490408
 31
0.0
  0
LINE
  5
EB
100
AcDbEntity
  8
HATCH
100
AcDbLine
 10
36.817295
 20
41.490408
 30
0.0
 11
36.817295
 21
41.490408
 31
0.0
  0
LINE
  5
EC
100
AcDbEntity
  8
HATCH
100
AcDbLine
 10
37.285995
 20
41.490408
 30
0.0
 11
37.285995
 21
41.490408
 31
0.0
  0
LINE
  5
ED
100
AcDbEntity
  8
HATCH
100
AcDbLine
 10
35.645395
 20
41.021708
 30
0.0
 11
35.645395
 21
41.021708
 31
0.0
  0
LINE
  5
EE
100
AcDbEntity
  8
HATCH
100
AcDbLine
 10
36.114195
 20
41.021708
 30
0.0
 11
36.114195
 21
41.021708
 31
0.0
  0
LINE
  5
EF
100
AcDbEntity
  8
HATCH
100
AcDbLine
 10
36.582895
 20
41.021708
 30
0.0
 11
36.582895
 21
41.021708
 31
0.0
  0
LINE
  5
F0
100
AcDbEntity
  8
HATCH
100
AcDbLine
 10
37.051695
 20
41.021708
 30
0.0
 11
37.051695
 21
41.021708
 31
0.0
  0
LINE
  5
F1
100
AcDbEntity
  8
HATCH
100
AcDbLine
 10
35.879795
 20
40.552908
 30
0.0
 11
35.879795
 21
40.552908
 31
0.0
  0
LINE
  5
F2
100
AcDbEntity
  8
HATCH
100
AcDbLine
 10
36.348495
 20
40.552908
 30
0.0
 11
36.348495
 21
40.552908
 31
0.0
  0
LINE
  5
F3
100
AcDbEntity
  8
HATCH
100
AcDbLine
 10
36.817295
 20
40.552908
 30
0.0
 11
36.817295
 21
40.552908
 31
0.0
  0
LINE
  5
F4
100
AcDbEntity
  8
HATCH
100
AcDbLine
 10
37.285995
 20
40.552908
 30
0.0
 11
37.285995
 21
40.552908
 31
0.0
  0
LINE
  5
F5
100
AcDbEntity
  8
HATCH
100
AcDbLine
 10
35.645395
 20
40.084208
 30
0.0
 11
35.645395
 21
40.084208
 31
0.0
  0
LINE
  5
F6
100
AcDbEntity
  8
HATCH
100
AcDbLine
 10
36.114195
 20
40.084208
 30
0.0
 11
36.114195
 21
40.084208
 31
0.0
  0
LINE
  5
F7
100
AcDbEntity
  8
HATCH
100
AcDbLine
 10
36.582895
 20
40.084208
 30
0.0
 11
36.582895
 21
40.084208
 31
0.0
  0
LINE
  5
F8
100
AcDbEntity
  8
HATCH
100
AcDbLine
 10
37.051695
 20
40.084208
 30
0.0
 11
37.051695
 21
40.084208
 31
0.0
  0
LINE
  5
F9
100
AcDbEntity
  8
HATCH
100
AcDbLine
 10
35.879795
 20
39.615408
 30
0.0
 11
35.879795
 21
39.615408
 31
0.0
  0
LINE
  5
FA
100
AcDbEntity
  8
HATCH
100
AcDbLine
 10
36.348495
 20
39.615408
 30
0.0
 11
36.348495
 21
39.615408
 31
0.0
  0
LINE
  5
FB
100
AcDbEntity
  8
HATCH
100
AcDbLine
 10
36.817295
 20
39.615408
 30
0.0
 11
36.817295
 21
39.615408
 31
0.0
  0
LINE
  5
FC
100
AcDbEntity
  8
HATCH
100
AcDbLine
 10
37.285995
 20
39.615408
 30
0.0
 11
37.285995
 21
39.615408
 31
0.0
  0
LINE
  5
FD
100
AcDbEntity
  8
HATCH
100
AcDbLine
 10
35.645395
 20
39.146708
 30
0.0
 11
35.645395
 21
39.146708
 31
0.0
  0
LINE
  5
FE
100
AcDbEntity
  8
HATCH
100
AcDbLine
 10
36.114195
 20
39.146708
 30
0.0
 11
36.114195
 21
39.146708
 31
0.0
  0
LINE
  5
FF
100
AcDbEntity
  8
HATCH
100
AcDbLine
 10
36.582895
 20
39.146708
 30
0.0
 11
36.582895
 21
39.146708
 31
0.0
  0
LINE
  5
100
100
AcDbEntity
  8
HATCH
100
AcDbLine
 10
37.051695
 20
39.146708
 30
0.0
 11
37.051695
 21
39.146708
 31
0.0
  0
LINE
  5
101
100
AcDbEntity
  8
HATCH
100
AcDbLine
 10
35.879795
 20
38.677908
 30
0.0
 11
35.879795
 21
38.677908
 31
0.0
  0
LINE
  5
102
100
AcDbEntity
  8
HATCH
100
AcDbLine
 10
36.348495
 20
38.677908
 30
0.0
 11
36.348495
 21
38.677908
 31
0.0
  0
LINE
  5
103
100
AcDbEntity
  8
HATCH
100
AcDbLine
 10
36.817295
 20
38.677908
 30
0.0
 11
36.817295
 21
38.677908
 31
0.0
  0
LINE
  5
104
100
AcDbEntity
  8
HATCH
100
AcDbLine
 10
37.285995
 20
38.677908
 30
0.0
 11
37.285995
 21
38.677908
 31
0.0
  0
LINE
  5
105
100
AcDbEntity
  8
HATCH
100
AcDbLine
 10
35.645395
 20
38.209208
 30
0.0
 11
35.645395
 21
38.209208
 31
0.0
  0
LINE
  5
106
100
AcDbEntity
  8
HATCH
100
AcDbLine
 10
36.114195
 20
38.209208
 30
0.0
 11
36.114195
 21
38.209208
 31
0.0
  0
LINE
  5
107
100
AcDbEntity
  8
HATCH
100
AcDbLine
 10
36.582895
 20
38.209208
 30
0.0
 11
36.582895
 21
38.209208
 31
0.0
  0
LINE
  5
108
100
AcDbEntity
  8
HATCH
100
AcDbLine
 10
37.051695
 20
38.209208
 30
0.0
 11
37.051695
 21
38.209208
 31
0.0
  0
LINE
  5
109
100
AcDbEntity
  8
HATCH
100
AcDbLine
 10
35.879795
 20
37.740408
 30
0.0
 11
35.879795
 21
37.740408
 31
0.0
  0
LINE
  5
10A
100
AcDbEntity
  8
HATCH
100
AcDbLine
 10
36.348495
 20
37.740408
 30
0.0
 11
36.348495
 21
37.740408
 31
0.0
  0
LINE
  5
10B
100
AcDbEntity
  8
HATCH
100
AcDbLine
 10
36.817295
 20
37.740408
 30
0.0
 11
36.817295
 21
37.740408
 31
0.0
  0
LINE
  5
10C
100
AcDbEntity
  8
HATCH
100
AcDbLine
 10
37.285995
 20
37.740408
 30
0.0
 11
37.285995
 21
37.740408
 31
0.0
  0
LINE
  5
10D
100
AcDbEntity
  8
HATCH
100
AcDbLine
 10
35.645395
 20
37.271708
 30
0.0
 11
35.645395
 21
37.271708
 31
0.0
  0
LINE
  5
10E
100
AcDbEntity
  8
HATCH
100
AcDbLine
 10
36.114195
 20
37.271708
 30
0.0
 11
36.114195
 21
37.271708
 31
0.0
  0
LINE
  5
10F
100
AcDbEntity
  8
HATCH
100
AcDbLine
 10
36.582895
 20
37.271708
 30
0.0
 11
36.582895
 21
37.271708
 31
0.0
  0
LINE
  5
110
100
AcDbEntity
  8
HATCH
100
AcDbLine
 10
37.051695
 20
37.271708
 30
0.0
 11
37.051695
 21
37.271708
 31
0.0
  0
LINE
  5
111
100
AcDbEntity
  8
HATCH
100
AcDbLine
 10
35.879795
 20
36.802908
 30
0.0
 11
35.879795
 21
36.802908
 31
0.0
  0
LINE
  5
112
100
AcDbEntity
  8
HATCH
100
AcDbLine
 10
36.348495
 20
36.802908
 30
0.0
 11
36.348495
 21
36.802908
 31
0.0
  0
LINE
  5
113
100
AcDbEntity
  8
HATCH
100
AcDbLine
 10
36.817295
 20
36.802908
 30
0.0
 11
36.817295
 21
36.802908
 31
0.0
  0
LINE
  5
114
100
AcDbEntity
  8
HATCH
100
AcDbLine
 10
37.285995
 20
36.802908
 30
0.0
 11
37.285995
 21
36.802908
 31
0.0
  0
LINE
  5
115
100
AcDbEntity
  8
HATCH
100
AcDbLine
 10
35.645395
 20
36.334208
 30
0.0
 11
35.645395
 21
36.334208
 31
0.0
  0
LINE
  5
116
100
AcDbEntity
  8
HATCH
100
AcDbLine
 10
36.114195
 20
36.334208
 30
0.0
 11
36.114195
 21
36.334208
 31
0.0
  0
LINE
  5
117
100
AcDbEntity
  8
HATCH
100
AcDbLine
 10
36.582895
 20
36.334208
 30
0.0
 11
36.582895
 21
36.334208
 31
0.0
  0
LINE
  5
118
100
AcDbEntity
  8
HATCH
100
AcDbLine
 10
37.051695
 20
36.334208
 30
0.0
 11
37.051695
 21
36.334208
 31
0.0
  0
LINE
  5
119
100
AcDbEntity
  8
HATCH
100
AcDbLine
 10
35.879795
 20
35.865408
 30
0.0
 11
35.879795
 21
35.865408
 31
0.0
  0
LINE
  5
11A
100
AcDbEntity
  8
HATCH
100
AcDbLine
 10
36.348495
 20
35.865408
 30
0.0
 11
36.348495
 21
35.865408
 31
0.0
  0
LINE
  5
11B
100
AcDbEntity
  8
HATCH
100
AcDbLine
 10
36.817295
 20
35.865408
 30
0.0
 11
36.817295
 21
35.865408
 31
0.0
  0
LINE
  5
11C
100
AcDbEntity
  8
HATCH
100
AcDbLine
 10
37.285995
 20
35.865408
 30
0.0
 11
37.285995
 21
35.865408
 31
0.0
  0
LINE
  5
11D
100
AcDbEntity
  8
HATCH
100
AcDbLine
 10
35.645395
 20
35.396708
 30
0.0
 11
35.645395
 21
35.396708
 31
0.0
  0
LINE
  5
11E
100
AcDbEntity
  8
HATCH
100
AcDbLine
 10
36.114195
 20
35.396708
 30
0.0
 11
36.114195
 21
35.396708
 31
0.0
  0
LINE
  5
11F
100
AcDbEntity
  8
HATCH
100
AcDbLine
 10
36.582895
 20
35.396708
 30
0.0
 11
36.582895
 21
35.396708
 31
0.0
  0
LINE
  5
120
100
AcDbEntity
  8
HATCH
100
AcDbLine
 10
37.051695
 20
35.396708
 30
0.0
 11
37.051695
 21
35.396708
 31
0.0
  0
LINE
  5
121
100
AcDbEntity
  8
HATCH
100
AcDbLine
 10
35.879795
 20
34.927908
 30
0.0
 11
35.879795
 21
34.927908
 31
0.0
  0
LINE
  5
122
100
AcDbEntity
  8
HATCH
100
AcDbLine
 10
36.348495
 20
34.927908
 30
0.0
 11
36.348495
 21
34.927908
 31
0.0
  0
LINE
  5
123
100
AcDbEntity
  8
HATCH
100
AcDbLine
 10
36.817295
 20
34.927908
 30
0.0
 11
36.817295
 21
34.927908
 31
0.0
  0
LINE
  5
124
100
AcDbEntity
  8
HATCH
100
AcDbLine
 10
37.285995
 20
34.927908
 30
0.0
 11
37.285995
 21
34.927908
 31
0.0
  0
LINE
  5
125
100
AcDbEntity
  8
HATCH
100
AcDbLine
 10
35.645395
 20
34.459208
 30
0.0
 11
35.645395
 21
34.459208
 31
0.0
  0
LINE
  5
126
100
AcDbEntity
  8
HATCH
100
AcDbLine
 10
36.114195
 20
34.459208
 30
0.0
 11
36.114195
 21
34.459208
 31
0.0
  0
LINE
  5
127
100
AcDbEntity
  8
HATCH
100
AcDbLine
 10
36.582895
 20
34.459208
 30
0.0
 11
36.582895
 21
34.459208
 31
0.0
  0
LINE
  5
128
100
AcDbEntity
  8
HATCH
100
AcDbLine
 10
37.051695
 20
34.459208
 30
0.0
 11
37.051695
 21
34.459208
 31
0.0
  0
LINE
  5
129
100
AcDbEntity
  8
HATCH
100
AcDbLine
 10
35.879795
 20
33.990408
 30
0.0
 11
35.879795
 21
33.990408
 31
0.0
  0
LINE
  5
12A
100
AcDbEntity
  8
HATCH
100
AcDbLine
 10
36.348495
 20
33.990408
 30
0.0
 11
36.348495
 21
33.990408
 31
0.0
  0
LINE
  5
12B
100
AcDbEntity
  8
HATCH
100
AcDbLine
 10
36.817295
 20
33.990408
 30
0.0
 11
36.817295
 21
33.990408
 31
0.0
  0
LINE
  5
12C
100
AcDbEntity
  8
HATCH
100
AcDbLine
 10
37.285995
 20
33.990408
 30
0.0
 11
37.285995
 21
33.990408
 31
0.0
  0
LINE
  5
12D
100
AcDbEntity
  8
HATCH
100
AcDbLine
 10
43.614195
 20
48.521708
 30
0.0
 11
43.614195
 21
48.521708
 31
0.0
  0
LINE
  5
12E
100
AcDbEntity
  8
HATCH
100
AcDbLine
 10
44.082895
 20
48.521708
 30
0.0
 11
44.082895
 21
48.521708
 31
0.0
  0
LINE
  5
12F
100
AcDbEntity
  8
HATCH
100
AcDbLine
 10
44.551695
 20
48.521708
 30
0.0
 11
44.551695
 21
48.521708
 31
0.0
  0
LINE
  5
130
100
AcDbEntity
  8
HATCH
100
AcDbLine
 10
45.020395
 20
48.521708
 30
0.0
 11
45.020395
 21
48.521708
 31
0.0
  0
LINE
  5
131
100
AcDbEntity
  8
HATCH
100
AcDbLine
 10
43.848495
 20
48.052908
 30
0.0
 11
43.848495
 21
48.052908
 31
0.0
  0
LINE
  5
132
100
AcDbEntity
  8
HATCH
100
AcDbLine
 10
44.317295
 20
48.052908
 30
0.0
 11
44.317295
 21
48.052908
 31
0.0
  0
LINE
  5
133
100
AcDbEntity
  8
HATCH
100
AcDbLine
 10
44.785995
 20
48.052908
 30
0.0
 11
44.785995
 21
48.052908
 31
0.0
  0
LINE
  5
134
100
AcDbEntity
  8
HATCH
100
AcDbLine
 10
45.254795
 20
48.052908
 30
0.0
 11
45.254795
 21
48.052908
 31
0.0
  0
LINE
  5
135
100
AcDbEntity
  8
HATCH
100
AcDbLine
 10
43.614195
 20
47.584208
 30
0.0
 11
43.614195
 21
47.584208
 31
0.0
  0
LINE
  5
136
100
AcDbEntity
  8
HATCH
100
AcDbLine
 10
44.082895
 20
47.584208
 30
0.0
 11
44.082895
 21
47.584208
 31
0.0
  0
LINE
  5
137
100
AcDbEntity
  8
HATCH
100
AcDbLine
 10
44.551695
 20
47.584208
 30
0.0
 11
44.551695
 21
47.584208
 31
0.0
  0
LINE
  5
138
100
AcDbEntity
  8
HATCH
100
AcDbLine
 10
45.020395
 20
47.584208
 30
0.0
 11
45.020395
 21
47.584208
 31
0.0
  0
LINE
  5
139
100
AcDbEntity
  8
HATCH
100
AcDbLine
 10
43.848495
 20
47.115408
 30
0.0
 11
43.848495
 21
47.115408
 31
0.0
  0
LINE
  5
13A
100
AcDbEntity
  8
HATCH
100
AcDbLine
 10
44.317295
 20
47.115408
 30
0.0
 11
44.317295
 21
47.115408
 31
0.0
  0
LINE
  5
13B
100
AcDbEntity
  8
HATCH
100
AcDbLine
 10
44.785995
 20
47.115408
 30
0.0
 11
44.785995
 21
47.115408
 31
0.0
  0
LINE
  5
13C
100
AcDbEntity
  8
HATCH
100
AcDbLine
 10
45.254795
 20
47.115408
 30
0.0
 11
45.254795
 21
47.115408
 31
0.0
  0
LINE
  5
13D
100
AcDbEntity
  8
HATCH
100
AcDbLine
 10
43.614195
 20
46.646708
 30
0.0
 11
43.614195
 21
46.646708
 31
0.0
  0
LINE
  5
13E
100
AcDbEntity
  8
HATCH
100
AcDbLine
 10
44.082895
 20
46.646708
 30
0.0
 11
44.082895
 21
46.646708
 31
0.0
  0
LINE
  5
13F
100
AcDbEntity
  8
HATCH
100
AcDbLine
 10
44.551695
 20
46.646708
 30
0.0
 11
44.551695
 21
46.646708
 31
0.0
  0
LINE
  5
140
100
AcDbEntity
  8
HATCH
100
AcDbLine
 10
45.020395
 20
46.646708
 30
0.0
 11
45.020395
 21
46.646708
 31
0.0
  0
LINE
  5
141
100
AcDbEntity
  8
HATCH
100
AcDbLine
 10
43.848495
 20
46.177908
 30
0.0
 11
43.848495
 21
46.177908
 31
0.0
  0
LINE
  5
142
100
AcDbEntity
  8
HATCH
100
AcDbLine
 10
44.317295
 20
46.177908
 30
0.0
 11
44.317295
 21
46.177908
 31
0.0
  0
LINE
  5
143
100
AcDbEntity
  8
HATCH
100
AcDbLine
 10
44.785995
 20
46.177908
 30
0.0
 11
44.785995
 21
46.177908
 31
0.0
  0
LINE
  5
144
100
AcDbEntity
  8
HATCH
100
AcDbLine
 10
45.254795
 20
46.177908
 30
0.0
 11
45.254795
 21
46.177908
 31
0.0
  0
LINE
  5
145
100
AcDbEntity
  8
HATCH
100
AcDbLine
 10
43.614195
 20
45.709208
 30
0.0
 11
43.614195
 21
45.709208
 31
0.0
  0
LINE
  5
146
100
AcDbEntity
  8
HATCH
100
AcDbLine
 10
44.082895
 20
45.709208
 30
0.0
 11
44.082895
 21
45.709208
 31
0.0
  0
LINE
  5
147
100
AcDbEntity
  8
HATCH
100
AcDbLine
 10
44.551695
 20
45.709208
 30
0.0
 11
44.551695
 21
45.709208
 31
0.0
  0
LINE
  5
148
100
AcDbEntity
  8
HATCH
100
AcDbLine
 10
45.020395
 20
45.709208
 30
0.0
 11
45.020395
 21
45.709208
 31
0.0
  0
LINE
  5
149
100
AcDbEntity
  8
HATCH
100
AcDbLine
 10
43.848495
 20
45.240408
 30
0.0
 11
43.848495
 21
45.240408
 31
0.0
  0
LINE
  5
14A
100
AcDbEntity
  8
HATCH
100
AcDbLine
 10
44.317295
 20
45.240408
 30
0.0
 11
44.317295
 21
45.240408
 31
0.0
  0
LINE
  5
14B
100
AcDbEntity
  8
HATCH
100
AcDbLine
 10
44.785995
 20
45.240408
 30
0.0
 11
44.785995
 21
45.240408
 31
0.0
  0
LINE
  5
14C
100
AcDbEntity
  8
HATCH
100
AcDbLine
 10
45.254795
 20
45.240408
 30
0.0
 11
45.254795
 21
45.240408
 31
0.0
  0
LINE
  5
14D
100
AcDbEntity
  8
HATCH
100
AcDbLine
 10
43.614195
 20
44.771708
 30
0.0
 11
43.614195
 21
44.771708
 31
0.0
  0
LINE
  5
14E
100
AcDbEntity
  8
HATCH
100
AcDbLine
 10
44.082895
 20
44.771708
 30
0.0
 11
44.082895
 21
44.771708
 31
0.0
  0
LINE
  5
14F
100
AcDbEntity
  8
HATCH
100
AcDbLine
 10
44.551695
 20
44.771708
 30
0.0
 11
44.551695
 21
44.771708
 31
0.0
  0
LINE
  5
150
100
AcDbEntity
  8
HATCH
100
AcDbLine
 10
45.020395
 20
44.771708
 30
0.0
 11
45.020395
 21
44.771708
 31
0.0
  0
LINE
  5
151
100
AcDbEntity
  8
HATCH
100
AcDbLine
 10
43.848495
 20
44.302908
 30
0.0
 11
43.848495
 21
44.302908
 31
0.0
  0
LINE
  5
152
100
AcDbEntity
  8
HATCH
100
AcDbLine
 10
44.317295
 20
44.302908
 30
0.0
 11
44.317295
 21
44.302908
 31
0.0
  0
LINE
  5
153
100
AcDbEntity
  8
HATCH
100
AcDbLine
 10
44.785995
 20
44.302908
 30
0.0
 11
44.785995
 21
44.302908
 31
0.0
  0
LINE
  5
154
100
AcDbEntity
  8
HATCH
100
AcDbLine
 10
45.254795
 20
44.302908
 30
0.0
 11
45.254795
 21
44.302908
 31
0.0
  0
LINE
  5
155
100
AcDbEntity
  8
HATCH
100
AcDbLine
 10
43.614195
 20
43.834208
 30
0.0
 11
43.614195
 21
43.834208
 31
0.0
  0
LINE
  5
156
100
AcDbEntity
  8
HATCH
100
AcDbLine
 10
44.082895
 20
43.834208
 30
0.0
 11
44.082895
 21
43.834208
 31
0.0
  0
LINE
  5
157
100
AcDbEntity
  8
HATCH
100
AcDbLine
 10
44.551695
 20
43.834208
 30
0.0
 11
44.551695
 21
43.834208
 31
0.0
  0
LINE
  5
158
100
AcDbEntity
  8
HATCH
100
AcDbLine
 10
45.020395
 20
43.834208
 30
0.0
 11
45.020395
 21
43.834208
 31
0.0
  0
LINE
  5
159
100
AcDbEntity
  8
HATCH
100
AcDbLine
 10
43.848495
 20
43.365408
 30
0.0
 11
43.848495
 21
43.365408
 31
0.0
  0
LINE
  5
15A
100
AcDbEntity
  8
HATCH
100
AcDbLine
 10
44.317295
 20
43.365408
 30
0.0
 11
44.317295
 21
43.365408
 31
0.0
  0
LINE
  5
15B
100
AcDbEntity
  8
HATCH
100
AcDbLine
 10
44.785995
 20
43.365408
 30
0.0
 11
44.785995
 21
43.365408
 31
0.0
  0
LINE
  5
15C
100
AcDbEntity
  8
HATCH
100
AcDbLine
 10
45.254795
 20
43.365408
 30
0.0
 11
45.254795
 21
43.365408
 31
0.0
  0
LINE
  5
15D
100
AcDbEntity
  8
HATCH
100
AcDbLine
 10
43.614195
 20
42.896708
 30
0.0
 11
43.614195
 21
42.896708
 31
0.0
  0
LINE
  5
15E
100
AcDbEntity
  8
HATCH
100
AcDbLine
 10
44.082895
 20
42.896708
 30
0.0
 11
44.082895
 21
42.896708
 31
0.0
  0
LINE
  5
15F
100
AcDbEntity
  8
HATCH
100
AcDbLine
 10
44.551695
 20
42.896708
 30
0.0
 11
44.551695
 21
42.896708
 31
0.0
  0
LINE
  5
160
100
AcDbEntity
  8
HATCH
100
AcDbLine
 10
45.020395
 20
42.896708
 30
0.0
 11
45.020395
 21
42.896708
 31
0.0
  0
LINE
  5
161
100
AcDbEntity
  8
HATCH
100
AcDbLine
 10
43.848495
 20
42.427908
 30
0.0
 11
43.848495
 21
42.427908
 31
0.0
  0
LINE
  5
162
100
AcDbEntity
  8
HATCH
100
AcDbLine
 10
44.317295
 20
42.427908
 30
0.0
 11
44.317295
 21
42.427908
 31
0.0
  0
LINE
  5
163
100
AcDbEntity
  8
HATCH
100
AcDbLine
 10
44.785995
 20
42.427908
 30
0.0
 11
44.785995
 21
42.427908
 31
0.0
  0
LINE
  5
164
100
AcDbEntity
  8
HATCH
100
AcDbLine
 10
45.254795
 20
42.427908
 30
0.0
 11
45.254795
 21
42.427908
 31
0.0
  0
LINE
  5
165
100
AcDbEntity
  8
HATCH
100
AcDbLine
 10
43.614195
 20
41.959208
 30
0.0
 11
43.614195
 21
41.959208
 31
0.0
  0
LINE
  5
166
100
AcDbEntity
  8
HATCH
100
AcDbLine
 10
44.082895
 20
41.959208
 30
0.0
 11
44.082895
 21
41.959208
 31
0.0
  0
LINE
  5
167
100
AcDbEntity
  8
HATCH
100
AcDbLine
 10
44.551695
 20
41.959208
 30
0.0
 11
44.551695
 21
41.959208
 31
0.0
  0
LINE
  5
168
100
AcDbEntity
  8
HATCH
100
AcDbLine
 10
45.020395
 20
41.959208
 30
0.0
 11
45.020395
 21
41.959208
 31
0.0
  0
LINE
  5
169
100
AcDbEntity
  8
HATCH
100
AcDbLine
 10
43.848495
 20
41.490408
 30
0.0
 11
43.848495
 21
41.490408
 31
0.0
  0
LINE
  5
16A
100
AcDbEntity
  8
HATCH
100
AcDbLine
 10
44.317295
 20
41.490408
 30
0.0
 11
44.317295
 21
41.490408
 31
0.0
  0
LINE
  5
16B
100
AcDbEntity
  8
HATCH
100
AcDbLine
 10
44.785995
 20
41.490408
 30
0.0
 11
44.785995
 21
41.490408
 31
0.0
  0
LINE
  5
16C
100
AcDbEntity
  8
HATCH
100
AcDbLine
 10
45.254795
 20
41.490408
 30
0.0
 11
45.254795
 21
41.490408
 31
0.0
  0
LINE
  5
16D
100
AcDbEntity
  8
HATCH
100
AcDbLine
 10
43.614195
 20
41.021708
 30
0.0
 11
43.614195
 21
41.021708
 31
0.0
  0
LINE
  5
16E
100
AcDbEntity
  8
HATCH
100
AcDbLine
 10
44.082895
 20
41.021708
 30
0.0
 11
44.082895
 21
41.021708
 31
0.0
  0
LINE
  5
16F
100
AcDbEntity
  8
HATCH
100
AcDbLine
 10
44.551695
 20
41.021708
 30
0.0
 11
44.551695
 21
41.021708
 31
0.0
  0
LINE
  5
170
100
AcDbEntity
  8
HATCH
100
AcDbLine
 10
45.020395
 20
41.021708
 30
0.0
 11
45.020395
 21
41.021708
 31
0.0
  0
LINE
  5
171
100
AcDbEntity
  8
HATCH
100
AcDbLine
 10
43.848495
 20
40.552908
 30
0.0
 11
43.848495
 21
40.552908
 31
0.0
  0
LINE
  5
172
100
AcDbEntity
  8
HATCH
100
AcDbLine
 10
44.317295
 20
40.552908
 30
0.0
 11
44.317295
 21
40.552908
 31
0.0
  0
LINE
  5
173
100
AcDbEntity
  8
HATCH
100
AcDbLine
 10
44.785995
 20
40.552908
 30
0.0
 11
44.785995
 21
40.552908
 31
0.0
  0
LINE
  5
174
100
AcDbEntity
  8
HATCH
100
AcDbLine
 10
45.254795
 20
40.552908
 30
0.0
 11
45.254795
 21
40.552908
 31
0.0
  0
LINE
  5
175
100
AcDbEntity
  8
HATCH
100
AcDbLine
 10
43.614195
 20
40.084208
 30
0.0
 11
43.614195
 21
40.084208
 31
0.0
  0
LINE
  5
176
100
AcDbEntity
  8
HATCH
100
AcDbLine
 10
44.082895
 20
40.084208
 30
0.0
 11
44.082895
 21
40.084208
 31
0.0
  0
LINE
  5
177
100
AcDbEntity
  8
HATCH
100
AcDbLine
 10
44.551695
 20
40.084208
 30
0.0
 11
44.551695
 21
40.084208
 31
0.0
  0
LINE
  5
178
100
AcDbEntity
  8
HATCH
100
AcDbLine
 10
45.020395
 20
40.084208
 30
0.0
 11
45.020395
 21
40.084208
 31
0.0
  0
LINE
  5
179
100
AcDbEntity
  8
HATCH
100
AcDbLine
 10
43.848495
 20
39.615408
 30
0.0
 11
43.848495
 21
39.615408
 31
0.0
  0
LINE
  5
17A
100
AcDbEntity
  8
HATCH
100
AcDbLine
 10
44.317295
 20
39.615408
 30
0.0
 11
44.317295
 21
39.615408
 31
0.0
  0
LINE
  5
17B
100
AcDbEntity
  8
HATCH
100
AcDbLine
 10
44.785995
 20
39.615408
 30
0.0
 11
44.785995
 21
39.615408
 31
0.0
  0
LINE
  5
17C
100
AcDbEntity
  8
HATCH
100
AcDbLine
 10
45.254795
 20
39.615408
 30
0.0
 11
45.254795
 21
39.615408
 31
0.0
  0
LINE
  5
17D
100
AcDbEntity
  8
HATCH
100
AcDbLine
 10
43.614195
 20
39.146708
 30
0.0
 11
43.614195
 21
39.146708
 31
0.0
  0
LINE
  5
17E
100
AcDbEntity
  8
HATCH
100
AcDbLine
 10
44.082895
 20
39.146708
 30
0.0
 11
44.082895
 21
39.146708
 31
0.0
  0
LINE
  5
17F
100
AcDbEntity
  8
HATCH
100
AcDbLine
 10
44.551695
 20
39.146708
 30
0.0
 11
44.551695
 21
39.146708
 31
0.0
  0
LINE
  5
180
100
AcDbEntity
  8
HATCH
100
AcDbLine
 10
45.020395
 20
39.146708
 30
0.0
 11
45.020395
 21
39.146708
 31
0.0
  0
LINE
  5
181
100
AcDbEntity
  8
HATCH
100
AcDbLine
 10
43.848495
 20
38.677908
 30
0.0
 11
43.848495
 21
38.677908
 31
0.0
  0
LINE
  5
182
100
AcDbEntity
  8
HATCH
100
AcDbLine
 10
44.317295
 20
38.677908
 30
0.0
 11
44.317295
 21
38.677908
 31
0.0
  0
LINE
  5
183
100
AcDbEntity
  8
HATCH
100
AcDbLine
 10
44.785995
 20
38.677908
 30
0.0
 11
44.785995
 21
38.677908
 31
0.0
  0
LINE
  5
184
100
AcDbEntity
  8
HATCH
100
AcDbLine
 10
45.254795
 20
38.677908
 30
0.0
 11
45.254795
 21
38.677908
 31
0.0
  0
LINE
  5
185
100
AcDbEntity
  8
HATCH
100
AcDbLine
 10
43.614195
 20
38.209208
 30
0.0
 11
43.614195
 21
38.209208
 31
0.0
  0
LINE
  5
186
100
AcDbEntity
  8
HATCH
100
AcDbLine
 10
44.082895
 20
38.209208
 30
0.0
 11
44.082895
 21
38.209208
 31
0.0
  0
LINE
  5
187
100
AcDbEntity
  8
HATCH
100
AcDbLine
 10
44.551695
 20
38.209208
 30
0.0
 11
44.551695
 21
38.209208
 31
0.0
  0
LINE
  5
188
100
AcDbEntity
  8
HATCH
100
AcDbLine
 10
45.020395
 20
38.209208
 30
0.0
 11
45.020395
 21
38.209208
 31
0.0
  0
LINE
  5
189
100
AcDbEntity
  8
HATCH
100
AcDbLine
 10
43.848495
 20
37.740408
 30
0.0
 11
43.848495
 21
37.740408
 31
0.0
  0
LINE
  5
18A
100
AcDbEntity
  8
HATCH
100
AcDbLine
 10
44.317295
 20
37.740408
 30
0.0
 11
44.317295
 21
37.740408
 31
0.0
  0
LINE
  5
18B
100
AcDbEntity
  8
HATCH
100
AcDbLine
 10
44.785995
 20
37.740408
 30
0.0
 11
44.785995
 21
37.740408
 31
0.0
  0
LINE
  5
18C
100
AcDbEntity
  8
HATCH
100
AcDbLine
 10
45.254795
 20
37.740408
 30
0.0
 11
45.254795
 21
37.740408
 31
0.0
  0
LINE
  5
18D
100
AcDbEntity
  8
HATCH
100
AcDbLine
 10
43.614195
 20
37.271708
 30
0.0
 11
43.614195
 21
37.271708
 31
0.0
  0
LINE
  5
18E
100
AcDbEntity
  8
HATCH
100
AcDbLine
 10
44.082895
 20
37.271708
 30
0.0
 11
44.082895
 21
37.271708
 31
0.0
  0
LINE
  5
18F
100
AcDbEntity
  8
HATCH
100
AcDbLine
 10
44.551695
 20
37.271708
 30
0.0
 11
44.551695
 21
37.271708
 31
0.0
  0
LINE
  5
190
100
AcDbEntity
  8
HATCH
100
AcDbLine
 10
45.020395
 20
37.271708
 30
0.0
 11
45.020395
 21
37.271708
 31
0.0
  0
LINE
  5
191
100
AcDbEntity
  8
HATCH
100
AcDbLine
 10
43.848495
 20
36.802908
 30
0.0
 11
43.848495
 21
36.802908
 31
0.0
  0
LINE
  5
192
100
AcDbEntity
  8
HATCH
100
AcDbLine
 10
44.317295
 20
36.802908
 30
0.0
 11
44.317295
 21
36.802908
 31
0.0
  0
LINE
  5
193
100
AcDbEntity
  8
HATCH
100
AcDbLine
 10
44.785995
 20
36.802908
 30
0.0
 11
44.785995
 21
36.802908
 31
0.0
  0
LINE
  5
194
100
AcDbEntity
  8
HATCH
100
AcDbLine
 10
45.254795
 20
36.802908
 30
0.0
 11
45.254795
 21
36.802908
 31
0.0
  0
LINE
  5
195
100
AcDbEntity
  8
HATCH
100
AcDbLine
 10
43.614195
 20
36.334208
 30
0.0
 11
43.614195
 21
36.334208
 31
0.0
  0
LINE
  5
196
100
AcDbEntity
  8
HATCH
100
AcDbLine
 10
44.082895
 20
36.334208
 30
0.0
 11
44.082895
 21
36.334208
 31
0.0
  0
LINE
  5
197
100
AcDbEntity
  8
HATCH
100
AcDbLine
 10
44.551695
 20
36.334208
 30
0.0
 11
44.551695
 21
36.334208
 31
0.0
  0
LINE
  5
198
100
AcDbEntity
  8
HATCH
100
AcDbLine
 10
45.020395
 20
36.334208
 30
0.0
 11
45.020395
 21
36.334208
 31
0.0
  0
LINE
  5
199
100
AcDbEntity
  8
HATCH
100
AcDbLine
 10
43.848495
 20
35.865408
 30
0.0
 11
43.848495
 21
35.865408
 31
0.0
  0
LINE
  5
19A
100
AcDbEntity
  8
HATCH
100
AcDbLine
 10
44.317295
 20
35.865408
 30
0.0
 11
44.317295
 21
35.865408
 31
0.0
  0
LINE
  5
19B
100
AcDbEntity
  8
HATCH
100
AcDbLine
 10
44.785995
 20
35.865408
 30
0.0
 11
44.785995
 21
35.865408
 31
0.0
  0
LINE
  5
19C
100
AcDbEntity
  8
HATCH
100
AcDbLine
 10
45.254795
 20
35.865408
 30
0.0
 11
45.254795
 21
35.865408
 31
0.0
  0
LINE
  5
19D
100
AcDbEntity
  8
HATCH
100
AcDbLine
 10
43.614195
 20
35.396708
 30
0.0
 11
43.614195
 21
35.396708
 31
0.0
  0
LINE
  5
19E
100
AcDbEntity
  8
HATCH
100
AcDbLine
 10
44.082895
 20
35.396708
 30
0.0
 11
44.082895
 21
35.396708
 31
0.0
  0
LINE
  5
19F
100
AcDbEntity
  8
HATCH
100
AcDbLine
 10
44.551695
 20
35.396708
 30
0.0
 11
44.551695
 21
35.396708
 31
0.0
  0
LINE
  5
1A0
100
AcDbEntity
  8
HATCH
100
AcDbLine
 10
45.020395
 20
35.396708
 30
0.0
 11
45.020395
 21
35.396708
 31
0.0
  0
LINE
  5
1A1
100
AcDbEntity
  8
HATCH
100
AcDbLine
 10
43.848495
 20
34.927908
 30
0.0
 11
43.848495
 21
34.927908
 31
0.0
  0
LINE
  5
1A2
100
AcDbEntity
  8
HATCH
100
AcDbLine
 10
44.317295
 20
34.927908
 30
0.0
 11
44.317295
 21
34.927908
 31
0.0
  0
LINE
  5
1A3
100
AcDbEntity
  8
HATCH
100
AcDbLine
 10
44.785995
 20
34.927908
 30
0.0
 11
44.785995
 21
34.927908
 31
0.0
  0
LINE
  5
1A4
100
AcDbEntity
  8
HATCH
100
AcDbLine
 10
45.254795
 20
34.927908
 30
0.0
 11
45.254795
 21
34.927908
 31
0.0
  0
LINE
  5
1A5
100
AcDbEntity
  8
HATCH
100
AcDbLine
 10
43.614195
 20
34.459208
 30
0.0
 11
43.614195
 21
34.459208
 31
0.0
  0
LINE
  5
1A6
100
AcDbEntity
  8
HATCH
100
AcDbLine
 10
44.082895
 20
34.459208
 30
0.0
 11
44.082895
 21
34.459208
 31
0.0
  0
LINE
  5
1A7
100
AcDbEntity
  8
HATCH
100
AcDbLine
 10
44.551695
 20
34.459208
 30
0.0
 11
44.551695
 21
34.459208
 31
0.0
  0
LINE
  5
1A8
100
AcDbEntity
  8
HATCH
100
AcDbLine
 10
45.020395
 20
34.459208
 30
0.0
 11
45.020395
 21
34.459208
 31
0.0
  0
LINE
  5
1A9
100
AcDbEntity
  8
HATCH
100
AcDbLine
 10
43.848495
 20
33.990408
 30
0.0
 11
43.848495
 21
33.990408
 31
0.0
  0
LINE
  5
1AA
100
AcDbEntity
  8
HATCH
100
AcDbLine
 10
44.317295
 20
33.990408
 30
0.0
 11
44.317295
 21
33.990408
 31
0.0
  0
LINE
  5
1AB
100
AcDbEntity
  8
HATCH
100
AcDbLine
 10
44.785995
 20
33.990408
 30
0.0
 11
44.785995
 21
33.990408
 31
0.0
  0
LINE
  5
1AC
100
AcDbEntity
  8
HATCH
100
AcDbLine
 10
45.254795
 20
33.990408
 30
0.0
 11
45.254795
 21
33.990408
 31
0.0
  0
LINE
  5
1AD
100
AcDbEntity
  8
DRAWING
100
AcDbLine
 10
43.557995
 20
48.657508
 30
0.0
 11
45.432995
 21
48.657508
 31
0.0
  0
LINE
  5
1AE
100
AcDbEntity
  8
HATCH
100
AcDbLine
 10
38.285795
 20
35.589608
 30
0.0
 11
38.212295
 21
35.562908
 31
0.0
  0
LINE
  5
1AF
100
AcDbEntity
  8
HATCH
100
AcDbLine
 10
40.425895
 20
36.105108
 30
0.0
 11
40.380995
 21
36.041108
 31
0.0
  0
LINE
  5
1B0
100
AcDbEntity
  8
HATCH
100
AcDbLine
 10
38.633395
 20
33.545208
 30
0.0
 11
38.588495
 21
33.481208
 31
0.0
  0
LINE
  5
1B1
100
AcDbEntity
  8
HATCH
100
AcDbLine
 10
40.984995
 20
36.606208
 30
0.0
 11
40.973995
 21
36.544708
 31
0.0
  0
LINE
  5
1B2
100
AcDbEntity
  8
HATCH
100
AcDbLine
 10
39.538195
 20
46.396808
 30
0.0
 11
39.524595
 21
46.319908
 31
0.0
  0
LINE
  5
1B3
100
AcDbEntity
  8
HATCH
100
AcDbLine
 10
41.045795
 20
33.974408
 30
0.0
 11
41.104595
 21
33.995708
 31
0.0
  0
LINE
  5
1B4
100
AcDbEntity
  8
HATCH
100
AcDbLine
 10
41.471795
 20
34.193208
 30
0.0
 11
41.482595
 21
34.254708
 31
0.0
  0
LINE
  5
1B5
100
AcDbEntity
  8
HATCH
100
AcDbLine
 10
40.759895
 20
34.609008
 30
0.0
 11
40.795795
 21
34.660208
 31
0.0
  0
LINE
  5
1B6
100
AcDbEntity
  8
DRAWING
100
AcDbLine
 10
45.432995
 20
33.657508
 30
0.0
 11
43.557995
 21
33.657508
 31
0.0
  0
ARC
  5
1B7
100
AcDbEntity
  8
DRAWING
100
AcDbCircle
 10
40.432995
 20
33.657508
 30
0.0
 40
3.0
100
AcDbArc
 50
180.0
 51
0.0
  0
LINE
  5
1B8
100
AcDbEntity
  8
DRAWING
100
AcDbLine
 10
37.307995
 20
33.657508
 30
0.0
 11
35.432995
 21
33.657508
 31
0.0
  0
LINE
  5
1B9
100
AcDbEntity
  8
HATCH
100
AcDbLine
 10
39.335795
 20
30.346908
 30
0.0
 11
39.394695
 21
30.368308
 31
0.0
  0
LINE
  5
1BA
100
AcDbEntity
  8
HATCH
100
AcDbLine
 10
38.097995
 20
31.198808
 30
0.0
 11
38.133895
 21
31.250008
 31
0.0
  0
LINE
  5
1BB
100
AcDbEntity
  8
HATCH
100
AcDbLine
 10
40.146095
 20
29.764808
 30
0.0
 11
40.181995
 21
29.816008
 31
0.0
  0
LINE
  5
1BC
100
AcDbEntity
  8
HATCH
100
AcDbLine
 10
37.416395
 20
31.659408
 30
0.0
 11
37.427095
 21
31.721008
 31
0.0
  0
LINE
  5
1BD
100
AcDbEntity
  8
HATCH
100
AcDbLine
 10
42.339995
 20
30.791308
 30
0.0
 11
42.350695
 21
30.852908
 31
0.0
  0
LINE
  5
1BE
100
AcDbEntity
  8
HATCH
100
AcDbLine
 10
35.645395
 20
33.521708
 30
0.0
 11
35.645395
 21
33.521708
 31
0.0
  0
LINE
  5
1BF
100
AcDbEntity
  8
HATCH
100
AcDbLine
 10
36.114195
 20
33.521708
 30
0.0
 11
36.114195
 21
33.521708
 31
0.0
  0
LINE
  5
1C0
100
AcDbEntity
  8
HATCH
100
AcDbLine
 10
36.582895
 20
33.521708
 30
0.0
 11
36.582895
 21
33.521708
 31
0.0
  0
LINE
  5
1C1
100
AcDbEntity
  8
HATCH
100
AcDbLine
 10
37.051695
 20
33.521708
 30
0.0
 11
37.051695
 21
33.521708
 31
0.0
  0
LINE
  5
1C2
100
AcDbEntity
  8
HATCH
100
AcDbLine
 10
35.879795
 20
33.053008
 30
0.0
 11
35.879795
 21
33.053008
 31
0.0
  0
LINE
  5
1C3
100
AcDbEntity
  8
HATCH
100
AcDbLine
 10
36.348495
 20
33.053008
 30
0.0
 11
36.348495
 21
33.053008
 31
0.0
  0
LINE
  5
1C4
100
AcDbEntity
  8
HATCH
100
AcDbLine
 10
36.817295
 20
33.053008
 30
0.0
 11
36.817295
 21
33.053008
 31
0.0
  0
LINE
  5
1C5
100
AcDbEntity
  8
HATCH
100
AcDbLine
 10
37.285995
 20
33.053008
 30
0.0
 11
37.285995
 21
33.053008
 31
0.0
  0
LINE
  5
1C6
100
AcDbEntity
  8
HATCH
100
AcDbLine
 10
35.645395
 20
32.584208
 30
0.0
 11
35.645395
 21
32.584208
 31
0.0
  0
LINE
  5
1C7
100
AcDbEntity
  8
HATCH
100
AcDbLine
 10
36.114195
 20
32.584208
 30
0.0
 11
36.114195
 21
32.584208
 31
0.0
  0
LINE
  5
1C8
100
AcDbEntity
  8
HATCH
100
AcDbLine
 10
36.582895
 20
32.584208
 30
0.0
 11
36.582895
 21
32.584208
 31
0.0
  0
LINE
  5
1C9
100
AcDbEntity
  8
HATCH
100
AcDbLine
 10
37.051695
 20
32.584208
 30
0.0
 11
37.051695
 21
32.584208
 31
0.0
  0
LINE
  5
1CA
100
AcDbEntity
  8
HATCH
100
AcDbLine
 10
35.879795
 20
32.115508
 30
0.0
 11
35.879795
 21
32.115508
 31
0.0
  0
LINE
  5
1CB
100
AcDbEntity
  8
HATCH
100
AcDbLine
 10
36.348495
 20
32.115508
 30
0.0
 11
36.348495
 21
32.115508
 31
0.0
  0
LINE
  5
1CC
100
AcDbEntity
  8
HATCH
100
AcDbLine
 10
36.817295
 20
32.115508
 30
0.0
 11
36.817295
 21
32.115508
 31
0.0
  0
LINE
  5
1CD
100
AcDbEntity
  8
HATCH
100
AcDbLine
 10
37.285995
 20
32.115508
 30
0.0
 11
37.285995
 21
32.115508
 31
0.0
  0
LINE
  5
1CE
100
AcDbEntity
  8
HATCH
100
AcDbLine
 10
35.645395
 20
31.646708
 30
0.0
 11
35.645395
 21
31.646708
 31
0.0
  0
LINE
  5
1CF
100
AcDbEntity
  8
HATCH
100
AcDbLine
 10
36.114195
 20
31.646708
 30
0.0
 11
36.114195
 21
31.646708
 31
0.0
  0
LINE
  5
1D0
100
AcDbEntity
  8
HATCH
100
AcDbLine
 10
36.582895
 20
31.646708
 30
0.0
 11
36.582895
 21
31.646708
 31
0.0
  0
LINE
  5
1D1
100
AcDbEntity
  8
HATCH
100
AcDbLine
 10
37.051695
 20
31.646708
 30
0.0
 11
37.051695
 21
31.646708
 31
0.0
  0
LINE
  5
1D2
100
AcDbEntity
  8
HATCH
100
AcDbLine
 10
35.879795
 20
31.178008
 30
0.0
 11
35.879795
 21
31.178008
 31
0.0
  0
LINE
  5
1D3
100
AcDbEntity
  8
HATCH
100
AcDbLine
 10
36.348495
 20
31.178008
 30
0.0
 11
36.348495
 21
31.178008
 31
0.0
  0
LINE
  5
1D4
100
AcDbEntity
  8
HATCH
100
AcDbLine
 10
36.817295
 20
31.178008
 30
0.0
 11
36.817295
 21
31.178008
 31
0.0
  0
LINE
  5
1D5
100
AcDbEntity
  8
HATCH
100
AcDbLine
 10
37.285995
 20
31.178008
 30
0.0
 11
37.285995
 21
31.178008
 31
0.0
  0
LINE
  5
1D6
100
AcDbEntity
  8
HATCH
100
AcDbLine
 10
35.645395
 20
30.709208
 30
0.0
 11
35.645395
 21
30.709208
 31
0.0
  0
LINE
  5
1D7
100
AcDbEntity
  8
HATCH
100
AcDbLine
 10
36.114195
 20
30.709208
 30
0.0
 11
36.114195
 21
30.709208
 31
0.0
  0
LINE
  5
1D8
100
AcDbEntity
  8
HATCH
100
AcDbLine
 10
36.582895
 20
30.709208
 30
0.0
 11
36.582895
 21
30.709208
 31
0.0
  0
LINE
  5
1D9
100
AcDbEntity
  8
HATCH
100
AcDbLine
 10
37.051695
 20
30.709208
 30
0.0
 11
37.051695
 21
30.709208
 31
0.0
  0
LINE
  5
1DA
100
AcDbEntity
  8
HATCH
100
AcDbLine
 10
35.879795
 20
30.240508
 30
0.0
 11
35.879795
 21
30.240508
 31
0.0
  0
LINE
  5
1DB
100
AcDbEntity
  8
HATCH
100
AcDbLine
 10
36.348495
 20
30.240508
 30
0.0
 11
36.348495
 21
30.240508
 31
0.0
  0
LINE
  5
1DC
100
AcDbEntity
  8
HATCH
100
AcDbLine
 10
36.817295
 20
30.240508
 30
0.0
 11
36.817295
 21
30.240508
 31
0.0
  0
LINE
  5
1DD
100
AcDbEntity
  8
HATCH
100
AcDbLine
 10
37.285995
 20
30.240508
 30
0.0
 11
37.285995
 21
30.240508
 31
0.0
  0
LINE
  5
1DE
100
AcDbEntity
  8
HATCH
100
AcDbLine
 10
35.645395
 20
29.771708
 30
0.0
 11
35.645395
 21
29.771708
 31
0.0
  0
LINE
  5
1DF
100
AcDbEntity
  8
HATCH
100
AcDbLine
 10
36.114195
 20
29.771708
 30
0.0
 11
36.114195
 21
29.771708
 31
0.0
  0
LINE
  5
1E0
100
AcDbEntity
  8
HATCH
100
AcDbLine
 10
36.582895
 20
29.771708
 30
0.0
 11
36.582895
 21
29.771708
 31
0.0
  0
LINE
  5
1E1
100
AcDbEntity
  8
HATCH
100
AcDbLine
 10
37.051695
 20
29.771708
 30
0.0
 11
37.051695
 21
29.771708
 31
0.0
  0
LINE
  5
1E2
100
AcDbEntity
  8
HATCH
100
AcDbLine
 10
43.614195
 20
33.521708
 30
0.0
 11
43.614195
 21
33.521708
 31
0.0
  0
LINE
  5
1E3
100
AcDbEntity
  8
HATCH
100
AcDbLine
 10
44.082895
 20
33.521708
 30
0.0
 11
44.082895
 21
33.521708
 31
0.0
  0
LINE
  5
1E4
100
AcDbEntity
  8
HATCH
100
AcDbLine
 10
44.551695
 20
33.521708
 30
0.0
 11
44.551695
 21
33.521708
 31
0.0
  0
LINE
  5
1E5
100
AcDbEntity
  8
HATCH
100
AcDbLine
 10
45.020395
 20
33.521708
 30
0.0
 11
45.020395
 21
33.521708
 31
0.0
  0
LINE
  5
1E6
100
AcDbEntity
  8
HATCH
100
AcDbLine
 10
43.848495
 20
33.053008
 30
0.0
 11
43.848495
 21
33.053008
 31
0.0
  0
LINE
  5
1E7
100
AcDbEntity
  8
HATCH
100
AcDbLine
 10
44.317295
 20
33.053008
 30
0.0
 11
44.317295
 21
33.053008
 31
0.0
  0
LINE
  5
1E8
100
AcDbEntity
  8
HATCH
100
AcDbLine
 10
44.785995
 20
33.053008
 30
0.0
 11
44.785995
 21
33.053008
 31
0.0
  0
LINE
  5
1E9
100
AcDbEntity
  8
HATCH
100
AcDbLine
 10
45.254795
 20
33.053008
 30
0.0
 11
45.254795
 21
33.053008
 31
0.0
  0
LINE
  5
1EA
100
AcDbEntity
  8
HATCH
100
AcDbLine
 10
43.614195
 20
32.584208
 30
0.0
 11
43.614195
 21
32.584208
 31
0.0
  0
LINE
  5
1EB
100
AcDbEntity
  8
HATCH
100
AcDbLine
 10
44.082895
 20
32.584208
 30
0.0
 11
44.082895
 21
32.584208
 31
0.0
  0
LINE
  5
1EC
100
AcDbEntity
  8
HATCH
100
AcDbLine
 10
44.551695
 20
32.584208
 30
0.0
 11
44.551695
 21
32.584208
 31
0.0
  0
LINE
  5
1ED
100
AcDbEntity
  8
HATCH
100
AcDbLine
 10
45.020395
 20
32.584208
 30
0.0
 11
45.020395
 21
32.584208
 31
0.0
  0
LINE
  5
1EE
100
AcDbEntity
  8
HATCH
100
AcDbLine
 10
43.848495
 20
32.115508
 30
0.0
 11
43.848495
 21
32.115508
 31
0.0
  0
LINE
  5
1EF
100
AcDbEntity
  8
HATCH
100
AcDbLine
 10
44.317295
 20
32.115508
 30
0.0
 11
44.317295
 21
32.115508
 31
0.0
  0
LINE
  5
1F0
100
AcDbEntity
  8
HATCH
100
AcDbLine
 10
44.785995
 20
32.115508
 30
0.0
 11
44.785995
 21
32.115508
 31
0.0
  0
LINE
  5
1F1
100
AcDbEntity
  8
HATCH
100
AcDbLine
 10
45.254795
 20
32.115508
 30
0.0
 11
45.254795
 21
32.115508
 31
0.0
  0
LINE
  5
1F2
100
AcDbEntity
  8
HATCH
100
AcDbLine
 10
43.614195
 20
31.646708
 30
0.0
 11
43.614195
 21
31.646708
 31
0.0
  0
LINE
  5
1F3
100
AcDbEntity
  8
HATCH
100
AcDbLine
 10
44.082895
 20
31.646708
 30
0.0
 11
44.082895
 21
31.646708
 31
0.0
  0
LINE
  5
1F4
100
AcDbEntity
  8
HATCH
100
AcDbLine
 10
44.551695
 20
31.646708
 30
0.0
 11
44.551695
 21
31.646708
 31
0.0
  0
LINE
  5
1F5
100
AcDbEntity
  8
HATCH
100
AcDbLine
 10
45.020395
 20
31.646708
 30
0.0
 11
45.020395
 21
31.646708
 31
0.0
  0
LINE
  5
1F6
100
AcDbEntity
  8
HATCH
100
AcDbLine
 10
43.848495
 20
31.178008
 30
0.0
 11
43.848495
 21
31.178008
 31
0.0
  0
LINE
  5
1F7
100
AcDbEntity
  8
HATCH
100
AcDbLine
 10
44.317295
 20
31.178008
 30
0.0
 11
44.317295
 21
31.178008
 31
0.0
  0
LINE
  5
1F8
100
AcDbEntity
  8
HATCH
100
AcDbLine
 10
44.785995
 20
31.178008
 30
0.0
 11
44.785995
 21
31.178008
 31
0.0
  0
LINE
  5
1F9
100
AcDbEntity
  8
HATCH
100
AcDbLine
 10
45.254795
 20
31.178008
 30
0.0
 11
45.254795
 21
31.178008
 31
0.0
  0
LINE
  5
1FA
100
AcDbEntity
  8
HATCH
100
AcDbLine
 10
43.614195
 20
30.709208
 30
0.0
 11
43.614195
 21
30.709208
 31
0.0
  0
LINE
  5
1FB
100
AcDbEntity
  8
HATCH
100
AcDbLine
 10
44.082895
 20
30.709208
 30
0.0
 11
44.082895
 21
30.709208
 31
0.0
  0
LINE
  5
1FC
100
AcDbEntity
  8
HATCH
100
AcDbLine
 10
44.551695
 20
30.709208
 30
0.0
 11
44.551695
 21
30.709208
 31
0.0
  0
LINE
  5
1FD
100
AcDbEntity
  8
HATCH
100
AcDbLine
 10
45.020395
 20
30.709208
 30
0.0
 11
45.020395
 21
30.709208
 31
0.0
  0
LINE
  5
1FE
100
AcDbEntity
  8
HATCH
100
AcDbLine
 10
43.848495
 20
30.240508
 30
0.0
 11
43.848495
 21
30.240508
 31
0.0
  0
LINE
  5
1FF
100
AcDbEntity
  8
HATCH
100
AcDbLine
 10
44.317295
 20
30.240508
 30
0.0
 11
44.317295
 21
30.240508
 31
0.0
  0
LINE
  5
200
100
AcDbEntity
  8
HATCH
100
AcDbLine
 10
44.785995
 20
30.240508
 30
0.0
 11
44.785995
 21
30.240508
 31
0.0
  0
LINE
  5
201
100
AcDbEntity
  8
HATCH
100
AcDbLine
 10
45.254795
 20
30.240508
 30
0.0
 11
45.254795
 21
30.240508
 31
0.0
  0
LINE
  5
202
100
AcDbEntity
  8
HATCH
100
AcDbLine
 10
43.614195
 20
29.771708
 30
0.0
 11
43.614195
 21
29.771708
 31
0.0
  0
LINE
  5
203
100
AcDbEntity
  8
HATCH
100
AcDbLine
 10
44.082895
 20
29.771708
 30
0.0
 11
44.082895
 21
29.771708
 31
0.0
  0
LINE
  5
204
100
AcDbEntity
  8
HATCH
100
AcDbLine
 10
44.551695
 20
29.771708
 30
0.0
 11
44.551695
 21
29.771708
 31
0.0
  0
LINE
  5
205
100
AcDbEntity
  8
HATCH
100
AcDbLine
 10
45.020395
 20
29.771708
 30
0.0
 11
45.020395
 21
29.771708
 31
0.0
  0
LINE
  5
206
100
AcDbEntity
  8
DRAWING
100
AcDbLine
 10
35.432995
 20
33.657508
 30
0.0
 11
37.307995
 21
33.657508
 31
0.0
  0
LINE
  5
207
100
AcDbEntity
  8
DRAWING
100
AcDbLine
 10
43.557995
 20
33.657508
 30
0.0
 11
45.432995
 21
33.657508
 31
0.0
  0
LINE
  5
208
100
AcDbEntity
  8
HATCH
100
AcDbLine
 10
40.952295
 20
31.536908
 30
0.0
 11
40.878795
 21
31.510108
 31
0.0
  0
LINE
  5
209
100
AcDbEntity
  8
HATCH
100
AcDbLine
 10
40.683495
 20
32.369608
 30
0.0
 11
40.638595
 21
32.305608
 31
0.0
  0
LINE
  5
20A
100
AcDbEntity
  8
HATCH
100
AcDbLine
 10
39.538195
 20
31.396808
 30
0.0
 11
39.524595
 21
31.319908
 31
0.0
  0
LINE
  5
20B
100
AcDbEntity
  8
DRAWING
100
AcDbLine
 10
43.320095
 20
45.090308
 30
0.0
 11
40.870295
 21
45.090308
 31
0.0
  0
LINE
  5
20C
100
AcDbEntity
  8
DRAWING
100
AcDbLine
 10
38.070095
 20
45.090308
 30
0.0
 11
38.070095
 21
47.452008
 31
0.0
  0
LINE
  5
20D
100
AcDbEntity
  8
DRAWING
100
AcDbLine
 10
38.070095
 20
47.452008
 30
0.0
 11
43.320095
 21
48.590308
 31
0.0
  0
LINE
  5
20E
100
AcDbEntity
  8
DRAWING
100
AcDbLine
 10
43.320095
 20
48.590308
 30
0.0
 11
43.320095
 21
45.090308
 31
0.0
  0
LINE
  5
20F
100
AcDbEntity
  8
HATCH
100
AcDbLine
 10
43.320095
 20
45.090308
 30
0.0
 11
38.070095
 21
47.452008
 31
0.0
  0
LINE
  5
210
100
AcDbEntity
  8
HATCH
100
AcDbLine
 10
38.070095
 20
45.090308
 30
0.0
 11
43.320095
 21
48.590308
 31
0.0
  0
LINE
  5
211
100
AcDbEntity
  8
DRAWING
100
AcDbLine
 10
60.458895
 20
55.040408
 30
0.0
 11
41.629995
 21
51.902108
 31
0.0
  0
LINE
  5
212
100
AcDbEntity
  8
DRAWING
100
AcDbLine
 10
41.629995
 20
51.902108
 30
0.0
 11
38.598795
 21
51.396908
 31
0.0
  0
LINE
  5
213
100
AcDbEntity
  8
HATCH
100
AcDbLine
 10
60.238895
 20
55.847208
 30
0.0
 11
60.659295
 21
54.305508
 31
0.0
  0
LINE
  5
214
100
AcDbEntity
  8
HATCH
100
AcDbLine
 10
61.149095
 20
52.510208
 30
0.0
 11
61.585595
 21
50.909608
 31
0.0
  0
LINE
  5
215
100
AcDbEntity
  8
HATCH
100
AcDbLine
 10
60.681795
 20
54.311608
 30
0.0
 11
61.774595
 21
54.075408
 31
0.0
  0
LINE
  5
216
100
AcDbEntity
  8
HATCH
100
AcDbLine
 10
61.774595
 20
54.075408
 30
0.0
 11
59.736995
 21
52.510208
 31
0.0
  0
LINE
  5
217
100
AcDbEntity
  8
HATCH
100
AcDbLine
 10
59.736995
 20
52.510208
 30
0.0
 11
61.272595
 21
52.510208
 31
0.0
  0
LINE
  5
218
100
AcDbEntity
  8
DRAWING
100
AcDbLine
 10
39.204195
 20
47.909808
 30
0.0
 11
42.161795
 21
48.412208
 31
0.0
  0
LINE
  5
219
100
AcDbEntity
  8
DRAWING
100
AcDbLine
 10
42.161795
 20
48.412208
 30
0.0
 11
41.324595
 21
53.341608
 31
0.0
  0
LINE
  5
21A
100
AcDbEntity
  8
DRAWING
100
AcDbLine
 10
41.324595
 20
53.341608
 30
0.0
 11
38.367095
 21
52.839308
 31
0.0
  0
LINE
  5
21B
100
AcDbEntity
  8
DRAWING
100
AcDbLine
 10
38.367095
 20
52.839308
 30
0.0
 11
39.204195
 21
47.909808
 31
0.0
  0
LINE
  5
21C
100
AcDbEntity
  8
DRAWING
100
AcDbLine
 10
39.141495
 20
48.279608
 30
0.0
 11
42.098995
 21
48.781808
 31
0.0
  0
LINE
  5
21D
100
AcDbEntity
  8
DRAWING
100
AcDbLine
 10
40.214295
 20
48.530708
 30
0.0
 11
40.214295
 21
48.874508
 31
0.0
  0
LINE
  5
21E
100
AcDbEntity
  8
DRAWING
100
AcDbLine
 10
40.376795
 20
48.530708
 30
0.0
 11
40.376795
 21
48.781708
 31
0.0
  0
LINE
  5
21F
100
AcDbEntity
  8
DRAWING
100
AcDbLine
 10
40.856595
 20
48.530708
 30
0.0
 11
40.856595
 21
48.781708
 31
0.0
  0
LINE
  5
220
100
AcDbEntity
  8
DRAWING
100
AcDbLine
 10
40.376795
 20
48.781708
 30
0.0
 11
40.305995
 21
48.874508
 31
0.0
  0
LINE
  5
221
100
AcDbEntity
  8
DRAWING
100
AcDbLine
 10
40.376795
 20
48.781708
 30
0.0
 11
40.447195
 21
48.874508
 31
0.0
  0
LINE
  5
222
100
AcDbEntity
  8
DRAWING
100
AcDbLine
 10
40.856595
 20
48.781708
 30
0.0
 11
40.785995
 21
48.874508
 31
0.0
  0
LINE
  5
223
100
AcDbEntity
  8
DRAWING
100
AcDbLine
 10
40.856595
 20
48.781708
 30
0.0
 11
40.927095
 21
48.874508
 31
0.0
  0
LINE
  5
224
100
AcDbEntity
  8
DRAWING
100
AcDbLine
 10
40.870295
 20
48.874508
 30
0.0
 11
40.870295
 21
49.220408
 31
0.0
  0
LINE
  5
225
100
AcDbEntity
  8
DRAWING
100
AcDbLine
 10
40.870295
 20
49.220408
 30
0.0
 11
40.370295
 21
49.220408
 31
0.0
  0
LINE
  5
226
100
AcDbEntity
  8
DRAWING
100
AcDbLine
 10
40.370295
 20
49.220408
 30
0.0
 11
40.370295
 21
48.874508
 31
0.0
  0
LINE
  5
227
100
AcDbEntity
  8
DRAWING
100
AcDbLine
 10
40.214295
 20
48.874508
 30
0.0
 11
41.026295
 21
48.874508
 31
0.0
  0
LINE
  5
228
100
AcDbEntity
  8
DRAWING
100
AcDbLine
 10
41.026295
 20
48.874508
 30
0.0
 11
41.026295
 21
48.530708
 31
0.0
  0
ARC
  5
229
100
AcDbEntity
  8
DRAWING
100
AcDbCircle
 10
40.870295
 20
40.820908
 30
0.0
 40
0.499988
100
AcDbArc
 50
180.0
 51
270.0
  0
ARC
  5
22A
100
AcDbEntity
  8
DRAWING
100
AcDbCircle
 10
41.120295
 20
41.070908
 30
0.0
 40
0.249994
100
AcDbArc
 50
180.0
 51
270.0
  0
LINE
  5
22B
100
AcDbEntity
  8
DRAWING
100
AcDbLine
 10
41.120295
 20
40.820908
 30
0.0
 11
41.715695
 21
40.820908
 31
0.0
  0
LINE
  5
22C
100
AcDbEntity
  8
DRAWING
100
AcDbLine
 10
41.715695
 20
40.820908
 30
0.0
 11
41.715695
 21
40.320908
 31
0.0
  0
LINE
  5
22D
100
AcDbEntity
  8
DRAWING
100
AcDbLine
 10
40.870295
 20
40.320908
 30
0.0
 11
41.715695
 21
40.320908
 31
0.0
  0
LINE
  5
22E
100
AcDbEntity
  8
DRAWING
100
AcDbLine
 10
40.370295
 20
48.530708
 30
0.0
 11
40.370295
 21
40.820908
 31
0.0
  0
LINE
  5
22F
100
AcDbEntity
  8
DRAWING
100
AcDbLine
 10
40.870295
 20
48.530708
 30
0.0
 11
40.870295
 21
41.070908
 31
0.0
  0
ARC
  5
230
100
AcDbEntity
  8
DRAWING
100
AcDbCircle
 10
40.446195
 20
50.100308
 30
0.0
 40
0.25
100
AcDbArc
 50
192.3155
 51
12.3155
  0
ARC
  5
231
100
AcDbEntity
  8
DRAWING
100
AcDbCircle
 10
40.339495
 20
50.588808
 30
0.0
 40
0.25
100
AcDbArc
 50
12.31548
 51
192.3155
  0
LINE
  5
232
100
AcDbEntity
  8
DRAWING
100
AcDbLine
 10
40.095395
 20
50.535408
 30
0.0
 11
40.201795
 21
50.047008
 31
0.0
  0
LINE
  5
233
100
AcDbEntity
  8
DRAWING
100
AcDbLine
 10
40.690295
 20
50.153608
 30
0.0
 11
40.583595
 21
50.642108
 31
0.0
  0
CIRCLE
  5
234
100
AcDbEntity
  8
DRAWING
100
AcDbCircle
 10
39.693995
 20
46.710308
 30
0.0
 40
0.375
  0
CIRCLE
  5
235
100
AcDbEntity
  8
DRAWING
100
AcDbCircle
 10
39.693995
 20
31.472208
 30
0.0
 40
0.375
  0
LINE
  5
23A
100
AcDbEntity
  8
DIM_TEXT
100
AcDbLine
 10
49.430595
 20
37.378408
 30
0.0
 11
46.334595
 21
39.128308
 31
0.0
  0
LINE
  5
23B
100
AcDbEntity
  8
DIM_TEXT
100
AcDbLine
 10
43.258695
 20
63.423308
 30
0.0
 11
40.676195
 21
54.463608
 31
0.0
  0
LINE
  5
23C
100
AcDbEntity
  8
DIM_TEXT
100
AcDbLine
 10
27.949595
 20
53.016408
 30
0.0
 11
29.130795
 21
52.898308
 31
0.0
  0
LINE
  5
23D
100
AcDbEntity
  8
DIM_TEXT
100
AcDbLine
 10
29.130795
 20
52.898308
 30
0.0
 11
30.581895
 21
50.963308
 31
0.0
  0
LINE
  5
23E
100
AcDbEntity
  8
DIM_TEXT
100
AcDbLine
 10
31.256995
 20
50.063308
 30
0.0
 11
30.281895
 21
50.738308
 31
0.0
  0
LINE
  5
23F
100
AcDbEntity
  8
DIM_TEXT
100
AcDbLine
 10
31.256995
 20
50.063308
 30
0.0
 11
30.881995
 21
51.188308
 31
0.0
  0
LINE
  5
240
100
AcDbEntity
  8
DIM_TEXT
100
AcDbLine
 10
30.281895
 20
50.738308
 30
0.0
 11
30.881995
 21
51.188308
 31
0.0
  0
LINE
  5
241
100
AcDbEntity
  8
DIM_TEXT
100
AcDbLine
 10
45.355095
 20
39.681808
 30
0.0
 11
46.519195
 21
39.454808
 31
0.0
  0
LINE
  5
242
100
AcDbEntity
  8
DIM_TEXT
100
AcDbLine
 10
45.355095
 20
39.681808
 30
0.0
 11
46.149995
 21
38.801808
 31
0.0
  0
LINE
  5
243
100
AcDbEntity
  8
DIM_TEXT
100
AcDbLine
 10
46.519195
 20
39.454808
 30
0.0
 11
46.149995
 21
38.801808
 31
0.0
  0
LINE
  5
244
100
AcDbEntity
  8
DIM_TEXT
100
AcDbLine
 10
40.364595
 20
53.382608
 30
0.0
 11
40.315795
 21
54.567508
 31
0.0
  0
LINE
  5
245
100
AcDbEntity
  8
DIM_TEXT
100
AcDbLine
 10
40.364595
 20
53.382608
 30
0.0
 11
41.036495
 21
54.359708
 31
0.0
  0
LINE
  5
246
100
AcDbEntity
  8
DIM_TEXT
100
AcDbLine
 10
40.315795
 20
54.567508
 30
0.0
 11
41.036495
 21
54.359708
 31
0.0
  0
LINE
  5
24A
100
AcDbEntity
  8
DIM_TEXT
100
AcDbLine
 10
44.617095
 20
63.600408
 30
0.0
 11
43.258695
 21
63.423308
 31
0.0
  0
TEXT
  5
24C
100
AcDbEntity
  8
DIM_TEXT
100
AcDbText
 10
51.202295
 20
36.846808
 30
0.0
 40
1.125
  1
RASTRA WALL
 51
15.0
  7
INFO
100
AcDbText
  0
LINE
  5
24E
100
AcDbEntity
  8
DIM_TEXT
100
AcDbLine
 10
50.847995
 20
37.378408
 30
0.0
 11
49.430595
 21
37.378408
 31
0.0
  0
TEXT
  5
250
100
AcDbEntity
  8
DRAWING
100
AcDbText
 10
22.281152
 20
4.991508
 30
0.0
 40
2.5
  1
TRUSS ANCHORAGE
  7
TITLE
100
AcDbText
  0
LINE
  5
251
100
AcDbEntity
  8
DRAWING
100
AcDbLine
 10
40.370295
 20
45.090308
 30
0.0
 11
38.070095
 21
45.090308
 31
0.0
  0
ARC
  5
252
100
AcDbEntity
  8
DRAWING
100
AcDbCircle
 10
40.432995
 20
48.657508
 30
0.0
 40
3.0
100
AcDbArc
 50
278.381678
 51
0.0
  0
TEXT
  5
287
100
AcDbEntity
  8
DIM_TEXT
100
AcDbText
 10
45.43508
 20
62.725428
 30
0.0
 40
1.125
  1
ROOF/WALL ANCHORAGE
 51
15.0
  7
INFO
100
AcDbText
  0
LINE
  5
292
100
AcDbEntity
  8
BORDER
  6
CONTINUOUS
 62
     6
100
AcDbLine
 10
32.836549
 20
38.705016
 30
0.0
 11
37.32859
 21
44.503893
 31
0.0
  0
LINE
  5
293
100
AcDbEntity
  8
BORDER
  6
CONTINUOUS
 62
     6
100
AcDbLine
 10
38.00369
 20
45.403893
 30
0.0
 11
37.62869
 21
44.278893
 31
0.0
  0
LINE
  5
294
100
AcDbEntity
  8
BORDER
  6
CONTINUOUS
 62
     6
100
AcDbLine
 10
38.00369
 20
45.403893
 30
0.0
 11
37.02859
 21
44.728893
 31
0.0
  0
LINE
  5
295
100
AcDbEntity
  8
BORDER
  6
CONTINUOUS
 62
     6
100
AcDbLine
 10
37.02859
 20
44.728893
 30
0.0
 11
37.62869
 21
44.278893
 31
0.0
  0
LINE
  5
296
100
AcDbEntity
  8
BORDER
  6
CONTINUOUS
 62
     6
100
AcDbLine
 10
31.455777
 20
38.665237
 30
0.0
 11
32.887404
 21
38.706481
 31
0.0
  0
TEXT
  5
297
100
AcDbEntity
  8
DIM_TEXT
100
AcDbText
 10
3.031373
 20
38.092048
 30
0.0
 40
1.125
  1
2 X 6 PL. WITH ANCHOR BOLTS
 51
15.0
  7
INFO
100
AcDbText
  0
TEXT
  5
298
100
AcDbEntity
  8
DIM_TEXT
100
AcDbText
 10
3.031373
 20
36.285702
 30
0.0
 40
1.125
  1
(MIN.-1/2"%%C A.B. @ 45" O.C.)
 51
15.0
  7
INFO
100
AcDbText
  0
LEADER
  5
29F
100
AcDbEntity
  8
RF-SW
 62
     6
100
AcDbLeader
  3
ARCHITECTURAL
 76
     3
 10
39.340782
 20
31.290835
 30
0.0
 10
28.154643
 20
24.215676
 30
0.0
 10
26.365375
 20
24.215676
 30
0.0
 77
    13
1001
ACAD
1000
DSTYLE
1002
{
1070
    40
1040
12.0
1070
   173
1070
     1
1070
   176
1070
     6
1070
     7
1000
_CLOSEDBLANK
1070
     6
1000
_CLOSEDBLANK
1002
}
  0
LEADER
  5
2A0
100
AcDbEntity
  8
RF-SW
 62
     6
100
AcDbLeader
  3
ARCHITECTURAL
 76
     3
 10
40.289439
 20
28.519388
 30
0.0
 10
50.072724
 20
25.638365
 30
0.0
 10
51.861993
 20
25.638365
 30
0.0
 77
    13
211
-1.0
221
0.0
231
0.0
1001
ACAD
1000
DSTYLE
1002
{
1070
    40
1040
12.0
1070
   173
1070
     1
1070
   176
1070
     6
1070
     7
1000
_CLOSEDBLANK
1070
     6
1000
_CLOSEDBLANK
1002
}
  0
TEXT
  5
2A1
100
AcDbEntity
  8
DIM_TEXT
100
AcDbText
 10
52.373488
 20
25.355031
 30
0.0
 40
1.125
  1
VERT. REINF.
 51
15.0
  7
INFO
100
AcDbText
  0
TEXT
  5
2A2
100
AcDbEntity
  8
DIM_TEXT
100
AcDbText
 10
51.506168
 20
23.459561
 30
0.0
 40
1.125
  1
(MIN. #4 @ 30" O.C.
 51
15.0
  7
INFO
100
AcDbText
  0
TEXT
  5
2A3
100
AcDbEntity
  8
DIM_TEXT
100
AcDbText
 10
14.729243
 20
23.817819
 30
0.0
 40
1.125
  1
HORIZ. REINF.
 51
15.0
  7
INFO
100
AcDbText
  0
TEXT
  5
2A4
100
AcDbEntity
  8
DIM_TEXT
100
AcDbText
 10
9.090411
 20
21.818668
 30
0.0
 40
1.125
  1
(MIN. #4 @ 30" O.C.
 51
15.0
  7
INFO
100
AcDbText
  0
TEXT
  5
2A5
100
AcDbEntity
  8
DIM_TEXT
100
AcDbText
 10
6.401792
 20
20.038703
 30
0.0
 40
1.125
  1
REQUIRED, PER DESIGN)
 51
15.0
  7
INFO
100
AcDbText
  0
TEXT
  5
2A8
100
AcDbEntity
  8
DIM_TEXT
100
AcDbText
 10
51.506168
 20
21.675833
 30
0.0
 40
1.125
  1
REQUIRED PER DESIGN)
 51
15.0
  7
INFO
100
AcDbText
  0
ENDSEC
  0
SECTION
  2
OBJECTS
  0
DICTIONARY
  5
C
100
AcDbDictionary
  3
ACAD_GROUP
350
D
  3
ACAD_MLINESTYLE
350
1A
  3
ACDBVARIABLEDICTIONARY
350
29
  0
DICTIONARY
  5
D
102
{ACAD_REACTORS
330
C
102
}
100
AcDbDictionary
  0
DICTIONARY
  5
1A
102
{ACAD_REACTORS
330
C
102
}
100
AcDbDictionary
  3
STANDARD
350
1B
  0
DICTIONARY
  5
29
102
{ACAD_REACTORS
330
C
102
}
100
AcDbDictionary
  3
DIMADEC
350
2A
  0
MLINESTYLE
  5
1B
102
{ACAD_REACTORS
330
1A
102
}
100
AcDbMlineStyle
  2
STANDARD
 70
     0
  3

 62
   256
 51
90.0
 52
90.0
 71
     2
 49
0.5
 62
   256
  6
BYLAYER
 49
-0.5
 62
   256
  6
BYLAYER
  0
DICTIONARYVAR
  5
2A
102
{ACAD_REACTORS
330
29
102
}
100
DictionaryVariables
280
     0
  1
0
  0
ENDSEC
  0
EOF
