  0
SECTION
  2
HEADER
  9
$ACADVER
  1
AC1014
  9
$ACADMAINTVER
 70
     8
  9
$DWGCODEPAGE
  3
ANSI_1252
  9
$INSBASE
 10
0.0
 20
0.0
 30
0.0
  9
$EXTMIN
 10
2.016207
 20
4.83643
 30
0.0
  9
$EXTMAX
 10
81.666821
 20
69.65165
 30
96.0
  9
$LIMMIN
 10
0.0
 20
0.0
  9
$LIMMAX
 10
85.0
 20
110.0
  9
$ORTHOMODE
 70
     1
  9
$REGENMODE
 70
     1
  9
$FILLMODE
 70
     1
  9
$QTEXTMODE
 70
     0
  9
$MIRRTEXT
 70
     1
  9
$DRAGMODE
 70
     2
  9
$LTSCALE
 40
1.0
  9
$OSMODE
 70
    37
  9
$ATTMODE
 70
     1
  9
$TEXTSIZE
 40
0.2
  9
$TRACEWID
 40
0.05
  9
$TEXTSTYLE
  7
STANDARD
  9
$CLAYER
  8
0
  9
$CELTYPE
  6
BYLAYER
  9
$CECOLOR
 62
   256
  9
$CELTSCALE
 40
1.0
  9
$DELOBJ
 70
     1
  9
$DISPSILH
 70
     0
  9
$DIMSCALE
 40
1.0
  9
$DIMASZ
 40
0.18
  9
$DIMEXO
 40
0.0625
  9
$DIMDLI
 40
0.38
  9
$DIMRND
 40
0.0
  9
$DIMDLE
 40
0.0
  9
$DIMEXE
 40
0.18
  9
$DIMTP
 40
0.0
  9
$DIMTM
 40
0.0
  9
$DIMTXT
 40
0.18
  9
$DIMCEN
 40
0.09
  9
$DIMTSZ
 40
0.0
  9
$DIMTOL
 70
     0
  9
$DIMLIM
 70
     0
  9
$DIMTIH
 70
     1
  9
$DIMTOH
 70
     1
  9
$DIMSE1
 70
     0
  9
$DIMSE2
 70
     0
  9
$DIMTAD
 70
     0
  9
$DIMZIN
 70
     0
  9
$DIMBLK
  1

  9
$DIMASO
 70
     1
  9
$DIMSHO
 70
     1
  9
$DIMPOST
  1

  9
$DIMAPOST
  1

  9
$DIMALT
 70
     0
  9
$DIMALTD
 70
     2
  9
$DIMALTF
 40
25.4
  9
$DIMLFAC
 40
1.0
  9
$DIMTOFL
 70
     0
  9
$DIMTVP
 40
0.0
  9
$DIMTIX
 70
     0
  9
$DIMSOXD
 70
     0
  9
$DIMSAH
 70
     0
  9
$DIMBLK1
  1

  9
$DIMBLK2
  1

  9
$DIMSTYLE
  2
STANDARD
  9
$DIMCLRD
 70
     0
  9
$DIMCLRE
 70
     0
  9
$DIMCLRT
 70
     0
  9
$DIMTFAC
 40
1.0
  9
$DIMGAP
 40
0.09
  9
$DIMJUST
 70
     0
  9
$DIMSD1
 70
     0
  9
$DIMSD2
 70
     0
  9
$DIMTOLJ
 70
     1
  9
$DIMTZIN
 70
     0
  9
$DIMALTZ
 70
     0
  9
$DIMALTTZ
 70
     0
  9
$DIMFIT
 70
     5
  9
$DIMUPT
 70
     0
  9
$DIMUNIT
 70
     4
  9
$DIMDEC
 70
     4
  9
$DIMTDEC
 70
     4
  9
$DIMALTU
 70
     4
  9
$DIMALTTD
 70
     2
  9
$DIMTXSTY
  7
STANDARD
  9
$DIMAUNIT
 70
     2
  9
$LUNITS
 70
     4
  9
$LUPREC
 70
     4
  9
$SKETCHINC
 40
0.1
  9
$FILLETRAD
 40
0.0
  9
$AUNITS
 70
     2
  9
$AUPREC
 70
     0
  9
$MENU
  1
acad
  9
$ELEVATION
 40
0.0
  9
$PELEVATION
 40
0.0
  9
$THICKNESS
 40
0.0
  9
$LIMCHECK
 70
     0
  9
$BLIPMODE
 70
     1
  9
$CHAMFERA
 40
0.0
  9
$CHAMFERB
 40
0.0
  9
$CHAMFERC
 40
0.0
  9
$CHAMFERD
 40
0.0
  9
$SKPOLY
 70
     0
  9
$TDCREATE
 40
2451165.752355208
  9
$TDUPDATE
 40
2452248.542986111
  9
$TDINDWG
 40
0.0431252315
  9
$TDUSRTIMER
 40
0.0431252315
  9
$USRTIMER
 70
     1
  9
$ANGBASE
 50
0.0
  9
$ANGDIR
 70
     0
  9
$PDMODE
 70
     0
  9
$PDSIZE
 40
0.0
  9
$PLINEWID
 40
0.0
  9
$COORDS
 70
     1
  9
$SPLFRAME
 70
     0
  9
$SPLINETYPE
 70
     6
  9
$SPLINESEGS
 70
     8
  9
$ATTDIA
 70
     0
  9
$ATTREQ
 70
     1
  9
$HANDLING
 70
     1
  9
$HANDSEED
  5
8CA
  9
$SURFTAB1
 70
     6
  9
$SURFTAB2
 70
     6
  9
$SURFTYPE
 70
     6
  9
$SURFU
 70
     6
  9
$SURFV
 70
     6
  9
$UCSNAME
  2

  9
$UCSORG
 10
0.0
 20
0.0
 30
0.0
  9
$UCSXDIR
 10
1.0
 20
0.0
 30
0.0
  9
$UCSYDIR
 10
0.0
 20
1.0
 30
0.0
  9
$PUCSNAME
  2

  9
$PUCSORG
 10
0.0
 20
0.0
 30
0.0
  9
$PUCSXDIR
 10
1.0
 20
0.0
 30
0.0
  9
$PUCSYDIR
 10
0.0
 20
1.0
 30
0.0
  9
$USERI1
 70
     0
  9
$USERI2
 70
     0
  9
$USERI3
 70
     0
  9
$USERI4
 70
     0
  9
$USERI5
 70
     0
  9
$USERR1
 40
0.0
  9
$USERR2
 40
0.0
  9
$USERR3
 40
0.0
  9
$USERR4
 40
0.0
  9
$USERR5
 40
0.0
  9
$WORLDVIEW
 70
     1
  9
$SHADEDGE
 70
     3
  9
$SHADEDIF
 70
    70
  9
$TILEMODE
 70
     1
  9
$MAXACTVP
 70
    16
  9
$PINSBASE
 10
0.0
 20
0.0
 30
0.0
  9
$PLIMCHECK
 70
     0
  9
$PEXTMIN
 10
1.000000E+20
 20
1.000000E+20
 30
1.000000E+20
  9
$PEXTMAX
 10
-1.000000E+20
 20
-1.000000E+20
 30
-1.000000E+20
  9
$PLIMMIN
 10
0.0
 20
0.0
  9
$PLIMMAX
 10
12.0
 20
9.0
  9
$UNITMODE
 70
     0
  9
$VISRETAIN
 70
     0
  9
$PLINEGEN
 70
     0
  9
$PSLTSCALE
 70
     1
  9
$TREEDEPTH
 70
  3020
  9
$PICKSTYLE
 70
     1
  9
$CMLSTYLE
  2
STANDARD
  9
$CMLJUST
 70
     0
  9
$CMLSCALE
 40
1.0
  9
$PROXYGRAPHICS
 70
     1
  9
$MEASUREMENT
 70
     0
  0
ENDSEC
  0
SECTION
  2
CLASSES
  0
CLASS
  1
DICTIONARYVAR
  2
AcDbDictionaryVar
  3
"AutoCAD"
 90
        0
280
     0
281
     0
  0
ENDSEC
  0
SECTION
  2
TABLES
  0
TABLE
  2
VPORT
  5
8
100
AcDbSymbolTable
 70
     1
  0
VPORT
  5
8C3
100
AcDbSymbolTableRecord
100
AcDbViewportTableRecord
  2
*ACTIVE
 70
     0
 10
0.0
 20
0.0
 11
1.0
 21
1.0
 12
44.653271
 22
40.025356
 13
0.0
 23
0.0
 14
1.0
 24
1.0
 15
1.0
 25
1.0
 16
0.0
 26
0.0
 36
1.0
 17
0.0
 27
0.0
 37
0.0
 40
75.861856
 41
1.474388
 42
50.0
 43
0.0
 44
0.0
 50
0.0
 51
0.0
 71
     0
 72
   100
 73
     1
 74
     1
 75
     0
 76
     0
 77
     0
 78
     0
  0
ENDTAB
  0
TABLE
  2
LTYPE
  5
5
100
AcDbSymbolTable
 70
     2
  0
LTYPE
  5
11
100
AcDbSymbolTableRecord
100
AcDbLinetypeTableRecord
  2
BYBLOCK
 70
     0
  3

 72
    65
 73
     0
 40
0.0
  0
LTYPE
  5
12
100
AcDbSymbolTableRecord
100
AcDbLinetypeTableRecord
  2
BYLAYER
 70
     0
  3

 72
    65
 73
     0
 40
0.0
  0
LTYPE
  5
13
100
AcDbSymbolTableRecord
100
AcDbLinetypeTableRecord
  2
CONTINUOUS
 70
     0
  3
Solid line
 72
    65
 73
     0
 40
0.0
  0
LTYPE
  5
30E
100
AcDbSymbolTableRecord
100
AcDbLinetypeTableRecord
  2
DASHED
 70
     0
  3
__ __ __ __ __ __ __ __ __ __ __ __ __ __ __
 72
    65
 73
     2
 40
12.0
 49
6.0
 74
     0
 49
-3.0
 74
     0
  0
ENDTAB
  0
TABLE
  2
LAYER
  5
2
100
AcDbSymbolTable
 70
     6
  0
LAYER
  5
E
100
AcDbSymbolTableRecord
100
AcDbLayerTableRecord
  2
0
 70
     0
 62
     7
  6
CONTINUOUS
  0
LAYER
  5
22
100
AcDbSymbolTableRecord
100
AcDbLayerTableRecord
  2
DRAWING
 70
     0
 62
     7
  6
CONTINUOUS
  0
LAYER
  5
23
100
AcDbSymbolTableRecord
100
AcDbLayerTableRecord
  2
HATCH
 70
     0
 62
     3
  6
CONTINUOUS
  0
LAYER
  5
24
100
AcDbSymbolTableRecord
100
AcDbLayerTableRecord
  2
DIM_TEXT
 70
     0
 62
     6
  6
CONTINUOUS
  0
LAYER
  5
30F
100
AcDbSymbolTableRecord
100
AcDbLayerTableRecord
  2
BORDER
 70
     0
 62
    14
  6
CONTINUOUS
  0
LAYER
  5
310
100
AcDbSymbolTableRecord
100
AcDbLayerTableRecord
  2
RF-SW
 70
     0
 62
     9
  6
CONTINUOUS
  0
ENDTAB
  0
TABLE
  2
STYLE
  5
3
100
AcDbSymbolTable
 70
     5
  0
STYLE
  5
F
100
AcDbSymbolTableRecord
100
AcDbTextStyleTableRecord
  2
STANDARD
 70
     0
 40
0.0
 41
1.0
 50
0.0
 71
     0
 42
0.2
  3
txt
  4

  0
STYLE
  5
1C
100
AcDbSymbolTableRecord
100
AcDbTextStyleTableRecord
  2
INFO
 70
     0
 40
0.0
 41
1.0
 50
15.0
 71
     0
 42
1.08
  3
C:\ACADWIN\FONTS\ROMANS.SHX
  4

  0
STYLE
  5
1D
100
AcDbSymbolTableRecord
100
AcDbTextStyleTableRecord
  2
TITLE
 70
     0
 40
0.0
 41
1.0
 50
0.0
 71
     0
 42
2.8
  3
C:\ACADWIN\FONTS\ROMANC.SHX
  4

  0
STYLE
  5
311
100
AcDbSymbolTableRecord
100
AcDbTextStyleTableRecord
  2
ROMAN
 70
     0
 40
0.0
 41
1.0
 50
0.0
 71
     0
 42
2.25
  3
romans.shx
  4

  0
STYLE
  5
312
100
AcDbSymbolTableRecord
100
AcDbTextStyleTableRecord
  2
ROMANS
 70
     0
 40
0.0
 41
1.0
 50
0.0
 71
     0
 42
2.25
  3
romans
  4

  0
ENDTAB
  0
TABLE
  2
VIEW
  5
6
100
AcDbSymbolTable
 70
     0
  0
ENDTAB
  0
TABLE
  2
UCS
  5
7
100
AcDbSymbolTable
 70
     0
  0
ENDTAB
  0
TABLE
  2
APPID
  5
9
100
AcDbSymbolTable
 70
     2
  0
APPID
  5
10
100
AcDbSymbolTableRecord
100
AcDbRegAppTableRecord
  2
ACAD
 70
     0
  0
APPID
  5
21
100
AcDbSymbolTableRecord
100
AcDbRegAppTableRecord
  2
ZIMM
 70
     0
  0
ENDTAB
  0
TABLE
  2
DIMSTYLE
  5
A
100
AcDbSymbolTable
 70
     2
  0
DIMSTYLE
105
305
100
AcDbSymbolTableRecord
100
AcDbDimStyleTableRecord
  2
STANDARD
 70
     0
  3

  4

  5

  6

  7

 40
1.0
 41
0.18
 42
0.0625
 43
0.38
 44
0.18
 45
0.0
 46
0.0
 47
0.0
 48
0.0
140
0.18
141
0.09
142
0.0
143
25.4
144
1.0
145
0.0
146
1.0
147
0.09
 71
     0
 72
     0
 73
     1
 74
     1
 75
     0
 76
     0
 77
     0
 78
     0
170
     0
171
     2
172
     0
173
     0
174
     0
175
     0
176
     0
177
     0
178
     0
270
     2
271
     4
272
     4
273
     2
274
     2
340
F
275
     0
280
     0
281
     0
282
     0
283
     1
284
     0
285
     0
286
     0
287
     3
288
     0
  0
DIMSTYLE
105
313
100
AcDbSymbolTableRecord
100
AcDbDimStyleTableRecord
  2
ARCHITECTURAL
 70
     0
  3

  4

  5

  6

  7

 40
1.0
 41
0.125
 42
0.0
 43
0.375
 44
0.0
 45
0.0
 46
0.0
 47
0.0
 48
0.0
140
0.09375
141
0.0625
142
0.0
143
25.4
144
1.0
145
0.0
146
1.0
147
0.0
 71
     0
 72
     0
 73
     0
 74
     0
 75
     0
 76
     0
 77
     1
 78
    13
170
     0
171
     2
172
     0
173
     0
174
     0
175
     0
176
    13
177
    13
178
     7
270
     6
271
     4
272
     4
273
     2
274
     2
340
312
275
     1
280
     0
281
     0
282
     0
283
     1
284
    13
285
     0
286
     0
287
     3
288
     0
  0
ENDTAB
  0
TABLE
  2
BLOCK_RECORD
  5
1
100
AcDbSymbolTable
 70
     2
  0
BLOCK_RECORD
  5
17
100
AcDbSymbolTableRecord
100
AcDbBlockTableRecord
  2
*MODEL_SPACE
  0
BLOCK_RECORD
  5
14
100
AcDbSymbolTableRecord
100
AcDbBlockTableRecord
  2
*PAPER_SPACE
  0
BLOCK_RECORD
  5
308
100
AcDbSymbolTableRecord
100
AcDbBlockTableRecord
  2
_CLOSEDBLANK
  0
BLOCK_RECORD
  5
314
100
AcDbSymbolTableRecord
100
AcDbBlockTableRecord
  2
A$C07E23110
  0
ENDTAB
  0
ENDSEC
  0
SECTION
  2
BLOCKS
  0
BLOCK
  5
27
100
AcDbEntity
  8
0
100
AcDbBlockBegin
  2
*MODEL_SPACE
 70
     0
 10
0.0
 20
0.0
 30
0.0
  3
*MODEL_SPACE
  1

  0
ENDBLK
  5
28
100
AcDbEntity
  8
0
100
AcDbBlockEnd
  0
BLOCK
  5
25
100
AcDbEntity
 67
     1
  8
0
100
AcDbBlockBegin
  2
*PAPER_SPACE
 70
     0
 10
0.0
 20
0.0
 30
0.0
  3
*PAPER_SPACE
  1

  0
ENDBLK
  5
26
100
AcDbEntity
 67
     1
  8
0
100
AcDbBlockEnd
  0
BLOCK
  5
30C
100
AcDbEntity
  8
0
100
AcDbBlockBegin
  2
_CLOSEDBLANK
 70
     0
 10
0.0
 20
0.0
 30
0.0
  3
_CLOSEDBLANK
  1

  0
LINE
  5
309
100
AcDbEntity
  8
0
  6
BYBLOCK
 62
     0
100
AcDbLine
 10
-1.0
 20
0.166667
 30
0.0
 11
0.0
 21
0.0
 31
0.0
  0
LINE
  5
30A
100
AcDbEntity
  8
0
  6
BYBLOCK
 62
     0
100
AcDbLine
 10
0.0
 20
0.0
 30
0.0
 11
-1.0
 21
-0.166667
 31
0.0
  0
LINE
  5
30B
100
AcDbEntity
  8
0
  6
BYBLOCK
 62
     0
100
AcDbLine
 10
-1.0
 20
0.166667
 30
0.0
 11
-1.0
 21
-0.166667
 31
0.0
  0
ENDBLK
  5
30D
100
AcDbEntity
  8
0
100
AcDbBlockEnd
  0
BLOCK
  5
5E9
100
AcDbEntity
  8
0
100
AcDbBlockBegin
  2
A$C07E23110
 70
     0
 10
0.0
 20
0.0
 30
0.0
  3
A$C07E23110
  1

  0
CIRCLE
  5
315
100
AcDbEntity
  8
BORDER
  6
CONTINUOUS
 62
    15
100
AcDbCircle
 39
96.0
 10
38.3545
 20
9.462948
 30
0.0
 40
0.375
  0
LINE
  5
316
100
AcDbEntity
  8
BORDER
  6
CONTINUOUS
 62
    15
100
AcDbLine
 39
96.0
 10
3.7937
 20
18.6713
 30
0.0
 11
6.2895
 21
18.6424
 31
0.0
  0
LINE
  5
317
100
AcDbEntity
  8
BORDER
  6
CONTINUOUS
 62
    15
100
AcDbLine
 39
96.0
 10
5.5322
 20
45.1319
 30
0.0
 11
5.5322
 21
43.2419
 31
0.0
  0
LINE
  5
318
100
AcDbEntity
  8
BORDER
  6
CONTINUOUS
 62
    15
100
AcDbLine
 39
96.0
 10
9.5322
 20
45.1319
 30
0.0
 11
9.5322
 21
43.2419
 31
0.0
  0
LINE
  5
319
100
AcDbEntity
  8
BORDER
  6
CONTINUOUS
 62
    15
100
AcDbLine
 39
96.0
 10
13.5322
 20
45.1319
 30
0.0
 11
13.5322
 21
43.2419
 31
0.0
  0
LINE
  5
31A
100
AcDbEntity
  8
BORDER
  6
CONTINUOUS
 62
    15
100
AcDbLine
 39
96.0
 10
17.5322
 20
45.1319
 30
0.0
 11
17.5322
 21
43.2419
 31
0.0
  0
LINE
  5
31B
100
AcDbEntity
  8
BORDER
  6
CONTINUOUS
 62
    15
100
AcDbLine
 39
96.0
 10
21.5322
 20
45.1319
 30
0.0
 11
21.5322
 21
43.2419
 31
0.0
  0
LINE
  5
31C
100
AcDbEntity
  8
BORDER
  6
CONTINUOUS
 62
    15
100
AcDbLine
 39
96.0
 10
25.5322
 20
45.1319
 30
0.0
 11
25.5322
 21
43.2419
 31
0.0
  0
LINE
  5
31D
100
AcDbEntity
  8
BORDER
  6
CONTINUOUS
 62
    15
100
AcDbLine
 39
96.0
 10
29.5322
 20
45.1319
 30
0.0
 11
29.5322
 21
43.2419
 31
0.0
  0
LINE
  5
31E
100
AcDbEntity
  8
BORDER
  6
CONTINUOUS
 62
    15
100
AcDbLine
 39
96.0
 10
33.5322
 20
45.1319
 30
0.0
 11
33.5322
 21
43.2419
 31
0.0
  0
LINE
  5
31F
100
AcDbEntity
  8
BORDER
  6
CONTINUOUS
 62
    15
100
AcDbLine
 39
96.0
 10
37.5322
 20
45.1319
 30
0.0
 11
37.5322
 21
43.2419
 31
0.0
  0
LINE
  5
320
100
AcDbEntity
  8
BORDER
  6
CONTINUOUS
 62
    15
100
AcDbLine
 39
96.0
 10
41.5322
 20
45.1319
 30
0.0
 11
41.5322
 21
43.2419
 31
0.0
  0
LINE
  5
321
100
AcDbEntity
  8
BORDER
  6
CONTINUOUS
 62
    15
100
AcDbLine
 39
96.0
 10
45.5322
 20
45.1319
 30
0.0
 11
45.5322
 21
43.2419
 31
0.0
  0
LINE
  5
322
100
AcDbEntity
  8
BORDER
  6
CONTINUOUS
 62
    15
100
AcDbLine
 39
96.0
 10
49.5322
 20
45.1319
 30
0.0
 11
49.5322
 21
43.2419
 31
0.0
  0
LINE
  5
323
100
AcDbEntity
  8
BORDER
  6
CONTINUOUS
 62
    15
100
AcDbLine
 39
96.0
 10
53.5322
 20
45.1319
 30
0.0
 11
53.5322
 21
43.2419
 31
0.0
  0
LINE
  5
324
100
AcDbEntity
  8
BORDER
  6
CONTINUOUS
 62
    15
100
AcDbLine
 39
96.0
 10
57.5322
 20
45.1319
 30
0.0
 11
57.5322
 21
43.2419
 31
0.0
  0
LINE
  5
325
100
AcDbEntity
  8
BORDER
  6
CONTINUOUS
 62
    15
100
AcDbLine
 39
96.0
 10
61.5322
 20
45.1319
 30
0.0
 11
61.5322
 21
43.2419
 31
0.0
  0
LINE
  5
326
100
AcDbEntity
  8
BORDER
  6
CONTINUOUS
 62
    15
100
AcDbLine
 39
96.0
 10
65.5322
 20
45.1319
 30
0.0
 11
65.5322
 21
43.2419
 31
0.0
  0
LINE
  5
327
100
AcDbEntity
  8
BORDER
  6
CONTINUOUS
 62
    15
100
AcDbLine
 39
96.0
 10
69.5322
 20
45.1319
 30
0.0
 11
69.5322
 21
43.2419
 31
0.0
  0
LINE
  5
328
100
AcDbEntity
  8
BORDER
  6
CONTINUOUS
 62
    15
100
AcDbLine
 39
96.0
 10
73.5322
 20
45.1319
 30
0.0
 11
73.5322
 21
43.2419
 31
0.0
  0
LINE
  5
329
100
AcDbEntity
  8
BORDER
  6
CONTINUOUS
 62
    15
100
AcDbLine
 39
96.0
 10
66.6626
 20
41.7652
 30
0.0
 11
66.5444
 21
41.8834
 31
0.0
  0
LINE
  5
32A
100
AcDbEntity
  8
BORDER
  6
CONTINUOUS
 62
    15
100
AcDbLine
 39
96.0
 10
64.8906
 20
41.8242
 30
0.0
 11
64.7724
 21
41.9424
 31
0.0
  0
LINE
  5
32B
100
AcDbEntity
  8
BORDER
  6
CONTINUOUS
 62
    15
100
AcDbLine
 39
96.0
 10
65.9538
 20
43.2418
 30
0.0
 11
65.8357
 21
43.36
 31
0.0
  0
LINE
  5
32C
100
AcDbEntity
  8
BORDER
  6
CONTINUOUS
 62
    15
100
AcDbLine
 39
96.0
 10
68.08
 20
43.2418
 30
0.0
 11
67.9619
 21
43.36
 31
0.0
  0
LINE
  5
32D
100
AcDbEntity
  8
BORDER
  6
CONTINUOUS
 62
    15
100
AcDbLine
 39
96.0
 10
52.539
 20
27.6493
 30
0.0
 11
51.4463
 21
27.6493
 31
0.0
  0
LINE
  5
32E
100
AcDbEntity
  8
BORDER
  6
CONTINUOUS
 62
    15
100
AcDbLine
 39
96.0
 10
52.539
 20
28.4024
 30
0.0
 11
51.4463
 21
28.4024
 31
0.0
  0
LINE
  5
32F
100
AcDbEntity
  8
BORDER
  6
CONTINUOUS
 62
    15
100
AcDbLine
 39
96.0
 10
52.539
 20
29.5098
 30
0.0
 11
51.4463
 21
29.5098
 31
0.0
  0
LINE
  5
330
100
AcDbEntity
  8
BORDER
  6
CONTINUOUS
 62
    13
100
AcDbLine
 39
96.0
 10
53.0381
 20
29.9742
 30
0.0
 11
52.3945
 21
29.9742
 31
0.0
  0
LINE
  5
331
100
AcDbEntity
  8
BORDER
  6
CONTINUOUS
 62
    13
100
AcDbLine
 39
96.0
 10
52.3945
 20
29.9742
 30
0.0
 11
52.3945
 21
27.4429
 31
0.0
  0
CIRCLE
  5
332
100
AcDbEntity
  8
BORDER
  6
CONTINUOUS
 62
    13
100
AcDbCircle
 39
96.0
 10
52.7861
 20
29.8609
 30
0.0
 40
0.033146
  0
CIRCLE
  5
333
100
AcDbEntity
  8
BORDER
  6
CONTINUOUS
 62
    13
100
AcDbCircle
 39
96.0
 10
53.3486
 20
28.689
 30
0.0
 40
0.033146
  0
CIRCLE
  5
334
100
AcDbEntity
  8
BORDER
  6
CONTINUOUS
 62
    13
100
AcDbCircle
 39
96.0
 10
52.7392
 20
27.6734
 30
0.0
 40
0.033146
  0
LINE
  5
335
100
AcDbEntity
  8
BORDER
  6
CONTINUOUS
 62
    13
100
AcDbLine
 39
96.0
 10
52.457
 20
29.9742
 30
0.0
 11
52.457
 21
27.4429
 31
0.0
  0
LINE
  5
336
100
AcDbEntity
  8
BORDER
  6
CONTINUOUS
 62
    13
100
AcDbLine
 39
96.0
 10
53.0381
 20
29.5054
 30
0.0
 11
53.0381
 21
29.9742
 31
0.0
  0
LINE
  5
337
100
AcDbEntity
  8
BORDER
  6
CONTINUOUS
 62
    13
100
AcDbLine
 39
96.0
 10
53.624
 20
28.9195
 30
0.0
 11
53.0381
 21
29.5054
 31
0.0
  0
LINE
  5
338
100
AcDbEntity
  8
BORDER
  6
CONTINUOUS
 62
    13
100
AcDbLine
 39
96.0
 10
53.624
 20
28.4976
 30
0.0
 11
53.624
 21
28.9195
 31
0.0
  0
LINE
  5
339
100
AcDbEntity
  8
BORDER
  6
CONTINUOUS
 62
    13
100
AcDbLine
 39
96.0
 10
52.999
 20
27.8726
 30
0.0
 11
53.624
 21
28.4976
 31
0.0
  0
LINE
  5
33A
100
AcDbEntity
  8
BORDER
  6
CONTINUOUS
 62
    13
100
AcDbLine
 39
96.0
 10
52.999
 20
27.4429
 30
0.0
 11
52.999
 21
27.8726
 31
0.0
  0
LINE
  5
33B
100
AcDbEntity
  8
BORDER
  6
CONTINUOUS
 62
    13
100
AcDbLine
 39
96.0
 10
52.999
 20
27.4429
 30
0.0
 11
52.3945
 21
27.4429
 31
0.0
  0
LINE
  5
33C
100
AcDbEntity
  8
BORDER
  6
CONTINUOUS
 62
    15
100
AcDbLine
 39
96.0
 10
52.3977
 20
26.1866
 30
0.0
 11
70.3977
 21
44.1866
 31
0.0
  0
LINE
  5
33D
100
AcDbEntity
  8
BORDER
  6
CONTINUOUS
 62
    15
100
AcDbLine
 39
96.0
 10
52.3977
 20
31.1363
 30
0.0
 11
65.448
 21
44.1866
 31
0.0
  0
LINE
  5
33E
100
AcDbEntity
  8
BORDER
  6
CONTINUOUS
 62
    15
100
AcDbLine
 39
96.0
 10
14.1006
 20
41.8242
 30
0.0
 11
14.2187
 21
41.9424
 31
0.0
  0
LINE
  5
33F
100
AcDbEntity
  8
BORDER
  6
CONTINUOUS
 62
    15
100
AcDbLine
 39
96.0
 10
12.3286
 20
41.7652
 30
0.0
 11
12.4468
 21
41.8834
 31
0.0
  0
LINE
  5
340
100
AcDbEntity
  8
BORDER
  6
CONTINUOUS
 62
    15
100
AcDbLine
 39
96.0
 10
13.0373
 20
43.2418
 30
0.0
 11
13.1555
 21
43.36
 31
0.0
  0
LINE
  5
341
100
AcDbEntity
  8
BORDER
  6
CONTINUOUS
 62
    15
100
AcDbLine
 39
96.0
 10
10.9111
 20
43.2418
 30
0.0
 11
11.0293
 21
43.36
 31
0.0
  0
LINE
  5
342
100
AcDbEntity
  8
BORDER
  6
CONTINUOUS
 62
    15
100
AcDbLine
 39
96.0
 10
26.4521
 20
27.6493
 30
0.0
 11
27.5449
 21
27.6493
 31
0.0
  0
LINE
  5
343
100
AcDbEntity
  8
BORDER
  6
CONTINUOUS
 62
    15
100
AcDbLine
 39
96.0
 10
26.4521
 20
28.4024
 30
0.0
 11
27.5449
 21
28.4024
 31
0.0
  0
LINE
  5
344
100
AcDbEntity
  8
BORDER
  6
CONTINUOUS
 62
    15
100
AcDbLine
 39
96.0
 10
26.4521
 20
29.5098
 30
0.0
 11
27.5449
 21
29.5098
 31
0.0
  0
LINE
  5
345
100
AcDbEntity
  8
BORDER
  6
CONTINUOUS
 62
    13
100
AcDbLine
 39
96.0
 10
25.9531
 20
29.9742
 30
0.0
 11
26.5966
 21
29.9742
 31
0.0
  0
LINE
  5
346
100
AcDbEntity
  8
BORDER
  6
CONTINUOUS
 62
    13
100
AcDbLine
 39
96.0
 10
26.5966
 20
29.9742
 30
0.0
 11
26.5966
 21
27.4429
 31
0.0
  0
CIRCLE
  5
347
100
AcDbEntity
  8
BORDER
  6
CONTINUOUS
 62
    13
100
AcDbCircle
 39
96.0
 10
26.205
 20
29.8609
 30
0.0
 40
0.033146
  0
CIRCLE
  5
348
100
AcDbEntity
  8
BORDER
  6
CONTINUOUS
 62
    13
100
AcDbCircle
 39
96.0
 10
25.6425
 20
28.689
 30
0.0
 40
0.033146
  0
CIRCLE
  5
349
100
AcDbEntity
  8
BORDER
  6
CONTINUOUS
 62
    13
100
AcDbCircle
 39
96.0
 10
26.2519
 20
27.6734
 30
0.0
 40
0.033146
  0
LINE
  5
34A
100
AcDbEntity
  8
BORDER
  6
CONTINUOUS
 62
    13
100
AcDbLine
 39
96.0
 10
26.5341
 20
29.9742
 30
0.0
 11
26.5341
 21
27.4429
 31
0.0
  0
LINE
  5
34B
100
AcDbEntity
  8
BORDER
  6
CONTINUOUS
 62
    13
100
AcDbLine
 39
96.0
 10
25.9531
 20
29.5054
 30
0.0
 11
25.9531
 21
29.9742
 31
0.0
  0
LINE
  5
34C
100
AcDbEntity
  8
BORDER
  6
CONTINUOUS
 62
    13
100
AcDbLine
 39
96.0
 10
25.3672
 20
28.9195
 30
0.0
 11
25.9531
 21
29.5054
 31
0.0
  0
LINE
  5
34D
100
AcDbEntity
  8
BORDER
  6
CONTINUOUS
 62
    13
100
AcDbLine
 39
96.0
 10
25.3672
 20
28.4976
 30
0.0
 11
25.3672
 21
28.9195
 31
0.0
  0
LINE
  5
34E
100
AcDbEntity
  8
BORDER
  6
CONTINUOUS
 62
    13
100
AcDbLine
 39
96.0
 10
25.9922
 20
27.8726
 30
0.0
 11
25.3672
 21
28.4976
 31
0.0
  0
LINE
  5
34F
100
AcDbEntity
  8
BORDER
  6
CONTINUOUS
 62
    13
100
AcDbLine
 39
96.0
 10
25.9922
 20
27.4429
 30
0.0
 11
25.9922
 21
27.8726
 31
0.0
  0
LINE
  5
350
100
AcDbEntity
  8
BORDER
  6
CONTINUOUS
 62
    13
100
AcDbLine
 39
96.0
 10
25.9922
 20
27.4429
 30
0.0
 11
26.5966
 21
27.4429
 31
0.0
  0
LINE
  5
351
100
AcDbEntity
  8
BORDER
  6
CONTINUOUS
 62
    15
100
AcDbLine
 39
96.0
 10
26.5935
 20
31.1363
 30
0.0
 11
13.5432
 21
44.1866
 31
0.0
  0
LINE
  5
352
100
AcDbEntity
  8
BORDER
  6
CONTINUOUS
 62
    11
100
AcDbLine
 39
96.0
 10
75.4401
 20
43.9055
 30
0.0
 11
76.6901
 21
45.1555
 31
0.0
  0
LINE
  5
353
100
AcDbEntity
  8
BORDER
  6
CONTINUOUS
 62
    11
100
AcDbLine
 39
96.0
 10
75.3337
 20
44.177
 30
0.0
 11
76.0857
 21
44.9289
 31
0.0
  0
LINE
  5
354
100
AcDbEntity
  8
BORDER
  6
CONTINUOUS
 62
    11
100
AcDbLine
 39
96.0
 10
73.3454
 20
44.1779
 30
0.0
 11
74.0974
 21
44.9299
 31
0.0
  0
LINE
  5
355
100
AcDbEntity
  8
BORDER
  6
CONTINUOUS
 62
    11
100
AcDbLine
 39
96.0
 10
71.3571
 20
44.1789
 30
0.0
 11
72.1091
 21
44.9309
 31
0.0
  0
LINE
  5
356
100
AcDbEntity
  8
BORDER
  6
CONTINUOUS
 62
    11
100
AcDbLine
 39
96.0
 10
69.3689
 20
44.1799
 30
0.0
 11
70.1208
 21
44.9319
 31
0.0
  0
LINE
  5
357
100
AcDbEntity
  8
BORDER
  6
CONTINUOUS
 62
    11
100
AcDbLine
 39
96.0
 10
67.3806
 20
44.1809
 30
0.0
 11
68.1325
 21
44.9328
 31
0.0
  0
LINE
  5
358
100
AcDbEntity
  8
BORDER
  6
CONTINUOUS
 62
    11
100
AcDbLine
 39
96.0
 10
65.3923
 20
44.1819
 30
0.0
 11
66.1443
 21
44.9338
 31
0.0
  0
LINE
  5
359
100
AcDbEntity
  8
BORDER
  6
CONTINUOUS
 62
    11
100
AcDbLine
 39
96.0
 10
63.404
 20
44.1828
 30
0.0
 11
64.156
 21
44.9348
 31
0.0
  0
LINE
  5
35A
100
AcDbEntity
  8
BORDER
  6
CONTINUOUS
 62
    11
100
AcDbLine
 39
96.0
 10
61.4157
 20
44.1838
 30
0.0
 11
62.1677
 21
44.9358
 31
0.0
  0
LINE
  5
35B
100
AcDbEntity
  8
BORDER
  6
CONTINUOUS
 62
    11
100
AcDbLine
 39
96.0
 10
1.7617
 20
44.1814
 30
0.0
 11
2.5137
 21
44.9333
 31
0.0
  0
LINE
  5
35C
100
AcDbEntity
  8
BORDER
  6
CONTINUOUS
 62
    11
100
AcDbLine
 39
96.0
 10
3.7507
 20
44.1819
 30
0.0
 11
4.5027
 21
44.9338
 31
0.0
  0
LINE
  5
35D
100
AcDbEntity
  8
BORDER
  6
CONTINUOUS
 62
    11
100
AcDbLine
 39
96.0
 10
5.7397
 20
44.1823
 30
0.0
 11
6.4917
 21
44.9343
 31
0.0
  0
LINE
  5
35E
100
AcDbEntity
  8
BORDER
  6
CONTINUOUS
 62
    11
100
AcDbLine
 39
96.0
 10
7.7287
 20
44.1828
 30
0.0
 11
8.4807
 21
44.9348
 31
0.0
  0
LINE
  5
35F
100
AcDbEntity
  8
BORDER
  6
CONTINUOUS
 62
    11
100
AcDbLine
 39
96.0
 10
9.7178
 20
44.1833
 30
0.0
 11
10.4697
 21
44.9353
 31
0.0
  0
LINE
  5
360
100
AcDbEntity
  8
BORDER
  6
CONTINUOUS
 62
    11
100
AcDbLine
 39
96.0
 10
11.7068
 20
44.1838
 30
0.0
 11
12.4587
 21
44.9358
 31
0.0
  0
LINE
  5
361
100
AcDbEntity
  8
BORDER
  6
CONTINUOUS
 62
    11
100
AcDbLine
 39
96.0
 10
13.6958
 20
44.1843
 30
0.0
 11
14.4477
 21
44.9362
 31
0.0
  0
LINE
  5
362
100
AcDbEntity
  8
BORDER
  6
CONTINUOUS
 62
    11
100
AcDbLine
 39
96.0
 10
15.6848
 20
44.1848
 30
0.0
 11
16.4367
 21
44.9367
 31
0.0
  0
LINE
  5
363
100
AcDbEntity
  8
BORDER
  6
CONTINUOUS
 62
    11
100
AcDbLine
 39
96.0
 10
17.6738
 20
44.1853
 30
0.0
 11
18.4258
 21
44.9372
 31
0.0
  0
LINE
  5
364
100
AcDbEntity
  8
BORDER
  6
CONTINUOUS
 62
    15
100
AcDbLine
 39
96.0
 10
26.5935
 20
26.1866
 30
0.0
 11
8.5935
 21
44.1866
 31
0.0
  0
LINE
  5
365
100
AcDbEntity
  8
BORDER
  6
CONTINUOUS
 62
    11
100
AcDbLine
 39
96.0
 10
74.0935
 20
29.6867
 30
0.0
 11
72.5935
 21
26.1867
 31
0.0
  0
LINE
  5
366
100
AcDbEntity
  8
BORDER
  6
CONTINUOUS
 62
    11
100
AcDbLine
 39
96.0
 10
72.5935
 20
29.6867
 30
0.0
 11
74.0935
 21
26.1867
 31
0.0
  0
LINE
  5
367
100
AcDbEntity
  8
BORDER
  6
CONTINUOUS
 62
    11
100
AcDbLine
 39
96.0
 10
74.0935
 20
44.1867
 30
0.0
 11
72.5935
 21
40.6867
 31
0.0
  0
LINE
  5
368
100
AcDbEntity
  8
BORDER
  6
CONTINUOUS
 62
    11
100
AcDbLine
 39
96.0
 10
74.0935
 20
40.6867
 30
0.0
 11
72.5935
 21
44.1858
 31
0.0
  0
LINE
  5
369
100
AcDbEntity
  8
BORDER
  6
CONTINUOUS
 62
    11
100
AcDbLine
 39
96.0
 10
72.5935
 20
29.6867
 30
0.0
 11
74.0935
 21
29.6867
 31
0.0
  0
LINE
  5
36A
100
AcDbEntity
  8
BORDER
  6
CONTINUOUS
 62
    11
100
AcDbLine
 39
96.0
 10
72.5935
 20
26.1867
 30
0.0
 11
74.0935
 21
26.1867
 31
0.0
  0
LINE
  5
36B
100
AcDbEntity
  8
BORDER
  6
CONTINUOUS
 62
    11
100
AcDbLine
 39
96.0
 10
74.0935
 20
44.1867
 30
0.0
 11
74.0935
 21
26.1867
 31
0.0
  0
LINE
  5
36C
100
AcDbEntity
  8
BORDER
  6
CONTINUOUS
 62
    11
100
AcDbLine
 39
96.0
 10
72.5935
 20
44.1867
 30
0.0
 11
72.5935
 21
26.1867
 31
0.0
  0
LINE
  5
36D
100
AcDbEntity
  8
BORDER
  6
CONTINUOUS
 62
    11
100
AcDbLine
 39
96.0
 10
6.0935
 20
29.6867
 30
0.0
 11
4.5935
 21
26.1867
 31
0.0
  0
LINE
  5
36E
100
AcDbEntity
  8
BORDER
  6
CONTINUOUS
 62
    11
100
AcDbLine
 39
96.0
 10
4.5935
 20
29.6867
 30
0.0
 11
6.0935
 21
26.1867
 31
0.0
  0
LINE
  5
36F
100
AcDbEntity
  8
BORDER
  6
CONTINUOUS
 62
    11
100
AcDbLine
 39
96.0
 10
6.0935
 20
44.1867
 30
0.0
 11
4.5935
 21
40.6867
 31
0.0
  0
LINE
  5
370
100
AcDbEntity
  8
BORDER
  6
CONTINUOUS
 62
    11
100
AcDbLine
 39
96.0
 10
6.0935
 20
40.6867
 30
0.0
 11
4.5935
 21
44.1858
 31
0.0
  0
LINE
  5
371
100
AcDbEntity
  8
BORDER
  6
CONTINUOUS
 62
    11
100
AcDbLine
 39
96.0
 10
66.8979
 20
40.6867
 30
0.0
 11
74.0935
 21
40.6867
 31
0.0
  0
LINE
  5
372
100
AcDbEntity
  8
BORDER
  6
CONTINUOUS
 62
    11
100
AcDbLine
 39
96.0
 10
17.0429
 20
40.6867
 30
0.0
 11
61.9482
 21
40.6867
 31
0.0
  0
LINE
  5
373
100
AcDbEntity
  8
BORDER
  6
CONTINUOUS
 62
    11
100
AcDbLine
 39
96.0
 10
4.5935
 20
40.6867
 30
0.0
 11
12.0932
 21
40.6867
 31
0.0
  0
LINE
  5
374
100
AcDbEntity
  8
BORDER
  6
CONTINUOUS
 62
    11
100
AcDbLine
 39
96.0
 10
4.5935
 20
29.6867
 30
0.0
 11
6.0935
 21
29.6867
 31
0.0
  0
LINE
  5
375
100
AcDbEntity
  8
BORDER
  6
CONTINUOUS
 62
    11
100
AcDbLine
 39
96.0
 10
4.5935
 20
26.1867
 30
0.0
 11
6.0935
 21
26.1867
 31
0.0
  0
LINE
  5
376
100
AcDbEntity
  8
BORDER
  6
CONTINUOUS
 62
    11
100
AcDbLine
 39
96.0
 10
6.0935
 20
44.1867
 30
0.0
 11
6.0935
 21
26.1867
 31
0.0
  0
LINE
  5
377
100
AcDbEntity
  8
BORDER
  6
CONTINUOUS
 62
    11
100
AcDbLine
 39
96.0
 10
4.5935
 20
44.1867
 30
0.0
 11
4.5935
 21
26.1867
 31
0.0
  0
LINE
  5
378
100
AcDbEntity
  8
BORDER
  6
CONTINUOUS
 62
    15
100
AcDbLine
 39
63.9984
 10
39.5935
 20
26.6862
 30
0.0
 11
39.5935
 21
18.813
 31
0.0
  0
LINE
  5
379
100
AcDbEntity
  8
BORDER
  6
CONTINUOUS
 62
    15
100
AcDbLine
 39
63.9984
 10
39.0935
 20
26.6862
 30
0.0
 11
39.0935
 21
18.563
 31
0.0
  0
LINE
  5
37A
100
AcDbEntity
  8
BORDER
  6
CONTINUOUS
 62
    15
100
AcDbLine
 39
63.9984
 10
39.5935
 20
18.063
 30
0.0
 11
40.4389
 21
18.063
 31
0.0
  0
LINE
  5
37B
100
AcDbEntity
  8
BORDER
  6
CONTINUOUS
 62
    15
100
AcDbLine
 39
63.9984
 10
40.4389
 20
18.563
 30
0.0
 11
40.4389
 21
18.063
 31
0.0
  0
LINE
  5
37C
100
AcDbEntity
  8
BORDER
  6
CONTINUOUS
 62
    15
100
AcDbLine
 39
63.9984
 10
39.8435
 20
18.563
 30
0.0
 11
40.4389
 21
18.563
 31
0.0
  0
ARC
  5
37D
100
AcDbEntity
  8
BORDER
  6
CONTINUOUS
 62
    15
100
AcDbCircle
 39
63.9984
 10
39.8435
 20
18.813
 30
0.0
 40
0.249994
100
AcDbArc
 50
180.0
 51
270.0
  0
ARC
  5
37E
100
AcDbEntity
  8
BORDER
  6
CONTINUOUS
 62
    15
100
AcDbCircle
 39
63.9984
 10
39.5935
 20
18.563
 30
0.0
 40
0.499988
100
AcDbArc
 50
180.0
 51
270.0
  0
LINE
  5
37F
100
AcDbEntity
  8
BORDER
  6
CONTINUOUS
 62
    15
100
AcDbLine
 39
96.0
 10
40.8435
 20
26.6862
 30
0.0
 11
37.8435
 21
26.6862
 31
0.0
  0
LINE
  5
380
100
AcDbEntity
  8
BORDER
  6
CONTINUOUS
 62
    15
100
AcDbLine
 39
96.0
 10
40.8435
 20
31.1862
 30
0.0
 11
40.8435
 21
26.1862
 31
0.0
  0
LINE
  5
381
100
AcDbEntity
  8
BORDER
  6
CONTINUOUS
 62
    15
100
AcDbLine
 39
96.0
 10
37.8435
 20
31.1862
 30
0.0
 11
40.8435
 21
31.1862
 31
0.0
  0
LINE
  5
382
100
AcDbEntity
  8
BORDER
  6
CONTINUOUS
 62
    15
100
AcDbLine
 39
96.0
 10
37.8435
 20
26.1862
 30
0.0
 11
37.8435
 21
31.1862
 31
0.0
  0
LINE
  5
383
100
AcDbEntity
  8
BORDER
  6
CONTINUOUS
 62
    11
100
AcDbLine
 39
96.0
 10
0.7505
 20
44.5617
 30
0.0
 11
76.0954
 21
44.5608
 31
0.0
  0
LINE
  5
384
100
AcDbEntity
  8
BORDER
  6
CONTINUOUS
 62
    11
100
AcDbLine
 39
96.0
 10
59.4275
 20
44.1848
 30
0.0
 11
60.1794
 21
44.9367
 31
0.0
  0
LINE
  5
385
100
AcDbEntity
  8
BORDER
  6
CONTINUOUS
 62
    11
100
AcDbLine
 39
96.0
 10
57.4392
 20
44.1848
 30
0.0
 11
58.1911
 21
44.9367
 31
0.0
  0
LINE
  5
386
100
AcDbEntity
  8
BORDER
  6
CONTINUOUS
 62
    11
100
AcDbLine
 39
96.0
 10
55.4509
 20
44.1858
 30
0.0
 11
56.2028
 21
44.9367
 31
0.0
  0
LINE
  5
387
100
AcDbEntity
  8
BORDER
  6
CONTINUOUS
 62
    11
100
AcDbLine
 39
96.0
 10
53.4626
 20
44.1858
 30
0.0
 11
54.2146
 21
44.9367
 31
0.0
  0
LINE
  5
388
100
AcDbEntity
  8
BORDER
  6
CONTINUOUS
 62
    11
100
AcDbLine
 39
96.0
 10
51.4753
 20
44.1858
 30
0.0
 11
52.2263
 21
44.9367
 31
0.0
  0
LINE
  5
389
100
AcDbEntity
  8
BORDER
  6
CONTINUOUS
 62
    11
100
AcDbLine
 39
96.0
 10
49.487
 20
44.1858
 30
0.0
 11
50.238
 21
44.9367
 31
0.0
  0
LINE
  5
38A
100
AcDbEntity
  8
BORDER
  6
CONTINUOUS
 62
    11
100
AcDbLine
 39
96.0
 10
47.4987
 20
44.1858
 30
0.0
 11
48.2497
 21
44.9367
 31
0.0
  0
LINE
  5
38B
100
AcDbEntity
  8
BORDER
  6
CONTINUOUS
 62
    11
100
AcDbLine
 39
96.0
 10
45.5105
 20
44.1858
 30
0.0
 11
46.2614
 21
44.9367
 31
0.0
  0
LINE
  5
38C
100
AcDbEntity
  8
BORDER
  6
CONTINUOUS
 62
    11
100
AcDbLine
 39
96.0
 10
43.5222
 20
44.1858
 30
0.0
 11
44.2732
 21
44.9367
 31
0.0
  0
LINE
  5
38D
100
AcDbEntity
  8
BORDER
  6
CONTINUOUS
 62
    11
100
AcDbLine
 39
96.0
 10
41.5339
 20
44.1858
 30
0.0
 11
42.2849
 21
44.9367
 31
0.0
  0
LINE
  5
38E
100
AcDbEntity
  8
BORDER
  6
CONTINUOUS
 62
    11
100
AcDbLine
 39
96.0
 10
39.5456
 20
44.1858
 30
0.0
 11
40.2976
 21
44.9377
 31
0.0
  0
LINE
  5
38F
100
AcDbEntity
  8
BORDER
  6
CONTINUOUS
 62
    11
100
AcDbLine
 39
96.0
 10
37.5573
 20
44.1858
 30
0.0
 11
38.3093
 21
44.9377
 31
0.0
  0
LINE
  5
390
100
AcDbEntity
  8
BORDER
  6
CONTINUOUS
 62
    11
100
AcDbLine
 39
96.0
 10
35.5691
 20
44.1858
 30
0.0
 11
36.321
 21
44.9377
 31
0.0
  0
LINE
  5
391
100
AcDbEntity
  8
BORDER
  6
CONTINUOUS
 62
    11
100
AcDbLine
 39
96.0
 10
33.5808
 20
44.1858
 30
0.0
 11
34.3327
 21
44.9377
 31
0.0
  0
LINE
  5
392
100
AcDbEntity
  8
BORDER
  6
CONTINUOUS
 62
    11
100
AcDbLine
 39
96.0
 10
31.5925
 20
44.1858
 30
0.0
 11
32.3444
 21
44.9377
 31
0.0
  0
LINE
  5
393
100
AcDbEntity
  8
BORDER
  6
CONTINUOUS
 62
    11
100
AcDbLine
 39
96.0
 10
29.6042
 20
44.1858
 30
0.0
 11
30.3562
 21
44.9377
 31
0.0
  0
LINE
  5
394
100
AcDbEntity
  8
BORDER
  6
CONTINUOUS
 62
    11
100
AcDbLine
 39
96.0
 10
27.6159
 20
44.1858
 30
0.0
 11
28.3679
 21
44.9377
 31
0.0
  0
LINE
  5
395
100
AcDbEntity
  8
BORDER
  6
CONTINUOUS
 62
    11
100
AcDbLine
 39
96.0
 10
25.6276
 20
44.1858
 30
0.0
 11
26.3796
 21
44.9377
 31
0.0
  0
LINE
  5
396
100
AcDbEntity
  8
BORDER
  6
CONTINUOUS
 62
    11
100
AcDbLine
 39
96.0
 10
23.6394
 20
44.1858
 30
0.0
 11
24.3913
 21
44.9377
 31
0.0
  0
LINE
  5
397
100
AcDbEntity
  8
BORDER
  6
CONTINUOUS
 62
    11
100
AcDbLine
 39
96.0
 10
21.6511
 20
44.1858
 30
0.0
 11
22.4031
 21
44.9377
 31
0.0
  0
LINE
  5
398
100
AcDbEntity
  8
BORDER
  6
CONTINUOUS
 62
    11
100
AcDbLine
 39
96.0
 10
19.6628
 20
44.1858
 30
0.0
 11
20.4148
 21
44.9377
 31
0.0
  0
LINE
  5
399
100
AcDbEntity
  8
BORDER
  6
CONTINUOUS
 62
    11
100
AcDbLine
 39
96.0
 10
1.126
 20
44.9377
 30
0.0
 11
0.375
 21
44.1867
 31
0.0
  0
LINE
  5
39A
100
AcDbEntity
  8
BORDER
  6
CONTINUOUS
 62
    11
100
AcDbLine
 39
96.0
 10
0.0
 20
43.8117
 30
0.0
 11
1.4375
 21
45.2492
 31
0.0
  0
LINE
  5
39B
100
AcDbEntity
  8
BORDER
  6
CONTINUOUS
 62
    11
100
AcDbLine
 39
96.0
 10
52.4841
 20
26.8117
 30
0.0
 11
49.3903
 21
26.8117
 31
0.0
  0
LINE
  5
39C
100
AcDbEntity
  8
BORDER
  6
CONTINUOUS
 62
    11
100
AcDbLine
 39
96.0
 10
52.4841
 20
28.7805
 30
0.0
 11
49.2966
 21
28.7805
 31
0.0
  0
LINE
  5
39D
100
AcDbEntity
  8
BORDER
  6
CONTINUOUS
 62
    11
100
AcDbLine
 39
96.0
 10
26.2028
 20
26.8117
 30
0.0
 11
29.2966
 21
26.8117
 31
0.0
  0
LINE
  5
39E
100
AcDbEntity
  8
BORDER
  6
CONTINUOUS
 62
    11
100
AcDbLine
 39
96.0
 10
26.2028
 20
28.7805
 30
0.0
 11
29.3903
 21
28.7805
 31
0.0
  0
LINE
  5
39F
100
AcDbEntity
  8
BORDER
  6
CONTINUOUS
 62
    11
100
AcDbLine
 39
96.0
 10
37.8435
 20
29.6867
 30
0.0
 11
28.0935
 21
29.6867
 31
0.0
  0
LINE
  5
3A0
100
AcDbEntity
  8
BORDER
  6
CONTINUOUS
 62
    11
100
AcDbLine
 39
96.0
 10
50.5935
 20
29.6867
 30
0.0
 11
40.8435
 21
29.6867
 31
0.0
  0
LINE
  5
3A1
100
AcDbEntity
  8
BORDER
  6
CONTINUOUS
 62
    11
100
AcDbLine
 39
96.0
 10
28.0935
 20
26.1867
 30
0.0
 11
50.5935
 21
26.1858
 31
0.0
  0
LINE
  5
3A2
100
AcDbEntity
  8
BORDER
  6
CONTINUOUS
 62
    11
100
AcDbLine
 39
96.0
 10
52.0935
 20
29.6867
 30
0.0
 11
50.5935
 21
26.1867
 31
0.0
  0
LINE
  5
3A3
100
AcDbEntity
  8
BORDER
  6
CONTINUOUS
 62
    11
100
AcDbLine
 39
96.0
 10
50.5935
 20
29.6867
 30
0.0
 11
52.0935
 21
26.1867
 31
0.0
  0
LINE
  5
3A4
100
AcDbEntity
  8
BORDER
  6
CONTINUOUS
 62
    11
100
AcDbLine
 39
96.0
 10
52.0935
 20
44.1867
 30
0.0
 11
50.5935
 21
40.6867
 31
0.0
  0
LINE
  5
3A5
100
AcDbEntity
  8
BORDER
  6
CONTINUOUS
 62
    11
100
AcDbLine
 39
96.0
 10
52.0935
 20
40.6867
 30
0.0
 11
50.5935
 21
44.1858
 31
0.0
  0
LINE
  5
3A6
100
AcDbEntity
  8
BORDER
  6
CONTINUOUS
 62
    11
100
AcDbLine
 39
96.0
 10
50.5935
 20
29.6867
 30
0.0
 11
52.0935
 21
29.6867
 31
0.0
  0
LINE
  5
3A7
100
AcDbEntity
  8
BORDER
  6
CONTINUOUS
 62
    11
100
AcDbLine
 39
96.0
 10
50.5935
 20
26.1867
 30
0.0
 11
52.0935
 21
26.1867
 31
0.0
  0
LINE
  5
3A8
100
AcDbEntity
  8
BORDER
  6
CONTINUOUS
 62
    11
100
AcDbLine
 39
96.0
 10
52.0935
 20
44.1867
 30
0.0
 11
52.0935
 21
26.1867
 31
0.0
  0
LINE
  5
3A9
100
AcDbEntity
  8
BORDER
  6
CONTINUOUS
 62
    11
100
AcDbLine
 39
96.0
 10
50.5935
 20
44.1867
 30
0.0
 11
50.5935
 21
26.1867
 31
0.0
  0
LINE
  5
3AA
100
AcDbEntity
  8
BORDER
  6
CONTINUOUS
 62
    11
100
AcDbLine
 39
96.0
 10
28.0935
 20
29.6867
 30
0.0
 11
26.5935
 21
26.1867
 31
0.0
  0
LINE
  5
3AB
100
AcDbEntity
  8
BORDER
  6
CONTINUOUS
 62
    11
100
AcDbLine
 39
96.0
 10
26.5935
 20
29.6867
 30
0.0
 11
28.0935
 21
26.1867
 31
0.0
  0
LINE
  5
3AC
100
AcDbEntity
  8
BORDER
  6
CONTINUOUS
 62
    11
100
AcDbLine
 39
96.0
 10
28.0935
 20
44.1867
 30
0.0
 11
26.5935
 21
40.6867
 31
0.0
  0
LINE
  5
3AD
100
AcDbEntity
  8
BORDER
  6
CONTINUOUS
 62
    11
100
AcDbLine
 39
96.0
 10
28.0935
 20
40.6867
 30
0.0
 11
26.5935
 21
44.1858
 31
0.0
  0
LINE
  5
3AE
100
AcDbEntity
  8
BORDER
  6
CONTINUOUS
 62
    11
100
AcDbLine
 39
96.0
 10
26.5935
 20
29.6867
 30
0.0
 11
28.0935
 21
29.6867
 31
0.0
  0
LINE
  5
3AF
100
AcDbEntity
  8
BORDER
  6
CONTINUOUS
 62
    11
100
AcDbLine
 39
96.0
 10
26.5935
 20
26.1867
 30
0.0
 11
28.0935
 21
26.1867
 31
0.0
  0
LINE
  5
3B0
100
AcDbEntity
  8
BORDER
  6
CONTINUOUS
 62
    11
100
AcDbLine
 39
96.0
 10
28.0935
 20
44.1867
 30
0.0
 11
28.0935
 21
26.1867
 31
0.0
  0
LINE
  5
3B1
100
AcDbEntity
  8
BORDER
  6
CONTINUOUS
 62
    11
100
AcDbLine
 39
96.0
 10
26.5935
 20
44.1867
 30
0.0
 11
26.5935
 21
26.1867
 31
0.0
  0
LINE
  5
3B2
100
AcDbEntity
  8
BORDER
  6
CONTINUOUS
 62
    11
100
AcDbLine
 39
96.0
 10
1.126
 20
44.9377
 30
0.0
 11
76.4704
 21
44.9358
 31
0.0
  0
LINE
  5
3B3
100
AcDbEntity
  8
BORDER
  6
CONTINUOUS
 62
    11
100
AcDbLine
 39
96.0
 10
0.375
 20
44.1867
 30
0.0
 11
75.7204
 21
44.1858
 31
0.0
  0
LINE
  5
3B4
100
AcDbEntity
  8
BORDER
  6
CONTINUOUS
 62
    15
100
AcDbLine
 39
96.0
 10
41.8931
 20
26.1862
 30
0.0
 11
36.3931
 21
24.6862
 31
0.0
  0
LINE
  5
3B5
100
AcDbEntity
  8
BORDER
  6
CONTINUOUS
 62
    15
100
AcDbLine
 39
96.0
 10
41.8931
 20
24.6862
 30
0.0
 11
36.3931
 21
26.1862
 31
0.0
  0
LINE
  5
3B6
100
AcDbEntity
  8
BORDER
  6
CONTINUOUS
 62
    15
100
AcDbLine
 39
96.0
 10
41.8931
 20
26.1862
 30
0.0
 11
41.8931
 21
24.6862
 31
0.0
  0
LINE
  5
3B7
100
AcDbEntity
  8
BORDER
  6
CONTINUOUS
 62
    15
100
AcDbLine
 39
96.0
 10
36.6293
 20
26.1862
 30
0.0
 11
42.1293
 21
26.1862
 31
0.0
  0
LINE
  5
3B8
100
AcDbEntity
  8
BORDER
  6
CONTINUOUS
 62
    15
100
AcDbLine
 39
96.0
 10
36.3931
 20
24.6862
 30
0.0
 11
36.3931
 21
26.1862
 31
0.0
  0
CIRCLE
  5
3B9
100
AcDbEntity
  8
BORDER
  6
CONTINUOUS
 62
    15
100
AcDbCircle
 39
96.0
 10
38.3545
 20
24.092703
 30
0.0
 40
0.375
  0
LINE
  5
3BA
100
AcDbEntity
  8
BORDER
  6
CONTINUOUS
 62
    15
100
AcDbLine
 39
96.0
 10
38.8476
 20
24.198363
 30
0.0
 11
38.8476
 21
2.205057
 31
0.0
  0
LINE
  5
3BB
100
AcDbEntity
  8
BORDER
  6
CONTINUOUS
 62
    15
100
AcDbLine
 39
96.0
 10
41.8931
 20
24.6862
 30
0.0
 11
36.3931
 21
24.6862
 31
0.0
  0
LINE
  5
3BC
100
AcDbEntity
  8
BORDER
  6
CONTINUOUS
 62
    15
100
AcDbLine
 39
96.0
 10
40.1469
 20
0.0
 30
0.0
 11
40.7968
 21
1.6537
 31
0.0
  0
LINE
  5
3BD
100
AcDbEntity
  8
BORDER
  6
CONTINUOUS
 62
    15
100
AcDbLine
 39
96.0
 10
38.198
 20
3.3075
 30
0.0
 11
40.1469
 21
0.0
 31
0.0
  0
LINE
  5
3BE
100
AcDbEntity
  8
BORDER
  6
CONTINUOUS
 62
    15
100
AcDbLine
 39
96.0
 10
37.3711
 20
1.6537
 30
0.0
 11
38.198
 21
3.3075
 31
0.0
  0
LINE
  5
3BF
100
AcDbEntity
  8
BORDER
  6
CONTINUOUS
 62
    15
100
AcDbLine
 39
96.0
 10
37.3711
 20
1.6537
 30
0.0
 11
32.9414
 21
1.6537
 31
0.0
  0
LINE
  5
3C0
100
AcDbEntity
  8
BORDER
  6
CONTINUOUS
 62
    15
100
AcDbLine
 39
96.0
 10
45.2265
 20
1.6537
 30
0.0
 11
40.7968
 21
1.6537
 31
0.0
  0
LINE
  5
3C1
100
AcDbEntity
  8
BORDER
  6
CONTINUOUS
 62
    10
100
AcDbLine
 39
96.0
 10
38.1987
 20
7.4237
 30
0.0
 11
38.185
 21
7.3468
 31
0.0
  0
LINE
  5
3C2
100
AcDbEntity
  8
BORDER
  6
CONTINUOUS
 62
    10
100
AcDbLine
 39
96.0
 10
39.344
 20
8.3965
 30
0.0
 11
39.299
 21
8.3325
 31
0.0
  0
LINE
  5
3C3
100
AcDbEntity
  8
BORDER
  6
CONTINUOUS
 62
    10
100
AcDbLine
 39
96.0
 10
39.6128
 20
7.5637
 30
0.0
 11
39.5393
 21
7.537
 31
0.0
  0
LINE
  5
3C4
100
AcDbEntity
  8
BORDER
  6
CONTINUOUS
 62
     3
100
AcDbLine
 39
96.0
 10
42.2185
 20
9.6844
 30
0.0
 11
44.0935
 21
9.6844
 31
0.0
  0
LINE
  5
3C5
100
AcDbEntity
  8
BORDER
  6
CONTINUOUS
 62
     3
100
AcDbLine
 39
96.0
 10
34.0935
 20
9.6844
 30
0.0
 11
35.9685
 21
9.6844
 31
0.0
  0
LINE
  5
3C6
100
AcDbEntity
  8
BORDER
  6
CONTINUOUS
 62
     2
100
AcDbLine
 39
96.0
 10
43.6809
 20
2.0486
 30
0.0
 11
43.6809
 21
2.0486
 31
0.0
  0
LINE
  5
3C7
100
AcDbEntity
  8
BORDER
  6
CONTINUOUS
 62
     2
100
AcDbLine
 39
96.0
 10
43.2121
 20
2.0486
 30
0.0
 11
43.2121
 21
2.0486
 31
0.0
  0
LINE
  5
3C8
100
AcDbEntity
  8
BORDER
  6
CONTINUOUS
 62
     2
100
AcDbLine
 39
96.0
 10
42.7434
 20
2.0486
 30
0.0
 11
42.7434
 21
2.0486
 31
0.0
  0
LINE
  5
3C9
100
AcDbEntity
  8
BORDER
  6
CONTINUOUS
 62
     2
100
AcDbLine
 39
96.0
 10
42.2746
 20
2.0486
 30
0.0
 11
42.2746
 21
2.0486
 31
0.0
  0
LINE
  5
3CA
100
AcDbEntity
  8
BORDER
  6
CONTINUOUS
 62
     2
100
AcDbLine
 39
96.0
 10
43.9152
 20
2.5174
 30
0.0
 11
43.9152
 21
2.5174
 31
0.0
  0
LINE
  5
3CB
100
AcDbEntity
  8
BORDER
  6
CONTINUOUS
 62
     2
100
AcDbLine
 39
96.0
 10
43.4465
 20
2.5174
 30
0.0
 11
43.4465
 21
2.5174
 31
0.0
  0
LINE
  5
3CC
100
AcDbEntity
  8
BORDER
  6
CONTINUOUS
 62
     2
100
AcDbLine
 39
96.0
 10
42.9777
 20
2.5174
 30
0.0
 11
42.9777
 21
2.5174
 31
0.0
  0
LINE
  5
3CD
100
AcDbEntity
  8
BORDER
  6
CONTINUOUS
 62
     2
100
AcDbLine
 39
96.0
 10
42.509
 20
2.5174
 30
0.0
 11
42.509
 21
2.5174
 31
0.0
  0
LINE
  5
3CE
100
AcDbEntity
  8
BORDER
  6
CONTINUOUS
 62
     2
100
AcDbLine
 39
96.0
 10
43.6809
 20
2.9861
 30
0.0
 11
43.6809
 21
2.9861
 31
0.0
  0
LINE
  5
3CF
100
AcDbEntity
  8
BORDER
  6
CONTINUOUS
 62
     2
100
AcDbLine
 39
96.0
 10
43.2121
 20
2.9861
 30
0.0
 11
43.2121
 21
2.9861
 31
0.0
  0
LINE
  5
3D0
100
AcDbEntity
  8
BORDER
  6
CONTINUOUS
 62
     2
100
AcDbLine
 39
96.0
 10
42.7434
 20
2.9861
 30
0.0
 11
42.7434
 21
2.9861
 31
0.0
  0
LINE
  5
3D1
100
AcDbEntity
  8
BORDER
  6
CONTINUOUS
 62
     2
100
AcDbLine
 39
96.0
 10
42.2746
 20
2.9861
 30
0.0
 11
42.2746
 21
2.9861
 31
0.0
  0
LINE
  5
3D2
100
AcDbEntity
  8
BORDER
  6
CONTINUOUS
 62
     2
100
AcDbLine
 39
96.0
 10
43.9152
 20
3.4549
 30
0.0
 11
43.9152
 21
3.4549
 31
0.0
  0
LINE
  5
3D3
100
AcDbEntity
  8
BORDER
  6
CONTINUOUS
 62
     2
100
AcDbLine
 39
96.0
 10
43.4465
 20
3.4549
 30
0.0
 11
43.4465
 21
3.4549
 31
0.0
  0
LINE
  5
3D4
100
AcDbEntity
  8
BORDER
  6
CONTINUOUS
 62
     2
100
AcDbLine
 39
96.0
 10
42.9777
 20
3.4549
 30
0.0
 11
42.9777
 21
3.4549
 31
0.0
  0
LINE
  5
3D5
100
AcDbEntity
  8
BORDER
  6
CONTINUOUS
 62
     2
100
AcDbLine
 39
96.0
 10
42.509
 20
3.4549
 30
0.0
 11
42.509
 21
3.4549
 31
0.0
  0
LINE
  5
3D6
100
AcDbEntity
  8
BORDER
  6
CONTINUOUS
 62
     2
100
AcDbLine
 39
96.0
 10
43.6809
 20
3.9236
 30
0.0
 11
43.6809
 21
3.9236
 31
0.0
  0
LINE
  5
3D7
100
AcDbEntity
  8
BORDER
  6
CONTINUOUS
 62
     2
100
AcDbLine
 39
96.0
 10
43.2121
 20
3.9236
 30
0.0
 11
43.2121
 21
3.9236
 31
0.0
  0
LINE
  5
3D8
100
AcDbEntity
  8
BORDER
  6
CONTINUOUS
 62
     2
100
AcDbLine
 39
96.0
 10
42.7434
 20
3.9236
 30
0.0
 11
42.7434
 21
3.9236
 31
0.0
  0
LINE
  5
3D9
100
AcDbEntity
  8
BORDER
  6
CONTINUOUS
 62
     2
100
AcDbLine
 39
96.0
 10
42.2746
 20
3.9236
 30
0.0
 11
42.2746
 21
3.9236
 31
0.0
  0
LINE
  5
3DA
100
AcDbEntity
  8
BORDER
  6
CONTINUOUS
 62
     2
100
AcDbLine
 39
96.0
 10
43.9152
 20
4.3924
 30
0.0
 11
43.9152
 21
4.3924
 31
0.0
  0
LINE
  5
3DB
100
AcDbEntity
  8
BORDER
  6
CONTINUOUS
 62
     2
100
AcDbLine
 39
96.0
 10
43.4465
 20
4.3924
 30
0.0
 11
43.4465
 21
4.3924
 31
0.0
  0
LINE
  5
3DC
100
AcDbEntity
  8
BORDER
  6
CONTINUOUS
 62
     2
100
AcDbLine
 39
96.0
 10
42.9777
 20
4.3924
 30
0.0
 11
42.9777
 21
4.3924
 31
0.0
  0
LINE
  5
3DD
100
AcDbEntity
  8
BORDER
  6
CONTINUOUS
 62
     2
100
AcDbLine
 39
96.0
 10
42.509
 20
4.3924
 30
0.0
 11
42.509
 21
4.3924
 31
0.0
  0
LINE
  5
3DE
100
AcDbEntity
  8
BORDER
  6
CONTINUOUS
 62
     2
100
AcDbLine
 39
96.0
 10
43.6809
 20
4.8611
 30
0.0
 11
43.6809
 21
4.8611
 31
0.0
  0
LINE
  5
3DF
100
AcDbEntity
  8
BORDER
  6
CONTINUOUS
 62
     2
100
AcDbLine
 39
96.0
 10
43.2121
 20
4.8611
 30
0.0
 11
43.2121
 21
4.8611
 31
0.0
  0
LINE
  5
3E0
100
AcDbEntity
  8
BORDER
  6
CONTINUOUS
 62
     2
100
AcDbLine
 39
96.0
 10
42.7434
 20
4.8611
 30
0.0
 11
42.7434
 21
4.8611
 31
0.0
  0
LINE
  5
3E1
100
AcDbEntity
  8
BORDER
  6
CONTINUOUS
 62
     2
100
AcDbLine
 39
96.0
 10
42.2746
 20
4.8611
 30
0.0
 11
42.2746
 21
4.8611
 31
0.0
  0
LINE
  5
3E2
100
AcDbEntity
  8
BORDER
  6
CONTINUOUS
 62
     2
100
AcDbLine
 39
96.0
 10
43.9152
 20
5.3299
 30
0.0
 11
43.9152
 21
5.3299
 31
0.0
  0
LINE
  5
3E3
100
AcDbEntity
  8
BORDER
  6
CONTINUOUS
 62
     2
100
AcDbLine
 39
96.0
 10
43.4465
 20
5.3299
 30
0.0
 11
43.4465
 21
5.3299
 31
0.0
  0
LINE
  5
3E4
100
AcDbEntity
  8
BORDER
  6
CONTINUOUS
 62
     2
100
AcDbLine
 39
96.0
 10
42.9777
 20
5.3299
 30
0.0
 11
42.9777
 21
5.3299
 31
0.0
  0
LINE
  5
3E5
100
AcDbEntity
  8
BORDER
  6
CONTINUOUS
 62
     2
100
AcDbLine
 39
96.0
 10
42.509
 20
5.3299
 30
0.0
 11
42.509
 21
5.3299
 31
0.0
  0
LINE
  5
3E6
100
AcDbEntity
  8
BORDER
  6
CONTINUOUS
 62
     2
100
AcDbLine
 39
96.0
 10
43.6809
 20
5.7986
 30
0.0
 11
43.6809
 21
5.7986
 31
0.0
  0
LINE
  5
3E7
100
AcDbEntity
  8
BORDER
  6
CONTINUOUS
 62
     2
100
AcDbLine
 39
96.0
 10
43.2121
 20
5.7986
 30
0.0
 11
43.2121
 21
5.7986
 31
0.0
  0
LINE
  5
3E8
100
AcDbEntity
  8
BORDER
  6
CONTINUOUS
 62
     2
100
AcDbLine
 39
96.0
 10
42.7434
 20
5.7986
 30
0.0
 11
42.7434
 21
5.7986
 31
0.0
  0
LINE
  5
3E9
100
AcDbEntity
  8
BORDER
  6
CONTINUOUS
 62
     2
100
AcDbLine
 39
96.0
 10
42.2746
 20
5.7986
 30
0.0
 11
42.2746
 21
5.7986
 31
0.0
  0
LINE
  5
3EA
100
AcDbEntity
  8
BORDER
  6
CONTINUOUS
 62
     2
100
AcDbLine
 39
96.0
 10
43.9152
 20
6.2674
 30
0.0
 11
43.9152
 21
6.2674
 31
0.0
  0
LINE
  5
3EB
100
AcDbEntity
  8
BORDER
  6
CONTINUOUS
 62
     2
100
AcDbLine
 39
96.0
 10
43.4465
 20
6.2674
 30
0.0
 11
43.4465
 21
6.2674
 31
0.0
  0
LINE
  5
3EC
100
AcDbEntity
  8
BORDER
  6
CONTINUOUS
 62
     2
100
AcDbLine
 39
96.0
 10
42.9777
 20
6.2674
 30
0.0
 11
42.9777
 21
6.2674
 31
0.0
  0
LINE
  5
3ED
100
AcDbEntity
  8
BORDER
  6
CONTINUOUS
 62
     2
100
AcDbLine
 39
96.0
 10
42.509
 20
6.2674
 30
0.0
 11
42.509
 21
6.2674
 31
0.0
  0
LINE
  5
3EE
100
AcDbEntity
  8
BORDER
  6
CONTINUOUS
 62
     2
100
AcDbLine
 39
96.0
 10
43.6809
 20
6.7361
 30
0.0
 11
43.6809
 21
6.7361
 31
0.0
  0
LINE
  5
3EF
100
AcDbEntity
  8
BORDER
  6
CONTINUOUS
 62
     2
100
AcDbLine
 39
96.0
 10
43.2121
 20
6.7361
 30
0.0
 11
43.2121
 21
6.7361
 31
0.0
  0
LINE
  5
3F0
100
AcDbEntity
  8
BORDER
  6
CONTINUOUS
 62
     2
100
AcDbLine
 39
96.0
 10
42.7434
 20
6.7361
 30
0.0
 11
42.7434
 21
6.7361
 31
0.0
  0
LINE
  5
3F1
100
AcDbEntity
  8
BORDER
  6
CONTINUOUS
 62
     2
100
AcDbLine
 39
96.0
 10
42.2746
 20
6.7361
 30
0.0
 11
42.2746
 21
6.7361
 31
0.0
  0
LINE
  5
3F2
100
AcDbEntity
  8
BORDER
  6
CONTINUOUS
 62
     2
100
AcDbLine
 39
96.0
 10
43.9152
 20
7.2048
 30
0.0
 11
43.9152
 21
7.2048
 31
0.0
  0
LINE
  5
3F3
100
AcDbEntity
  8
BORDER
  6
CONTINUOUS
 62
     2
100
AcDbLine
 39
96.0
 10
43.4465
 20
7.2048
 30
0.0
 11
43.4465
 21
7.2048
 31
0.0
  0
LINE
  5
3F4
100
AcDbEntity
  8
BORDER
  6
CONTINUOUS
 62
     2
100
AcDbLine
 39
96.0
 10
42.9777
 20
7.2048
 30
0.0
 11
42.9777
 21
7.2048
 31
0.0
  0
LINE
  5
3F5
100
AcDbEntity
  8
BORDER
  6
CONTINUOUS
 62
     2
100
AcDbLine
 39
96.0
 10
42.509
 20
7.2048
 30
0.0
 11
42.509
 21
7.2048
 31
0.0
  0
LINE
  5
3F6
100
AcDbEntity
  8
BORDER
  6
CONTINUOUS
 62
     2
100
AcDbLine
 39
96.0
 10
43.6809
 20
7.6736
 30
0.0
 11
43.6809
 21
7.6736
 31
0.0
  0
LINE
  5
3F7
100
AcDbEntity
  8
BORDER
  6
CONTINUOUS
 62
     2
100
AcDbLine
 39
96.0
 10
43.2121
 20
7.6736
 30
0.0
 11
43.2121
 21
7.6736
 31
0.0
  0
LINE
  5
3F8
100
AcDbEntity
  8
BORDER
  6
CONTINUOUS
 62
     2
100
AcDbLine
 39
96.0
 10
42.7434
 20
7.6736
 30
0.0
 11
42.7434
 21
7.6736
 31
0.0
  0
LINE
  5
3F9
100
AcDbEntity
  8
BORDER
  6
CONTINUOUS
 62
     2
100
AcDbLine
 39
96.0
 10
42.2746
 20
7.6736
 30
0.0
 11
42.2746
 21
7.6736
 31
0.0
  0
LINE
  5
3FA
100
AcDbEntity
  8
BORDER
  6
CONTINUOUS
 62
     2
100
AcDbLine
 39
96.0
 10
43.9152
 20
8.1423
 30
0.0
 11
43.9152
 21
8.1423
 31
0.0
  0
LINE
  5
3FB
100
AcDbEntity
  8
BORDER
  6
CONTINUOUS
 62
     2
100
AcDbLine
 39
96.0
 10
43.4465
 20
8.1423
 30
0.0
 11
43.4465
 21
8.1423
 31
0.0
  0
LINE
  5
3FC
100
AcDbEntity
  8
BORDER
  6
CONTINUOUS
 62
     2
100
AcDbLine
 39
96.0
 10
42.9777
 20
8.1423
 30
0.0
 11
42.9777
 21
8.1423
 31
0.0
  0
LINE
  5
3FD
100
AcDbEntity
  8
BORDER
  6
CONTINUOUS
 62
     2
100
AcDbLine
 39
96.0
 10
42.509
 20
8.1423
 30
0.0
 11
42.509
 21
8.1423
 31
0.0
  0
LINE
  5
3FE
100
AcDbEntity
  8
BORDER
  6
CONTINUOUS
 62
     2
100
AcDbLine
 39
96.0
 10
43.6809
 20
8.6111
 30
0.0
 11
43.6809
 21
8.6111
 31
0.0
  0
LINE
  5
3FF
100
AcDbEntity
  8
BORDER
  6
CONTINUOUS
 62
     2
100
AcDbLine
 39
96.0
 10
43.2121
 20
8.6111
 30
0.0
 11
43.2121
 21
8.6111
 31
0.0
  0
LINE
  5
400
100
AcDbEntity
  8
BORDER
  6
CONTINUOUS
 62
     2
100
AcDbLine
 39
96.0
 10
42.7434
 20
8.6111
 30
0.0
 11
42.7434
 21
8.6111
 31
0.0
  0
LINE
  5
401
100
AcDbEntity
  8
BORDER
  6
CONTINUOUS
 62
     2
100
AcDbLine
 39
96.0
 10
42.2746
 20
8.6111
 30
0.0
 11
42.2746
 21
8.6111
 31
0.0
  0
LINE
  5
402
100
AcDbEntity
  8
BORDER
  6
CONTINUOUS
 62
     2
100
AcDbLine
 39
96.0
 10
43.9152
 20
9.0799
 30
0.0
 11
43.9152
 21
9.0799
 31
0.0
  0
LINE
  5
403
100
AcDbEntity
  8
BORDER
  6
CONTINUOUS
 62
     2
100
AcDbLine
 39
96.0
 10
43.4465
 20
9.0799
 30
0.0
 11
43.4465
 21
9.0799
 31
0.0
  0
LINE
  5
404
100
AcDbEntity
  8
BORDER
  6
CONTINUOUS
 62
     2
100
AcDbLine
 39
96.0
 10
42.9777
 20
9.0799
 30
0.0
 11
42.9777
 21
9.0799
 31
0.0
  0
LINE
  5
405
100
AcDbEntity
  8
BORDER
  6
CONTINUOUS
 62
     2
100
AcDbLine
 39
96.0
 10
42.509
 20
9.0799
 30
0.0
 11
42.509
 21
9.0799
 31
0.0
  0
LINE
  5
406
100
AcDbEntity
  8
BORDER
  6
CONTINUOUS
 62
     2
100
AcDbLine
 39
96.0
 10
43.6809
 20
9.5486
 30
0.0
 11
43.6809
 21
9.5486
 31
0.0
  0
LINE
  5
407
100
AcDbEntity
  8
BORDER
  6
CONTINUOUS
 62
     2
100
AcDbLine
 39
96.0
 10
43.2121
 20
9.5486
 30
0.0
 11
43.2121
 21
9.5486
 31
0.0
  0
LINE
  5
408
100
AcDbEntity
  8
BORDER
  6
CONTINUOUS
 62
     2
100
AcDbLine
 39
96.0
 10
42.7434
 20
9.5486
 30
0.0
 11
42.7434
 21
9.5486
 31
0.0
  0
LINE
  5
409
100
AcDbEntity
  8
BORDER
  6
CONTINUOUS
 62
     2
100
AcDbLine
 39
96.0
 10
42.2746
 20
9.5486
 30
0.0
 11
42.2746
 21
9.5486
 31
0.0
  0
LINE
  5
40A
100
AcDbEntity
  8
BORDER
  6
CONTINUOUS
 62
     2
100
AcDbLine
 39
96.0
 10
35.7121
 20
2.0486
 30
0.0
 11
35.7121
 21
2.0486
 31
0.0
  0
LINE
  5
40B
100
AcDbEntity
  8
BORDER
  6
CONTINUOUS
 62
     2
100
AcDbLine
 39
96.0
 10
35.2434
 20
2.0486
 30
0.0
 11
35.2434
 21
2.0486
 31
0.0
  0
LINE
  5
40C
100
AcDbEntity
  8
BORDER
  6
CONTINUOUS
 62
     2
100
AcDbLine
 39
96.0
 10
34.7746
 20
2.0486
 30
0.0
 11
34.7746
 21
2.0486
 31
0.0
  0
LINE
  5
40D
100
AcDbEntity
  8
BORDER
  6
CONTINUOUS
 62
     2
100
AcDbLine
 39
96.0
 10
34.3059
 20
2.0486
 30
0.0
 11
34.3059
 21
2.0486
 31
0.0
  0
LINE
  5
40E
100
AcDbEntity
  8
BORDER
  6
CONTINUOUS
 62
     2
100
AcDbLine
 39
96.0
 10
35.9465
 20
2.5174
 30
0.0
 11
35.9465
 21
2.5174
 31
0.0
  0
LINE
  5
40F
100
AcDbEntity
  8
BORDER
  6
CONTINUOUS
 62
     2
100
AcDbLine
 39
96.0
 10
35.4777
 20
2.5174
 30
0.0
 11
35.4777
 21
2.5174
 31
0.0
  0
LINE
  5
410
100
AcDbEntity
  8
BORDER
  6
CONTINUOUS
 62
     2
100
AcDbLine
 39
96.0
 10
35.009
 20
2.5174
 30
0.0
 11
35.009
 21
2.5174
 31
0.0
  0
LINE
  5
411
100
AcDbEntity
  8
BORDER
  6
CONTINUOUS
 62
     2
100
AcDbLine
 39
96.0
 10
34.5402
 20
2.5174
 30
0.0
 11
34.5402
 21
2.5174
 31
0.0
  0
LINE
  5
412
100
AcDbEntity
  8
BORDER
  6
CONTINUOUS
 62
     2
100
AcDbLine
 39
96.0
 10
35.7121
 20
2.9861
 30
0.0
 11
35.7121
 21
2.9861
 31
0.0
  0
LINE
  5
413
100
AcDbEntity
  8
BORDER
  6
CONTINUOUS
 62
     2
100
AcDbLine
 39
96.0
 10
35.2434
 20
2.9861
 30
0.0
 11
35.2434
 21
2.9861
 31
0.0
  0
LINE
  5
414
100
AcDbEntity
  8
BORDER
  6
CONTINUOUS
 62
     2
100
AcDbLine
 39
96.0
 10
34.7746
 20
2.9861
 30
0.0
 11
34.7746
 21
2.9861
 31
0.0
  0
LINE
  5
415
100
AcDbEntity
  8
BORDER
  6
CONTINUOUS
 62
     2
100
AcDbLine
 39
96.0
 10
34.3059
 20
2.9861
 30
0.0
 11
34.3059
 21
2.9861
 31
0.0
  0
LINE
  5
416
100
AcDbEntity
  8
BORDER
  6
CONTINUOUS
 62
     2
100
AcDbLine
 39
96.0
 10
35.9465
 20
3.4549
 30
0.0
 11
35.9465
 21
3.4549
 31
0.0
  0
LINE
  5
417
100
AcDbEntity
  8
BORDER
  6
CONTINUOUS
 62
     2
100
AcDbLine
 39
96.0
 10
35.4777
 20
3.4549
 30
0.0
 11
35.4777
 21
3.4549
 31
0.0
  0
LINE
  5
418
100
AcDbEntity
  8
BORDER
  6
CONTINUOUS
 62
     2
100
AcDbLine
 39
96.0
 10
35.009
 20
3.4549
 30
0.0
 11
35.009
 21
3.4549
 31
0.0
  0
LINE
  5
419
100
AcDbEntity
  8
BORDER
  6
CONTINUOUS
 62
     2
100
AcDbLine
 39
96.0
 10
34.5402
 20
3.4549
 30
0.0
 11
34.5402
 21
3.4549
 31
0.0
  0
LINE
  5
41A
100
AcDbEntity
  8
BORDER
  6
CONTINUOUS
 62
     2
100
AcDbLine
 39
96.0
 10
35.7121
 20
3.9236
 30
0.0
 11
35.7121
 21
3.9236
 31
0.0
  0
LINE
  5
41B
100
AcDbEntity
  8
BORDER
  6
CONTINUOUS
 62
     2
100
AcDbLine
 39
96.0
 10
35.2434
 20
3.9236
 30
0.0
 11
35.2434
 21
3.9236
 31
0.0
  0
LINE
  5
41C
100
AcDbEntity
  8
BORDER
  6
CONTINUOUS
 62
     2
100
AcDbLine
 39
96.0
 10
34.7746
 20
3.9236
 30
0.0
 11
34.7746
 21
3.9236
 31
0.0
  0
LINE
  5
41D
100
AcDbEntity
  8
BORDER
  6
CONTINUOUS
 62
     2
100
AcDbLine
 39
96.0
 10
34.3059
 20
3.9236
 30
0.0
 11
34.3059
 21
3.9236
 31
0.0
  0
LINE
  5
41E
100
AcDbEntity
  8
BORDER
  6
CONTINUOUS
 62
     2
100
AcDbLine
 39
96.0
 10
35.9465
 20
4.3924
 30
0.0
 11
35.9465
 21
4.3924
 31
0.0
  0
LINE
  5
41F
100
AcDbEntity
  8
BORDER
  6
CONTINUOUS
 62
     2
100
AcDbLine
 39
96.0
 10
35.4777
 20
4.3924
 30
0.0
 11
35.4777
 21
4.3924
 31
0.0
  0
LINE
  5
420
100
AcDbEntity
  8
BORDER
  6
CONTINUOUS
 62
     2
100
AcDbLine
 39
96.0
 10
35.009
 20
4.3924
 30
0.0
 11
35.009
 21
4.3924
 31
0.0
  0
LINE
  5
421
100
AcDbEntity
  8
BORDER
  6
CONTINUOUS
 62
     2
100
AcDbLine
 39
96.0
 10
34.5402
 20
4.3924
 30
0.0
 11
34.5402
 21
4.3924
 31
0.0
  0
LINE
  5
422
100
AcDbEntity
  8
BORDER
  6
CONTINUOUS
 62
     2
100
AcDbLine
 39
96.0
 10
35.7121
 20
4.8611
 30
0.0
 11
35.7121
 21
4.8611
 31
0.0
  0
LINE
  5
423
100
AcDbEntity
  8
BORDER
  6
CONTINUOUS
 62
     2
100
AcDbLine
 39
96.0
 10
35.2434
 20
4.8611
 30
0.0
 11
35.2434
 21
4.8611
 31
0.0
  0
LINE
  5
424
100
AcDbEntity
  8
BORDER
  6
CONTINUOUS
 62
     2
100
AcDbLine
 39
96.0
 10
34.7746
 20
4.8611
 30
0.0
 11
34.7746
 21
4.8611
 31
0.0
  0
LINE
  5
425
100
AcDbEntity
  8
BORDER
  6
CONTINUOUS
 62
     2
100
AcDbLine
 39
96.0
 10
34.3059
 20
4.8611
 30
0.0
 11
34.3059
 21
4.8611
 31
0.0
  0
LINE
  5
426
100
AcDbEntity
  8
BORDER
  6
CONTINUOUS
 62
     2
100
AcDbLine
 39
96.0
 10
35.9465
 20
5.3299
 30
0.0
 11
35.9465
 21
5.3299
 31
0.0
  0
LINE
  5
427
100
AcDbEntity
  8
BORDER
  6
CONTINUOUS
 62
     2
100
AcDbLine
 39
96.0
 10
35.4777
 20
5.3299
 30
0.0
 11
35.4777
 21
5.3299
 31
0.0
  0
LINE
  5
428
100
AcDbEntity
  8
BORDER
  6
CONTINUOUS
 62
     2
100
AcDbLine
 39
96.0
 10
35.009
 20
5.3299
 30
0.0
 11
35.009
 21
5.3299
 31
0.0
  0
LINE
  5
429
100
AcDbEntity
  8
BORDER
  6
CONTINUOUS
 62
     2
100
AcDbLine
 39
96.0
 10
34.5402
 20
5.3299
 30
0.0
 11
34.5402
 21
5.3299
 31
0.0
  0
LINE
  5
42A
100
AcDbEntity
  8
BORDER
  6
CONTINUOUS
 62
     2
100
AcDbLine
 39
96.0
 10
35.7121
 20
5.7986
 30
0.0
 11
35.7121
 21
5.7986
 31
0.0
  0
LINE
  5
42B
100
AcDbEntity
  8
BORDER
  6
CONTINUOUS
 62
     2
100
AcDbLine
 39
96.0
 10
35.2434
 20
5.7986
 30
0.0
 11
35.2434
 21
5.7986
 31
0.0
  0
LINE
  5
42C
100
AcDbEntity
  8
BORDER
  6
CONTINUOUS
 62
     2
100
AcDbLine
 39
96.0
 10
34.7746
 20
5.7986
 30
0.0
 11
34.7746
 21
5.7986
 31
0.0
  0
LINE
  5
42D
100
AcDbEntity
  8
BORDER
  6
CONTINUOUS
 62
     2
100
AcDbLine
 39
96.0
 10
34.3059
 20
5.7986
 30
0.0
 11
34.3059
 21
5.7986
 31
0.0
  0
LINE
  5
42E
100
AcDbEntity
  8
BORDER
  6
CONTINUOUS
 62
     2
100
AcDbLine
 39
96.0
 10
35.9465
 20
6.2674
 30
0.0
 11
35.9465
 21
6.2674
 31
0.0
  0
LINE
  5
42F
100
AcDbEntity
  8
BORDER
  6
CONTINUOUS
 62
     2
100
AcDbLine
 39
96.0
 10
35.4777
 20
6.2674
 30
0.0
 11
35.4777
 21
6.2674
 31
0.0
  0
LINE
  5
430
100
AcDbEntity
  8
BORDER
  6
CONTINUOUS
 62
     2
100
AcDbLine
 39
96.0
 10
35.009
 20
6.2674
 30
0.0
 11
35.009
 21
6.2674
 31
0.0
  0
LINE
  5
431
100
AcDbEntity
  8
BORDER
  6
CONTINUOUS
 62
     2
100
AcDbLine
 39
96.0
 10
34.5402
 20
6.2674
 30
0.0
 11
34.5402
 21
6.2674
 31
0.0
  0
LINE
  5
432
100
AcDbEntity
  8
BORDER
  6
CONTINUOUS
 62
     2
100
AcDbLine
 39
96.0
 10
35.7121
 20
6.7361
 30
0.0
 11
35.7121
 21
6.7361
 31
0.0
  0
LINE
  5
433
100
AcDbEntity
  8
BORDER
  6
CONTINUOUS
 62
     2
100
AcDbLine
 39
96.0
 10
35.2434
 20
6.7361
 30
0.0
 11
35.2434
 21
6.7361
 31
0.0
  0
LINE
  5
434
100
AcDbEntity
  8
BORDER
  6
CONTINUOUS
 62
     2
100
AcDbLine
 39
96.0
 10
34.7746
 20
6.7361
 30
0.0
 11
34.7746
 21
6.7361
 31
0.0
  0
LINE
  5
435
100
AcDbEntity
  8
BORDER
  6
CONTINUOUS
 62
     2
100
AcDbLine
 39
96.0
 10
34.3059
 20
6.7361
 30
0.0
 11
34.3059
 21
6.7361
 31
0.0
  0
LINE
  5
436
100
AcDbEntity
  8
BORDER
  6
CONTINUOUS
 62
     2
100
AcDbLine
 39
96.0
 10
35.9465
 20
7.2048
 30
0.0
 11
35.9465
 21
7.2048
 31
0.0
  0
LINE
  5
437
100
AcDbEntity
  8
BORDER
  6
CONTINUOUS
 62
     2
100
AcDbLine
 39
96.0
 10
35.4777
 20
7.2048
 30
0.0
 11
35.4777
 21
7.2048
 31
0.0
  0
LINE
  5
438
100
AcDbEntity
  8
BORDER
  6
CONTINUOUS
 62
     2
100
AcDbLine
 39
96.0
 10
35.009
 20
7.2048
 30
0.0
 11
35.009
 21
7.2048
 31
0.0
  0
LINE
  5
439
100
AcDbEntity
  8
BORDER
  6
CONTINUOUS
 62
     2
100
AcDbLine
 39
96.0
 10
34.5402
 20
7.2048
 30
0.0
 11
34.5402
 21
7.2048
 31
0.0
  0
LINE
  5
43A
100
AcDbEntity
  8
BORDER
  6
CONTINUOUS
 62
     2
100
AcDbLine
 39
96.0
 10
35.7121
 20
7.6736
 30
0.0
 11
35.7121
 21
7.6736
 31
0.0
  0
LINE
  5
43B
100
AcDbEntity
  8
BORDER
  6
CONTINUOUS
 62
     2
100
AcDbLine
 39
96.0
 10
35.2434
 20
7.6736
 30
0.0
 11
35.2434
 21
7.6736
 31
0.0
  0
LINE
  5
43C
100
AcDbEntity
  8
BORDER
  6
CONTINUOUS
 62
     2
100
AcDbLine
 39
96.0
 10
34.7746
 20
7.6736
 30
0.0
 11
34.7746
 21
7.6736
 31
0.0
  0
LINE
  5
43D
100
AcDbEntity
  8
BORDER
  6
CONTINUOUS
 62
     2
100
AcDbLine
 39
96.0
 10
34.3059
 20
7.6736
 30
0.0
 11
34.3059
 21
7.6736
 31
0.0
  0
LINE
  5
43E
100
AcDbEntity
  8
BORDER
  6
CONTINUOUS
 62
     2
100
AcDbLine
 39
96.0
 10
35.9465
 20
8.1423
 30
0.0
 11
35.9465
 21
8.1423
 31
0.0
  0
LINE
  5
43F
100
AcDbEntity
  8
BORDER
  6
CONTINUOUS
 62
     2
100
AcDbLine
 39
96.0
 10
35.4777
 20
8.1423
 30
0.0
 11
35.4777
 21
8.1423
 31
0.0
  0
LINE
  5
440
100
AcDbEntity
  8
BORDER
  6
CONTINUOUS
 62
     2
100
AcDbLine
 39
96.0
 10
35.009
 20
8.1423
 30
0.0
 11
35.009
 21
8.1423
 31
0.0
  0
LINE
  5
441
100
AcDbEntity
  8
BORDER
  6
CONTINUOUS
 62
     2
100
AcDbLine
 39
96.0
 10
34.5402
 20
8.1423
 30
0.0
 11
34.5402
 21
8.1423
 31
0.0
  0
LINE
  5
442
100
AcDbEntity
  8
BORDER
  6
CONTINUOUS
 62
     2
100
AcDbLine
 39
96.0
 10
35.7121
 20
8.6111
 30
0.0
 11
35.7121
 21
8.6111
 31
0.0
  0
LINE
  5
443
100
AcDbEntity
  8
BORDER
  6
CONTINUOUS
 62
     2
100
AcDbLine
 39
96.0
 10
35.2434
 20
8.6111
 30
0.0
 11
35.2434
 21
8.6111
 31
0.0
  0
LINE
  5
444
100
AcDbEntity
  8
BORDER
  6
CONTINUOUS
 62
     2
100
AcDbLine
 39
96.0
 10
34.7746
 20
8.6111
 30
0.0
 11
34.7746
 21
8.6111
 31
0.0
  0
LINE
  5
445
100
AcDbEntity
  8
BORDER
  6
CONTINUOUS
 62
     2
100
AcDbLine
 39
96.0
 10
34.3059
 20
8.6111
 30
0.0
 11
34.3059
 21
8.6111
 31
0.0
  0
LINE
  5
446
100
AcDbEntity
  8
BORDER
  6
CONTINUOUS
 62
     2
100
AcDbLine
 39
96.0
 10
35.9465
 20
9.0799
 30
0.0
 11
35.9465
 21
9.0799
 31
0.0
  0
LINE
  5
447
100
AcDbEntity
  8
BORDER
  6
CONTINUOUS
 62
     2
100
AcDbLine
 39
96.0
 10
35.4777
 20
9.0799
 30
0.0
 11
35.4777
 21
9.0799
 31
0.0
  0
LINE
  5
448
100
AcDbEntity
  8
BORDER
  6
CONTINUOUS
 62
     2
100
AcDbLine
 39
96.0
 10
35.009
 20
9.0799
 30
0.0
 11
35.009
 21
9.0799
 31
0.0
  0
LINE
  5
449
100
AcDbEntity
  8
BORDER
  6
CONTINUOUS
 62
     2
100
AcDbLine
 39
96.0
 10
34.5402
 20
9.0799
 30
0.0
 11
34.5402
 21
9.0799
 31
0.0
  0
LINE
  5
44A
100
AcDbEntity
  8
BORDER
  6
CONTINUOUS
 62
     2
100
AcDbLine
 39
96.0
 10
35.7121
 20
9.5486
 30
0.0
 11
35.7121
 21
9.5486
 31
0.0
  0
LINE
  5
44B
100
AcDbEntity
  8
BORDER
  6
CONTINUOUS
 62
     2
100
AcDbLine
 39
96.0
 10
35.2434
 20
9.5486
 30
0.0
 11
35.2434
 21
9.5486
 31
0.0
  0
LINE
  5
44C
100
AcDbEntity
  8
BORDER
  6
CONTINUOUS
 62
     2
100
AcDbLine
 39
96.0
 10
34.7746
 20
9.5486
 30
0.0
 11
34.7746
 21
9.5486
 31
0.0
  0
LINE
  5
44D
100
AcDbEntity
  8
BORDER
  6
CONTINUOUS
 62
     2
100
AcDbLine
 39
96.0
 10
34.3059
 20
9.5486
 30
0.0
 11
34.3059
 21
9.5486
 31
0.0
  0
LINE
  5
44E
100
AcDbEntity
  8
BORDER
  6
CONTINUOUS
 62
     1
100
AcDbLine
 39
96.0
 10
41.0005
 20
6.8182
 30
0.0
 11
41.0112
 21
6.8798
 31
0.0
  0
LINE
  5
44F
100
AcDbEntity
  8
BORDER
  6
CONTINUOUS
 62
     1
100
AcDbLine
 39
96.0
 10
40.5664
 20
4.3562
 30
0.0
 11
40.5771
 21
4.4178
 31
0.0
  0
LINE
  5
450
100
AcDbEntity
  8
BORDER
  6
CONTINUOUS
 62
     1
100
AcDbLine
 39
96.0
 10
40.1323
 20
1.8941
 30
0.0
 11
40.143
 21
1.9557
 31
0.0
  0
LINE
  5
451
100
AcDbEntity
  8
BORDER
  6
CONTINUOUS
 62
     1
100
AcDbLine
 39
96.0
 10
38.1047
 20
4.7903
 30
0.0
 11
38.1154
 21
4.8518
 31
0.0
  0
LINE
  5
452
100
AcDbEntity
  8
BORDER
  6
CONTINUOUS
 62
     1
100
AcDbLine
 39
96.0
 10
37.6706
 20
2.3282
 30
0.0
 11
37.6814
 21
2.3898
 31
0.0
  0
LINE
  5
453
100
AcDbEntity
  8
BORDER
  6
CONTINUOUS
 62
     1
100
AcDbLine
 39
96.0
 10
36.0769
 20
7.6863
 30
0.0
 11
36.0876
 21
7.7479
 31
0.0
  0
LINE
  5
454
100
AcDbEntity
  8
BORDER
  6
CONTINUOUS
 62
     1
100
AcDbLine
 39
96.0
 10
40.8545
 20
4.3578
 30
0.0
 11
40.8903
 21
4.4091
 31
0.0
  0
LINE
  5
455
100
AcDbEntity
  8
BORDER
  6
CONTINUOUS
 62
     1
100
AcDbLine
 39
96.0
 10
39.4204
 20
2.31
 30
0.0
 11
39.4563
 21
2.3612
 31
0.0
  0
LINE
  5
456
100
AcDbEntity
  8
BORDER
  6
CONTINUOUS
 62
     1
100
AcDbLine
 39
96.0
 10
38.8066
 20
5.7917
 30
0.0
 11
38.8425
 21
5.8429
 31
0.0
  0
LINE
  5
457
100
AcDbEntity
  8
BORDER
  6
CONTINUOUS
 62
     1
100
AcDbLine
 39
96.0
 10
37.3725
 20
3.7438
 30
0.0
 11
37.4084
 21
3.7951
 31
0.0
  0
LINE
  5
458
100
AcDbEntity
  8
BORDER
  6
CONTINUOUS
 62
     1
100
AcDbLine
 39
96.0
 10
36.7585
 20
7.2257
 30
0.0
 11
36.7944
 21
7.2769
 31
0.0
  0
LINE
  5
459
100
AcDbEntity
  8
BORDER
  6
CONTINUOUS
 62
     1
100
AcDbLine
 39
96.0
 10
42.0556
 20
2.5304
 30
0.0
 11
42.1145
 21
2.5517
 31
0.0
  0
LINE
  5
45A
100
AcDbEntity
  8
BORDER
  6
CONTINUOUS
 62
     1
100
AcDbLine
 39
96.0
 10
39.7063
 20
1.6753
 30
0.0
 11
39.7651
 21
1.6967
 31
0.0
  0
LINE
  5
45B
100
AcDbEntity
  8
BORDER
  6
CONTINUOUS
 62
     1
100
AcDbLine
 39
96.0
 10
41.2006
 20
4.8796
 30
0.0
 11
41.2595
 21
4.901
 31
0.0
  0
LINE
  5
45C
100
AcDbEntity
  8
BORDER
  6
CONTINUOUS
 62
     1
100
AcDbLine
 39
96.0
 10
38.8513
 20
4.0246
 30
0.0
 11
38.9101
 21
4.0459
 31
0.0
  0
LINE
  5
45D
100
AcDbEntity
  8
BORDER
  6
CONTINUOUS
 62
     1
100
AcDbLine
 39
96.0
 10
36.5019
 20
3.1695
 30
0.0
 11
36.5608
 21
3.1909
 31
0.0
  0
LINE
  5
45E
100
AcDbEntity
  8
BORDER
  6
CONTINUOUS
 62
     1
100
AcDbLine
 39
96.0
 10
37.9963
 20
6.3738
 30
0.0
 11
38.0551
 21
6.3952
 31
0.0
  0
LINE
  5
45F
100
AcDbEntity
  8
BORDER
  6
CONTINUOUS
 62
     3
100
AcDbLine
 39
96.0
 10
35.9685
 20
9.6844
 30
0.0
 11
34.0935
 21
9.6844
 31
0.0
  0
ARC
  5
460
100
AcDbEntity
  8
BORDER
  6
CONTINUOUS
 62
     3
100
AcDbCircle
 39
96.0
 10
39.0935
 20
9.6844
 30
0.0
 40
3.0
100
AcDbArc
 50
180.0
 51
0.0
  0
LINE
  5
461
100
AcDbEntity
  8
BORDER
  6
CONTINUOUS
 62
     3
100
AcDbLine
 39
96.0
 10
42.2185
 20
1.6537
 30
0.0
 11
42.2185
 21
9.6844
 31
0.0
  0
LINE
  5
462
100
AcDbEntity
  8
BORDER
  6
CONTINUOUS
 62
     3
100
AcDbLine
 39
96.0
 10
35.9685
 20
9.6844
 30
0.0
 11
35.9685
 21
1.6537
 31
0.0
  0
LINE
  5
463
100
AcDbEntity
  8
BORDER
  6
CONTINUOUS
 62
     3
100
AcDbLine
 39
96.0
 10
34.0935
 20
9.6844
 30
0.0
 11
34.0935
 21
1.6537
 31
0.0
  0
LINE
  5
464
100
AcDbEntity
  8
BORDER
  6
CONTINUOUS
 62
     3
100
AcDbLine
 39
96.0
 10
44.0935
 20
9.6844
 30
0.0
 11
42.2185
 21
9.6844
 31
0.0
  0
LINE
  5
465
100
AcDbEntity
  8
BORDER
  6
CONTINUOUS
 62
     3
100
AcDbLine
 39
96.0
 10
44.0935
 20
1.6537
 30
0.0
 11
44.0935
 21
9.6844
 31
0.0
  0
LINE
  5
466
100
AcDbEntity
  8
BORDER
  6
CONTINUOUS
 62
     1
100
AcDbLine
 39
96.0
 10
39.4204
 20
10.6359
 30
0.0
 11
39.4563
 21
10.6871
 31
0.0
  0
LINE
  5
467
100
AcDbEntity
  8
BORDER
  6
CONTINUOUS
 62
     1
100
AcDbLine
 39
96.0
 10
40.1323
 20
10.2201
 30
0.0
 11
40.143
 21
10.2816
 31
0.0
  0
LINE
  5
468
100
AcDbEntity
  8
BORDER
  6
CONTINUOUS
 62
     1
100
AcDbLine
 39
96.0
 10
39.7063
 20
10.0013
 30
0.0
 11
39.7651
 21
10.0226
 31
0.0
  0
LINE
  5
469
100
AcDbEntity
  8
BORDER
  6
CONTINUOUS
 62
    10
100
AcDbLine
 39
96.0
 10
38.1987
 20
22.4237
 30
0.0
 11
38.185
 21
22.3468
 31
0.0
  0
LINE
  5
46A
100
AcDbEntity
  8
BORDER
  6
CONTINUOUS
 62
    10
100
AcDbLine
 39
96.0
 10
39.6455
 20
14.1331
 30
0.0
 11
39.6345
 21
14.0716
 31
0.0
  0
LINE
  5
46B
100
AcDbEntity
  8
BORDER
  6
CONTINUOUS
 62
    10
100
AcDbLine
 39
96.0
 10
37.2939
 20
9.5721
 30
0.0
 11
37.249
 21
9.5081
 31
0.0
  0
LINE
  5
46C
100
AcDbEntity
  8
BORDER
  6
CONTINUOUS
 62
    10
100
AcDbLine
 39
96.0
 10
39.0864
 20
13.632
 30
0.0
 11
39.0415
 21
13.568
 31
0.0
  0
LINE
  5
46D
100
AcDbEntity
  8
BORDER
  6
CONTINUOUS
 62
    10
100
AcDbLine
 39
96.0
 10
36.9463
 20
11.6165
 30
0.0
 11
36.8728
 21
11.5898
 31
0.0
  0
LINE
  5
46E
100
AcDbEntity
  8
BORDER
  6
CONTINUOUS
 62
     3
100
AcDbLine
 39
96.0
 10
42.2185
 20
24.6844
 30
0.0
 11
44.0935
 21
24.6844
 31
0.0
  0
LINE
  5
46F
100
AcDbEntity
  8
BORDER
  6
CONTINUOUS
 62
     3
100
AcDbLine
 39
96.0
 10
34.0935
 20
24.6844
 30
0.0
 11
35.9685
 21
24.6844
 31
0.0
  0
LINE
  5
470
100
AcDbEntity
  8
BORDER
  6
CONTINUOUS
 62
     2
100
AcDbLine
 39
96.0
 10
43.9152
 20
10.0173
 30
0.0
 11
43.9152
 21
10.0173
 31
0.0
  0
LINE
  5
471
100
AcDbEntity
  8
BORDER
  6
CONTINUOUS
 62
     2
100
AcDbLine
 39
96.0
 10
43.4465
 20
10.0173
 30
0.0
 11
43.4465
 21
10.0173
 31
0.0
  0
LINE
  5
472
100
AcDbEntity
  8
BORDER
  6
CONTINUOUS
 62
     2
100
AcDbLine
 39
96.0
 10
42.9777
 20
10.0173
 30
0.0
 11
42.9777
 21
10.0173
 31
0.0
  0
LINE
  5
473
100
AcDbEntity
  8
BORDER
  6
CONTINUOUS
 62
     2
100
AcDbLine
 39
96.0
 10
42.509
 20
10.0173
 30
0.0
 11
42.509
 21
10.0173
 31
0.0
  0
LINE
  5
474
100
AcDbEntity
  8
BORDER
  6
CONTINUOUS
 62
     2
100
AcDbLine
 39
96.0
 10
43.6809
 20
10.4861
 30
0.0
 11
43.6809
 21
10.4861
 31
0.0
  0
LINE
  5
475
100
AcDbEntity
  8
BORDER
  6
CONTINUOUS
 62
     2
100
AcDbLine
 39
96.0
 10
43.2121
 20
10.4861
 30
0.0
 11
43.2121
 21
10.4861
 31
0.0
  0
LINE
  5
476
100
AcDbEntity
  8
BORDER
  6
CONTINUOUS
 62
     2
100
AcDbLine
 39
96.0
 10
42.7434
 20
10.4861
 30
0.0
 11
42.7434
 21
10.4861
 31
0.0
  0
LINE
  5
477
100
AcDbEntity
  8
BORDER
  6
CONTINUOUS
 62
     2
100
AcDbLine
 39
96.0
 10
42.2746
 20
10.4861
 30
0.0
 11
42.2746
 21
10.4861
 31
0.0
  0
LINE
  5
478
100
AcDbEntity
  8
BORDER
  6
CONTINUOUS
 62
     2
100
AcDbLine
 39
96.0
 10
43.9152
 20
10.9548
 30
0.0
 11
43.9152
 21
10.9548
 31
0.0
  0
LINE
  5
479
100
AcDbEntity
  8
BORDER
  6
CONTINUOUS
 62
     2
100
AcDbLine
 39
96.0
 10
43.4465
 20
10.9548
 30
0.0
 11
43.4465
 21
10.9548
 31
0.0
  0
LINE
  5
47A
100
AcDbEntity
  8
BORDER
  6
CONTINUOUS
 62
     2
100
AcDbLine
 39
96.0
 10
42.9777
 20
10.9548
 30
0.0
 11
42.9777
 21
10.9548
 31
0.0
  0
LINE
  5
47B
100
AcDbEntity
  8
BORDER
  6
CONTINUOUS
 62
     2
100
AcDbLine
 39
96.0
 10
42.509
 20
10.9548
 30
0.0
 11
42.509
 21
10.9548
 31
0.0
  0
LINE
  5
47C
100
AcDbEntity
  8
BORDER
  6
CONTINUOUS
 62
     2
100
AcDbLine
 39
96.0
 10
43.6809
 20
11.4236
 30
0.0
 11
43.6809
 21
11.4236
 31
0.0
  0
LINE
  5
47D
100
AcDbEntity
  8
BORDER
  6
CONTINUOUS
 62
     2
100
AcDbLine
 39
96.0
 10
43.2121
 20
11.4236
 30
0.0
 11
43.2121
 21
11.4236
 31
0.0
  0
LINE
  5
47E
100
AcDbEntity
  8
BORDER
  6
CONTINUOUS
 62
     2
100
AcDbLine
 39
96.0
 10
42.7434
 20
11.4236
 30
0.0
 11
42.7434
 21
11.4236
 31
0.0
  0
LINE
  5
47F
100
AcDbEntity
  8
BORDER
  6
CONTINUOUS
 62
     2
100
AcDbLine
 39
96.0
 10
42.2746
 20
11.4236
 30
0.0
 11
42.2746
 21
11.4236
 31
0.0
  0
LINE
  5
480
100
AcDbEntity
  8
BORDER
  6
CONTINUOUS
 62
     2
100
AcDbLine
 39
96.0
 10
43.9152
 20
11.8923
 30
0.0
 11
43.9152
 21
11.8923
 31
0.0
  0
LINE
  5
481
100
AcDbEntity
  8
BORDER
  6
CONTINUOUS
 62
     2
100
AcDbLine
 39
96.0
 10
43.4465
 20
11.8923
 30
0.0
 11
43.4465
 21
11.8923
 31
0.0
  0
LINE
  5
482
100
AcDbEntity
  8
BORDER
  6
CONTINUOUS
 62
     2
100
AcDbLine
 39
96.0
 10
42.9777
 20
11.8923
 30
0.0
 11
42.9777
 21
11.8923
 31
0.0
  0
LINE
  5
483
100
AcDbEntity
  8
BORDER
  6
CONTINUOUS
 62
     2
100
AcDbLine
 39
96.0
 10
42.509
 20
11.8923
 30
0.0
 11
42.509
 21
11.8923
 31
0.0
  0
LINE
  5
484
100
AcDbEntity
  8
BORDER
  6
CONTINUOUS
 62
     2
100
AcDbLine
 39
96.0
 10
43.6809
 20
12.3611
 30
0.0
 11
43.6809
 21
12.3611
 31
0.0
  0
LINE
  5
485
100
AcDbEntity
  8
BORDER
  6
CONTINUOUS
 62
     2
100
AcDbLine
 39
96.0
 10
43.2121
 20
12.3611
 30
0.0
 11
43.2121
 21
12.3611
 31
0.0
  0
LINE
  5
486
100
AcDbEntity
  8
BORDER
  6
CONTINUOUS
 62
     2
100
AcDbLine
 39
96.0
 10
42.7434
 20
12.3611
 30
0.0
 11
42.7434
 21
12.3611
 31
0.0
  0
LINE
  5
487
100
AcDbEntity
  8
BORDER
  6
CONTINUOUS
 62
     2
100
AcDbLine
 39
96.0
 10
42.2746
 20
12.3611
 30
0.0
 11
42.2746
 21
12.3611
 31
0.0
  0
LINE
  5
488
100
AcDbEntity
  8
BORDER
  6
CONTINUOUS
 62
     2
100
AcDbLine
 39
96.0
 10
43.9152
 20
12.8298
 30
0.0
 11
43.9152
 21
12.8298
 31
0.0
  0
LINE
  5
489
100
AcDbEntity
  8
BORDER
  6
CONTINUOUS
 62
     2
100
AcDbLine
 39
96.0
 10
43.4465
 20
12.8298
 30
0.0
 11
43.4465
 21
12.8298
 31
0.0
  0
LINE
  5
48A
100
AcDbEntity
  8
BORDER
  6
CONTINUOUS
 62
     2
100
AcDbLine
 39
96.0
 10
42.9777
 20
12.8298
 30
0.0
 11
42.9777
 21
12.8298
 31
0.0
  0
LINE
  5
48B
100
AcDbEntity
  8
BORDER
  6
CONTINUOUS
 62
     2
100
AcDbLine
 39
96.0
 10
42.509
 20
12.8298
 30
0.0
 11
42.509
 21
12.8298
 31
0.0
  0
LINE
  5
48C
100
AcDbEntity
  8
BORDER
  6
CONTINUOUS
 62
     2
100
AcDbLine
 39
96.0
 10
43.6809
 20
13.2986
 30
0.0
 11
43.6809
 21
13.2986
 31
0.0
  0
LINE
  5
48D
100
AcDbEntity
  8
BORDER
  6
CONTINUOUS
 62
     2
100
AcDbLine
 39
96.0
 10
43.2121
 20
13.2986
 30
0.0
 11
43.2121
 21
13.2986
 31
0.0
  0
LINE
  5
48E
100
AcDbEntity
  8
BORDER
  6
CONTINUOUS
 62
     2
100
AcDbLine
 39
96.0
 10
42.7434
 20
13.2986
 30
0.0
 11
42.7434
 21
13.2986
 31
0.0
  0
LINE
  5
48F
100
AcDbEntity
  8
BORDER
  6
CONTINUOUS
 62
     2
100
AcDbLine
 39
96.0
 10
42.2746
 20
13.2986
 30
0.0
 11
42.2746
 21
13.2986
 31
0.0
  0
LINE
  5
490
100
AcDbEntity
  8
BORDER
  6
CONTINUOUS
 62
     2
100
AcDbLine
 39
96.0
 10
43.9152
 20
13.7673
 30
0.0
 11
43.9152
 21
13.7673
 31
0.0
  0
LINE
  5
491
100
AcDbEntity
  8
BORDER
  6
CONTINUOUS
 62
     2
100
AcDbLine
 39
96.0
 10
43.4465
 20
13.7673
 30
0.0
 11
43.4465
 21
13.7673
 31
0.0
  0
LINE
  5
492
100
AcDbEntity
  8
BORDER
  6
CONTINUOUS
 62
     2
100
AcDbLine
 39
96.0
 10
42.9777
 20
13.7673
 30
0.0
 11
42.9777
 21
13.7673
 31
0.0
  0
LINE
  5
493
100
AcDbEntity
  8
BORDER
  6
CONTINUOUS
 62
     2
100
AcDbLine
 39
96.0
 10
42.509
 20
13.7673
 30
0.0
 11
42.509
 21
13.7673
 31
0.0
  0
LINE
  5
494
100
AcDbEntity
  8
BORDER
  6
CONTINUOUS
 62
     2
100
AcDbLine
 39
96.0
 10
43.6809
 20
14.2361
 30
0.0
 11
43.6809
 21
14.2361
 31
0.0
  0
LINE
  5
495
100
AcDbEntity
  8
BORDER
  6
CONTINUOUS
 62
     2
100
AcDbLine
 39
96.0
 10
43.2121
 20
14.2361
 30
0.0
 11
43.2121
 21
14.2361
 31
0.0
  0
LINE
  5
496
100
AcDbEntity
  8
BORDER
  6
CONTINUOUS
 62
     2
100
AcDbLine
 39
96.0
 10
42.7434
 20
14.2361
 30
0.0
 11
42.7434
 21
14.2361
 31
0.0
  0
LINE
  5
497
100
AcDbEntity
  8
BORDER
  6
CONTINUOUS
 62
     2
100
AcDbLine
 39
96.0
 10
42.2746
 20
14.2361
 30
0.0
 11
42.2746
 21
14.2361
 31
0.0
  0
LINE
  5
498
100
AcDbEntity
  8
BORDER
  6
CONTINUOUS
 62
     2
100
AcDbLine
 39
96.0
 10
43.9152
 20
14.7048
 30
0.0
 11
43.9152
 21
14.7048
 31
0.0
  0
LINE
  5
499
100
AcDbEntity
  8
BORDER
  6
CONTINUOUS
 62
     2
100
AcDbLine
 39
96.0
 10
43.4465
 20
14.7048
 30
0.0
 11
43.4465
 21
14.7048
 31
0.0
  0
LINE
  5
49A
100
AcDbEntity
  8
BORDER
  6
CONTINUOUS
 62
     2
100
AcDbLine
 39
96.0
 10
42.9777
 20
14.7048
 30
0.0
 11
42.9777
 21
14.7048
 31
0.0
  0
LINE
  5
49B
100
AcDbEntity
  8
BORDER
  6
CONTINUOUS
 62
     2
100
AcDbLine
 39
96.0
 10
42.509
 20
14.7048
 30
0.0
 11
42.509
 21
14.7048
 31
0.0
  0
LINE
  5
49C
100
AcDbEntity
  8
BORDER
  6
CONTINUOUS
 62
     2
100
AcDbLine
 39
96.0
 10
43.6809
 20
15.1736
 30
0.0
 11
43.6809
 21
15.1736
 31
0.0
  0
LINE
  5
49D
100
AcDbEntity
  8
BORDER
  6
CONTINUOUS
 62
     2
100
AcDbLine
 39
96.0
 10
43.2121
 20
15.1736
 30
0.0
 11
43.2121
 21
15.1736
 31
0.0
  0
LINE
  5
49E
100
AcDbEntity
  8
BORDER
  6
CONTINUOUS
 62
     2
100
AcDbLine
 39
96.0
 10
42.7434
 20
15.1736
 30
0.0
 11
42.7434
 21
15.1736
 31
0.0
  0
LINE
  5
49F
100
AcDbEntity
  8
BORDER
  6
CONTINUOUS
 62
     2
100
AcDbLine
 39
96.0
 10
42.2746
 20
15.1736
 30
0.0
 11
42.2746
 21
15.1736
 31
0.0
  0
LINE
  5
4A0
100
AcDbEntity
  8
BORDER
  6
CONTINUOUS
 62
     2
100
AcDbLine
 39
96.0
 10
43.9152
 20
15.6423
 30
0.0
 11
43.9152
 21
15.6423
 31
0.0
  0
LINE
  5
4A1
100
AcDbEntity
  8
BORDER
  6
CONTINUOUS
 62
     2
100
AcDbLine
 39
96.0
 10
43.4465
 20
15.6423
 30
0.0
 11
43.4465
 21
15.6423
 31
0.0
  0
LINE
  5
4A2
100
AcDbEntity
  8
BORDER
  6
CONTINUOUS
 62
     2
100
AcDbLine
 39
96.0
 10
42.9777
 20
15.6423
 30
0.0
 11
42.9777
 21
15.6423
 31
0.0
  0
LINE
  5
4A3
100
AcDbEntity
  8
BORDER
  6
CONTINUOUS
 62
     2
100
AcDbLine
 39
96.0
 10
42.509
 20
15.6423
 30
0.0
 11
42.509
 21
15.6423
 31
0.0
  0
LINE
  5
4A4
100
AcDbEntity
  8
BORDER
  6
CONTINUOUS
 62
     2
100
AcDbLine
 39
96.0
 10
43.6809
 20
16.1111
 30
0.0
 11
43.6809
 21
16.1111
 31
0.0
  0
LINE
  5
4A5
100
AcDbEntity
  8
BORDER
  6
CONTINUOUS
 62
     2
100
AcDbLine
 39
96.0
 10
43.2121
 20
16.1111
 30
0.0
 11
43.2121
 21
16.1111
 31
0.0
  0
LINE
  5
4A6
100
AcDbEntity
  8
BORDER
  6
CONTINUOUS
 62
     2
100
AcDbLine
 39
96.0
 10
42.7434
 20
16.1111
 30
0.0
 11
42.7434
 21
16.1111
 31
0.0
  0
LINE
  5
4A7
100
AcDbEntity
  8
BORDER
  6
CONTINUOUS
 62
     2
100
AcDbLine
 39
96.0
 10
42.2746
 20
16.1111
 30
0.0
 11
42.2746
 21
16.1111
 31
0.0
  0
LINE
  5
4A8
100
AcDbEntity
  8
BORDER
  6
CONTINUOUS
 62
     2
100
AcDbLine
 39
96.0
 10
43.9152
 20
16.5798
 30
0.0
 11
43.9152
 21
16.5798
 31
0.0
  0
LINE
  5
4A9
100
AcDbEntity
  8
BORDER
  6
CONTINUOUS
 62
     2
100
AcDbLine
 39
96.0
 10
43.4465
 20
16.5798
 30
0.0
 11
43.4465
 21
16.5798
 31
0.0
  0
LINE
  5
4AA
100
AcDbEntity
  8
BORDER
  6
CONTINUOUS
 62
     2
100
AcDbLine
 39
96.0
 10
42.9777
 20
16.5798
 30
0.0
 11
42.9777
 21
16.5798
 31
0.0
  0
LINE
  5
4AB
100
AcDbEntity
  8
BORDER
  6
CONTINUOUS
 62
     2
100
AcDbLine
 39
96.0
 10
42.509
 20
16.5798
 30
0.0
 11
42.509
 21
16.5798
 31
0.0
  0
LINE
  5
4AC
100
AcDbEntity
  8
BORDER
  6
CONTINUOUS
 62
     2
100
AcDbLine
 39
96.0
 10
43.6809
 20
17.0486
 30
0.0
 11
43.6809
 21
17.0486
 31
0.0
  0
LINE
  5
4AD
100
AcDbEntity
  8
BORDER
  6
CONTINUOUS
 62
     2
100
AcDbLine
 39
96.0
 10
43.2121
 20
17.0486
 30
0.0
 11
43.2121
 21
17.0486
 31
0.0
  0
LINE
  5
4AE
100
AcDbEntity
  8
BORDER
  6
CONTINUOUS
 62
     2
100
AcDbLine
 39
96.0
 10
42.7434
 20
17.0486
 30
0.0
 11
42.7434
 21
17.0486
 31
0.0
  0
LINE
  5
4AF
100
AcDbEntity
  8
BORDER
  6
CONTINUOUS
 62
     2
100
AcDbLine
 39
96.0
 10
42.2746
 20
17.0486
 30
0.0
 11
42.2746
 21
17.0486
 31
0.0
  0
LINE
  5
4B0
100
AcDbEntity
  8
BORDER
  6
CONTINUOUS
 62
     2
100
AcDbLine
 39
96.0
 10
43.9152
 20
17.5173
 30
0.0
 11
43.9152
 21
17.5173
 31
0.0
  0
LINE
  5
4B1
100
AcDbEntity
  8
BORDER
  6
CONTINUOUS
 62
     2
100
AcDbLine
 39
96.0
 10
43.4465
 20
17.5173
 30
0.0
 11
43.4465
 21
17.5173
 31
0.0
  0
LINE
  5
4B2
100
AcDbEntity
  8
BORDER
  6
CONTINUOUS
 62
     2
100
AcDbLine
 39
96.0
 10
42.9777
 20
17.5173
 30
0.0
 11
42.9777
 21
17.5173
 31
0.0
  0
LINE
  5
4B3
100
AcDbEntity
  8
BORDER
  6
CONTINUOUS
 62
     2
100
AcDbLine
 39
96.0
 10
42.509
 20
17.5173
 30
0.0
 11
42.509
 21
17.5173
 31
0.0
  0
LINE
  5
4B4
100
AcDbEntity
  8
BORDER
  6
CONTINUOUS
 62
     2
100
AcDbLine
 39
96.0
 10
43.6809
 20
17.9861
 30
0.0
 11
43.6809
 21
17.9861
 31
0.0
  0
LINE
  5
4B5
100
AcDbEntity
  8
BORDER
  6
CONTINUOUS
 62
     2
100
AcDbLine
 39
96.0
 10
43.2121
 20
17.9861
 30
0.0
 11
43.2121
 21
17.9861
 31
0.0
  0
LINE
  5
4B6
100
AcDbEntity
  8
BORDER
  6
CONTINUOUS
 62
     2
100
AcDbLine
 39
96.0
 10
42.7434
 20
17.9861
 30
0.0
 11
42.7434
 21
17.9861
 31
0.0
  0
LINE
  5
4B7
100
AcDbEntity
  8
BORDER
  6
CONTINUOUS
 62
     2
100
AcDbLine
 39
96.0
 10
42.2746
 20
17.9861
 30
0.0
 11
42.2746
 21
17.9861
 31
0.0
  0
LINE
  5
4B8
100
AcDbEntity
  8
BORDER
  6
CONTINUOUS
 62
     2
100
AcDbLine
 39
96.0
 10
43.9152
 20
18.4548
 30
0.0
 11
43.9152
 21
18.4548
 31
0.0
  0
LINE
  5
4B9
100
AcDbEntity
  8
BORDER
  6
CONTINUOUS
 62
     2
100
AcDbLine
 39
96.0
 10
43.4465
 20
18.4548
 30
0.0
 11
43.4465
 21
18.4548
 31
0.0
  0
LINE
  5
4BA
100
AcDbEntity
  8
BORDER
  6
CONTINUOUS
 62
     2
100
AcDbLine
 39
96.0
 10
42.9777
 20
18.4548
 30
0.0
 11
42.9777
 21
18.4548
 31
0.0
  0
LINE
  5
4BB
100
AcDbEntity
  8
BORDER
  6
CONTINUOUS
 62
     2
100
AcDbLine
 39
96.0
 10
42.509
 20
18.4548
 30
0.0
 11
42.509
 21
18.4548
 31
0.0
  0
LINE
  5
4BC
100
AcDbEntity
  8
BORDER
  6
CONTINUOUS
 62
     2
100
AcDbLine
 39
96.0
 10
43.6809
 20
18.9236
 30
0.0
 11
43.6809
 21
18.9236
 31
0.0
  0
LINE
  5
4BD
100
AcDbEntity
  8
BORDER
  6
CONTINUOUS
 62
     2
100
AcDbLine
 39
96.0
 10
43.2121
 20
18.9236
 30
0.0
 11
43.2121
 21
18.9236
 31
0.0
  0
LINE
  5
4BE
100
AcDbEntity
  8
BORDER
  6
CONTINUOUS
 62
     2
100
AcDbLine
 39
96.0
 10
42.7434
 20
18.9236
 30
0.0
 11
42.7434
 21
18.9236
 31
0.0
  0
LINE
  5
4BF
100
AcDbEntity
  8
BORDER
  6
CONTINUOUS
 62
     2
100
AcDbLine
 39
96.0
 10
42.2746
 20
18.9236
 30
0.0
 11
42.2746
 21
18.9236
 31
0.0
  0
LINE
  5
4C0
100
AcDbEntity
  8
BORDER
  6
CONTINUOUS
 62
     2
100
AcDbLine
 39
96.0
 10
43.9152
 20
19.3923
 30
0.0
 11
43.9152
 21
19.3923
 31
0.0
  0
LINE
  5
4C1
100
AcDbEntity
  8
BORDER
  6
CONTINUOUS
 62
     2
100
AcDbLine
 39
96.0
 10
43.4465
 20
19.3923
 30
0.0
 11
43.4465
 21
19.3923
 31
0.0
  0
LINE
  5
4C2
100
AcDbEntity
  8
BORDER
  6
CONTINUOUS
 62
     2
100
AcDbLine
 39
96.0
 10
42.9777
 20
19.3923
 30
0.0
 11
42.9777
 21
19.3923
 31
0.0
  0
LINE
  5
4C3
100
AcDbEntity
  8
BORDER
  6
CONTINUOUS
 62
     2
100
AcDbLine
 39
96.0
 10
42.509
 20
19.3923
 30
0.0
 11
42.509
 21
19.3923
 31
0.0
  0
LINE
  5
4C4
100
AcDbEntity
  8
BORDER
  6
CONTINUOUS
 62
     2
100
AcDbLine
 39
96.0
 10
43.6809
 20
19.8611
 30
0.0
 11
43.6809
 21
19.8611
 31
0.0
  0
LINE
  5
4C5
100
AcDbEntity
  8
BORDER
  6
CONTINUOUS
 62
     2
100
AcDbLine
 39
96.0
 10
43.2121
 20
19.8611
 30
0.0
 11
43.2121
 21
19.8611
 31
0.0
  0
LINE
  5
4C6
100
AcDbEntity
  8
BORDER
  6
CONTINUOUS
 62
     2
100
AcDbLine
 39
96.0
 10
42.7434
 20
19.8611
 30
0.0
 11
42.7434
 21
19.8611
 31
0.0
  0
LINE
  5
4C7
100
AcDbEntity
  8
BORDER
  6
CONTINUOUS
 62
     2
100
AcDbLine
 39
96.0
 10
42.2746
 20
19.8611
 30
0.0
 11
42.2746
 21
19.8611
 31
0.0
  0
LINE
  5
4C8
100
AcDbEntity
  8
BORDER
  6
CONTINUOUS
 62
     2
100
AcDbLine
 39
96.0
 10
43.9152
 20
20.3298
 30
0.0
 11
43.9152
 21
20.3298
 31
0.0
  0
LINE
  5
4C9
100
AcDbEntity
  8
BORDER
  6
CONTINUOUS
 62
     2
100
AcDbLine
 39
96.0
 10
43.4465
 20
20.3298
 30
0.0
 11
43.4465
 21
20.3298
 31
0.0
  0
LINE
  5
4CA
100
AcDbEntity
  8
BORDER
  6
CONTINUOUS
 62
     2
100
AcDbLine
 39
96.0
 10
42.9777
 20
20.3298
 30
0.0
 11
42.9777
 21
20.3298
 31
0.0
  0
LINE
  5
4CB
100
AcDbEntity
  8
BORDER
  6
CONTINUOUS
 62
     2
100
AcDbLine
 39
96.0
 10
42.509
 20
20.3298
 30
0.0
 11
42.509
 21
20.3298
 31
0.0
  0
LINE
  5
4CC
100
AcDbEntity
  8
BORDER
  6
CONTINUOUS
 62
     2
100
AcDbLine
 39
96.0
 10
43.6809
 20
20.7986
 30
0.0
 11
43.6809
 21
20.7986
 31
0.0
  0
LINE
  5
4CD
100
AcDbEntity
  8
BORDER
  6
CONTINUOUS
 62
     2
100
AcDbLine
 39
96.0
 10
43.2121
 20
20.7986
 30
0.0
 11
43.2121
 21
20.7986
 31
0.0
  0
LINE
  5
4CE
100
AcDbEntity
  8
BORDER
  6
CONTINUOUS
 62
     2
100
AcDbLine
 39
96.0
 10
42.7434
 20
20.7986
 30
0.0
 11
42.7434
 21
20.7986
 31
0.0
  0
LINE
  5
4CF
100
AcDbEntity
  8
BORDER
  6
CONTINUOUS
 62
     2
100
AcDbLine
 39
96.0
 10
42.2746
 20
20.7986
 30
0.0
 11
42.2746
 21
20.7986
 31
0.0
  0
LINE
  5
4D0
100
AcDbEntity
  8
BORDER
  6
CONTINUOUS
 62
     2
100
AcDbLine
 39
96.0
 10
43.9152
 20
21.2673
 30
0.0
 11
43.9152
 21
21.2673
 31
0.0
  0
LINE
  5
4D1
100
AcDbEntity
  8
BORDER
  6
CONTINUOUS
 62
     2
100
AcDbLine
 39
96.0
 10
43.4465
 20
21.2673
 30
0.0
 11
43.4465
 21
21.2673
 31
0.0
  0
LINE
  5
4D2
100
AcDbEntity
  8
BORDER
  6
CONTINUOUS
 62
     2
100
AcDbLine
 39
96.0
 10
42.9777
 20
21.2673
 30
0.0
 11
42.9777
 21
21.2673
 31
0.0
  0
LINE
  5
4D3
100
AcDbEntity
  8
BORDER
  6
CONTINUOUS
 62
     2
100
AcDbLine
 39
96.0
 10
42.509
 20
21.2673
 30
0.0
 11
42.509
 21
21.2673
 31
0.0
  0
LINE
  5
4D4
100
AcDbEntity
  8
BORDER
  6
CONTINUOUS
 62
     2
100
AcDbLine
 39
96.0
 10
43.6809
 20
21.7361
 30
0.0
 11
43.6809
 21
21.7361
 31
0.0
  0
LINE
  5
4D5
100
AcDbEntity
  8
BORDER
  6
CONTINUOUS
 62
     2
100
AcDbLine
 39
96.0
 10
43.2121
 20
21.7361
 30
0.0
 11
43.2121
 21
21.7361
 31
0.0
  0
LINE
  5
4D6
100
AcDbEntity
  8
BORDER
  6
CONTINUOUS
 62
     2
100
AcDbLine
 39
96.0
 10
42.7434
 20
21.7361
 30
0.0
 11
42.7434
 21
21.7361
 31
0.0
  0
LINE
  5
4D7
100
AcDbEntity
  8
BORDER
  6
CONTINUOUS
 62
     2
100
AcDbLine
 39
96.0
 10
42.2746
 20
21.7361
 30
0.0
 11
42.2746
 21
21.7361
 31
0.0
  0
LINE
  5
4D8
100
AcDbEntity
  8
BORDER
  6
CONTINUOUS
 62
     2
100
AcDbLine
 39
96.0
 10
43.9152
 20
22.2048
 30
0.0
 11
43.9152
 21
22.2048
 31
0.0
  0
LINE
  5
4D9
100
AcDbEntity
  8
BORDER
  6
CONTINUOUS
 62
     2
100
AcDbLine
 39
96.0
 10
43.4465
 20
22.2048
 30
0.0
 11
43.4465
 21
22.2048
 31
0.0
  0
LINE
  5
4DA
100
AcDbEntity
  8
BORDER
  6
CONTINUOUS
 62
     2
100
AcDbLine
 39
96.0
 10
42.9777
 20
22.2048
 30
0.0
 11
42.9777
 21
22.2048
 31
0.0
  0
LINE
  5
4DB
100
AcDbEntity
  8
BORDER
  6
CONTINUOUS
 62
     2
100
AcDbLine
 39
96.0
 10
42.509
 20
22.2048
 30
0.0
 11
42.509
 21
22.2048
 31
0.0
  0
LINE
  5
4DC
100
AcDbEntity
  8
BORDER
  6
CONTINUOUS
 62
     2
100
AcDbLine
 39
96.0
 10
43.6809
 20
22.6736
 30
0.0
 11
43.6809
 21
22.6736
 31
0.0
  0
LINE
  5
4DD
100
AcDbEntity
  8
BORDER
  6
CONTINUOUS
 62
     2
100
AcDbLine
 39
96.0
 10
43.2121
 20
22.6736
 30
0.0
 11
43.2121
 21
22.6736
 31
0.0
  0
LINE
  5
4DE
100
AcDbEntity
  8
BORDER
  6
CONTINUOUS
 62
     2
100
AcDbLine
 39
96.0
 10
42.7434
 20
22.6736
 30
0.0
 11
42.7434
 21
22.6736
 31
0.0
  0
LINE
  5
4DF
100
AcDbEntity
  8
BORDER
  6
CONTINUOUS
 62
     2
100
AcDbLine
 39
96.0
 10
42.2746
 20
22.6736
 30
0.0
 11
42.2746
 21
22.6736
 31
0.0
  0
LINE
  5
4E0
100
AcDbEntity
  8
BORDER
  6
CONTINUOUS
 62
     2
100
AcDbLine
 39
96.0
 10
43.9152
 20
23.1423
 30
0.0
 11
43.9152
 21
23.1423
 31
0.0
  0
LINE
  5
4E1
100
AcDbEntity
  8
BORDER
  6
CONTINUOUS
 62
     2
100
AcDbLine
 39
96.0
 10
43.4465
 20
23.1423
 30
0.0
 11
43.4465
 21
23.1423
 31
0.0
  0
LINE
  5
4E2
100
AcDbEntity
  8
BORDER
  6
CONTINUOUS
 62
     2
100
AcDbLine
 39
96.0
 10
42.9777
 20
23.1423
 30
0.0
 11
42.9777
 21
23.1423
 31
0.0
  0
LINE
  5
4E3
100
AcDbEntity
  8
BORDER
  6
CONTINUOUS
 62
     2
100
AcDbLine
 39
96.0
 10
42.509
 20
23.1423
 30
0.0
 11
42.509
 21
23.1423
 31
0.0
  0
LINE
  5
4E4
100
AcDbEntity
  8
BORDER
  6
CONTINUOUS
 62
     2
100
AcDbLine
 39
96.0
 10
43.6809
 20
23.6111
 30
0.0
 11
43.6809
 21
23.6111
 31
0.0
  0
LINE
  5
4E5
100
AcDbEntity
  8
BORDER
  6
CONTINUOUS
 62
     2
100
AcDbLine
 39
96.0
 10
43.2121
 20
23.6111
 30
0.0
 11
43.2121
 21
23.6111
 31
0.0
  0
LINE
  5
4E6
100
AcDbEntity
  8
BORDER
  6
CONTINUOUS
 62
     2
100
AcDbLine
 39
96.0
 10
42.7434
 20
23.6111
 30
0.0
 11
42.7434
 21
23.6111
 31
0.0
  0
LINE
  5
4E7
100
AcDbEntity
  8
BORDER
  6
CONTINUOUS
 62
     2
100
AcDbLine
 39
96.0
 10
42.2746
 20
23.6111
 30
0.0
 11
42.2746
 21
23.6111
 31
0.0
  0
LINE
  5
4E8
100
AcDbEntity
  8
BORDER
  6
CONTINUOUS
 62
     2
100
AcDbLine
 39
96.0
 10
43.9152
 20
24.0798
 30
0.0
 11
43.9152
 21
24.0798
 31
0.0
  0
LINE
  5
4E9
100
AcDbEntity
  8
BORDER
  6
CONTINUOUS
 62
     2
100
AcDbLine
 39
96.0
 10
43.4465
 20
24.0798
 30
0.0
 11
43.4465
 21
24.0798
 31
0.0
  0
LINE
  5
4EA
100
AcDbEntity
  8
BORDER
  6
CONTINUOUS
 62
     2
100
AcDbLine
 39
96.0
 10
42.9777
 20
24.0798
 30
0.0
 11
42.9777
 21
24.0798
 31
0.0
  0
LINE
  5
4EB
100
AcDbEntity
  8
BORDER
  6
CONTINUOUS
 62
     2
100
AcDbLine
 39
96.0
 10
42.509
 20
24.0798
 30
0.0
 11
42.509
 21
24.0798
 31
0.0
  0
LINE
  5
4EC
100
AcDbEntity
  8
BORDER
  6
CONTINUOUS
 62
     2
100
AcDbLine
 39
96.0
 10
43.6809
 20
24.5486
 30
0.0
 11
43.6809
 21
24.5486
 31
0.0
  0
LINE
  5
4ED
100
AcDbEntity
  8
BORDER
  6
CONTINUOUS
 62
     2
100
AcDbLine
 39
96.0
 10
43.2121
 20
24.5486
 30
0.0
 11
43.2121
 21
24.5486
 31
0.0
  0
LINE
  5
4EE
100
AcDbEntity
  8
BORDER
  6
CONTINUOUS
 62
     2
100
AcDbLine
 39
96.0
 10
42.7434
 20
24.5486
 30
0.0
 11
42.7434
 21
24.5486
 31
0.0
  0
LINE
  5
4EF
100
AcDbEntity
  8
BORDER
  6
CONTINUOUS
 62
     2
100
AcDbLine
 39
96.0
 10
42.2746
 20
24.5486
 30
0.0
 11
42.2746
 21
24.5486
 31
0.0
  0
LINE
  5
4F0
100
AcDbEntity
  8
BORDER
  6
CONTINUOUS
 62
     2
100
AcDbLine
 39
96.0
 10
35.9465
 20
10.0173
 30
0.0
 11
35.9465
 21
10.0173
 31
0.0
  0
LINE
  5
4F1
100
AcDbEntity
  8
BORDER
  6
CONTINUOUS
 62
     2
100
AcDbLine
 39
96.0
 10
35.4777
 20
10.0173
 30
0.0
 11
35.4777
 21
10.0173
 31
0.0
  0
LINE
  5
4F2
100
AcDbEntity
  8
BORDER
  6
CONTINUOUS
 62
     2
100
AcDbLine
 39
96.0
 10
35.009
 20
10.0173
 30
0.0
 11
35.009
 21
10.0173
 31
0.0
  0
LINE
  5
4F3
100
AcDbEntity
  8
BORDER
  6
CONTINUOUS
 62
     2
100
AcDbLine
 39
96.0
 10
34.5402
 20
10.0173
 30
0.0
 11
34.5402
 21
10.0173
 31
0.0
  0
LINE
  5
4F4
100
AcDbEntity
  8
BORDER
  6
CONTINUOUS
 62
     2
100
AcDbLine
 39
96.0
 10
35.7121
 20
10.4861
 30
0.0
 11
35.7121
 21
10.4861
 31
0.0
  0
LINE
  5
4F5
100
AcDbEntity
  8
BORDER
  6
CONTINUOUS
 62
     2
100
AcDbLine
 39
96.0
 10
35.2434
 20
10.4861
 30
0.0
 11
35.2434
 21
10.4861
 31
0.0
  0
LINE
  5
4F6
100
AcDbEntity
  8
BORDER
  6
CONTINUOUS
 62
     2
100
AcDbLine
 39
96.0
 10
34.7746
 20
10.4861
 30
0.0
 11
34.7746
 21
10.4861
 31
0.0
  0
LINE
  5
4F7
100
AcDbEntity
  8
BORDER
  6
CONTINUOUS
 62
     2
100
AcDbLine
 39
96.0
 10
34.3059
 20
10.4861
 30
0.0
 11
34.3059
 21
10.4861
 31
0.0
  0
LINE
  5
4F8
100
AcDbEntity
  8
BORDER
  6
CONTINUOUS
 62
     2
100
AcDbLine
 39
96.0
 10
35.9465
 20
10.9548
 30
0.0
 11
35.9465
 21
10.9548
 31
0.0
  0
LINE
  5
4F9
100
AcDbEntity
  8
BORDER
  6
CONTINUOUS
 62
     2
100
AcDbLine
 39
96.0
 10
35.4777
 20
10.9548
 30
0.0
 11
35.4777
 21
10.9548
 31
0.0
  0
LINE
  5
4FA
100
AcDbEntity
  8
BORDER
  6
CONTINUOUS
 62
     2
100
AcDbLine
 39
96.0
 10
35.009
 20
10.9548
 30
0.0
 11
35.009
 21
10.9548
 31
0.0
  0
LINE
  5
4FB
100
AcDbEntity
  8
BORDER
  6
CONTINUOUS
 62
     2
100
AcDbLine
 39
96.0
 10
34.5402
 20
10.9548
 30
0.0
 11
34.5402
 21
10.9548
 31
0.0
  0
LINE
  5
4FC
100
AcDbEntity
  8
BORDER
  6
CONTINUOUS
 62
     2
100
AcDbLine
 39
96.0
 10
35.7121
 20
11.4236
 30
0.0
 11
35.7121
 21
11.4236
 31
0.0
  0
LINE
  5
4FD
100
AcDbEntity
  8
BORDER
  6
CONTINUOUS
 62
     2
100
AcDbLine
 39
96.0
 10
35.2434
 20
11.4236
 30
0.0
 11
35.2434
 21
11.4236
 31
0.0
  0
LINE
  5
4FE
100
AcDbEntity
  8
BORDER
  6
CONTINUOUS
 62
     2
100
AcDbLine
 39
96.0
 10
34.7746
 20
11.4236
 30
0.0
 11
34.7746
 21
11.4236
 31
0.0
  0
LINE
  5
4FF
100
AcDbEntity
  8
BORDER
  6
CONTINUOUS
 62
     2
100
AcDbLine
 39
96.0
 10
34.3059
 20
11.4236
 30
0.0
 11
34.3059
 21
11.4236
 31
0.0
  0
LINE
  5
500
100
AcDbEntity
  8
BORDER
  6
CONTINUOUS
 62
     2
100
AcDbLine
 39
96.0
 10
35.9465
 20
11.8923
 30
0.0
 11
35.9465
 21
11.8923
 31
0.0
  0
LINE
  5
501
100
AcDbEntity
  8
BORDER
  6
CONTINUOUS
 62
     2
100
AcDbLine
 39
96.0
 10
35.4777
 20
11.8923
 30
0.0
 11
35.4777
 21
11.8923
 31
0.0
  0
LINE
  5
502
100
AcDbEntity
  8
BORDER
  6
CONTINUOUS
 62
     2
100
AcDbLine
 39
96.0
 10
35.009
 20
11.8923
 30
0.0
 11
35.009
 21
11.8923
 31
0.0
  0
LINE
  5
503
100
AcDbEntity
  8
BORDER
  6
CONTINUOUS
 62
     2
100
AcDbLine
 39
96.0
 10
34.5402
 20
11.8923
 30
0.0
 11
34.5402
 21
11.8923
 31
0.0
  0
LINE
  5
504
100
AcDbEntity
  8
BORDER
  6
CONTINUOUS
 62
     2
100
AcDbLine
 39
96.0
 10
35.7121
 20
12.3611
 30
0.0
 11
35.7121
 21
12.3611
 31
0.0
  0
LINE
  5
505
100
AcDbEntity
  8
BORDER
  6
CONTINUOUS
 62
     2
100
AcDbLine
 39
96.0
 10
35.2434
 20
12.3611
 30
0.0
 11
35.2434
 21
12.3611
 31
0.0
  0
LINE
  5
506
100
AcDbEntity
  8
BORDER
  6
CONTINUOUS
 62
     2
100
AcDbLine
 39
96.0
 10
34.7746
 20
12.3611
 30
0.0
 11
34.7746
 21
12.3611
 31
0.0
  0
LINE
  5
507
100
AcDbEntity
  8
BORDER
  6
CONTINUOUS
 62
     2
100
AcDbLine
 39
96.0
 10
34.3059
 20
12.3611
 30
0.0
 11
34.3059
 21
12.3611
 31
0.0
  0
LINE
  5
508
100
AcDbEntity
  8
BORDER
  6
CONTINUOUS
 62
     2
100
AcDbLine
 39
96.0
 10
35.9465
 20
12.8298
 30
0.0
 11
35.9465
 21
12.8298
 31
0.0
  0
LINE
  5
509
100
AcDbEntity
  8
BORDER
  6
CONTINUOUS
 62
     2
100
AcDbLine
 39
96.0
 10
35.4777
 20
12.8298
 30
0.0
 11
35.4777
 21
12.8298
 31
0.0
  0
LINE
  5
50A
100
AcDbEntity
  8
BORDER
  6
CONTINUOUS
 62
     2
100
AcDbLine
 39
96.0
 10
35.009
 20
12.8298
 30
0.0
 11
35.009
 21
12.8298
 31
0.0
  0
LINE
  5
50B
100
AcDbEntity
  8
BORDER
  6
CONTINUOUS
 62
     2
100
AcDbLine
 39
96.0
 10
34.5402
 20
12.8298
 30
0.0
 11
34.5402
 21
12.8298
 31
0.0
  0
LINE
  5
50C
100
AcDbEntity
  8
BORDER
  6
CONTINUOUS
 62
     2
100
AcDbLine
 39
96.0
 10
35.7121
 20
13.2986
 30
0.0
 11
35.7121
 21
13.2986
 31
0.0
  0
LINE
  5
50D
100
AcDbEntity
  8
BORDER
  6
CONTINUOUS
 62
     2
100
AcDbLine
 39
96.0
 10
35.2434
 20
13.2986
 30
0.0
 11
35.2434
 21
13.2986
 31
0.0
  0
LINE
  5
50E
100
AcDbEntity
  8
BORDER
  6
CONTINUOUS
 62
     2
100
AcDbLine
 39
96.0
 10
34.7746
 20
13.2986
 30
0.0
 11
34.7746
 21
13.2986
 31
0.0
  0
LINE
  5
50F
100
AcDbEntity
  8
BORDER
  6
CONTINUOUS
 62
     2
100
AcDbLine
 39
96.0
 10
34.3059
 20
13.2986
 30
0.0
 11
34.3059
 21
13.2986
 31
0.0
  0
LINE
  5
510
100
AcDbEntity
  8
BORDER
  6
CONTINUOUS
 62
     2
100
AcDbLine
 39
96.0
 10
35.9465
 20
13.7673
 30
0.0
 11
35.9465
 21
13.7673
 31
0.0
  0
LINE
  5
511
100
AcDbEntity
  8
BORDER
  6
CONTINUOUS
 62
     2
100
AcDbLine
 39
96.0
 10
35.4777
 20
13.7673
 30
0.0
 11
35.4777
 21
13.7673
 31
0.0
  0
LINE
  5
512
100
AcDbEntity
  8
BORDER
  6
CONTINUOUS
 62
     2
100
AcDbLine
 39
96.0
 10
35.009
 20
13.7673
 30
0.0
 11
35.009
 21
13.7673
 31
0.0
  0
LINE
  5
513
100
AcDbEntity
  8
BORDER
  6
CONTINUOUS
 62
     2
100
AcDbLine
 39
96.0
 10
34.5402
 20
13.7673
 30
0.0
 11
34.5402
 21
13.7673
 31
0.0
  0
LINE
  5
514
100
AcDbEntity
  8
BORDER
  6
CONTINUOUS
 62
     2
100
AcDbLine
 39
96.0
 10
35.7121
 20
14.2361
 30
0.0
 11
35.7121
 21
14.2361
 31
0.0
  0
LINE
  5
515
100
AcDbEntity
  8
BORDER
  6
CONTINUOUS
 62
     2
100
AcDbLine
 39
96.0
 10
35.2434
 20
14.2361
 30
0.0
 11
35.2434
 21
14.2361
 31
0.0
  0
LINE
  5
516
100
AcDbEntity
  8
BORDER
  6
CONTINUOUS
 62
     2
100
AcDbLine
 39
96.0
 10
34.7746
 20
14.2361
 30
0.0
 11
34.7746
 21
14.2361
 31
0.0
  0
LINE
  5
517
100
AcDbEntity
  8
BORDER
  6
CONTINUOUS
 62
     2
100
AcDbLine
 39
96.0
 10
34.3059
 20
14.2361
 30
0.0
 11
34.3059
 21
14.2361
 31
0.0
  0
LINE
  5
518
100
AcDbEntity
  8
BORDER
  6
CONTINUOUS
 62
     2
100
AcDbLine
 39
96.0
 10
35.9465
 20
14.7048
 30
0.0
 11
35.9465
 21
14.7048
 31
0.0
  0
LINE
  5
519
100
AcDbEntity
  8
BORDER
  6
CONTINUOUS
 62
     2
100
AcDbLine
 39
96.0
 10
35.4777
 20
14.7048
 30
0.0
 11
35.4777
 21
14.7048
 31
0.0
  0
LINE
  5
51A
100
AcDbEntity
  8
BORDER
  6
CONTINUOUS
 62
     2
100
AcDbLine
 39
96.0
 10
35.009
 20
14.7048
 30
0.0
 11
35.009
 21
14.7048
 31
0.0
  0
LINE
  5
51B
100
AcDbEntity
  8
BORDER
  6
CONTINUOUS
 62
     2
100
AcDbLine
 39
96.0
 10
34.5402
 20
14.7048
 30
0.0
 11
34.5402
 21
14.7048
 31
0.0
  0
LINE
  5
51C
100
AcDbEntity
  8
BORDER
  6
CONTINUOUS
 62
     2
100
AcDbLine
 39
96.0
 10
35.7121
 20
15.1736
 30
0.0
 11
35.7121
 21
15.1736
 31
0.0
  0
LINE
  5
51D
100
AcDbEntity
  8
BORDER
  6
CONTINUOUS
 62
     2
100
AcDbLine
 39
96.0
 10
35.2434
 20
15.1736
 30
0.0
 11
35.2434
 21
15.1736
 31
0.0
  0
LINE
  5
51E
100
AcDbEntity
  8
BORDER
  6
CONTINUOUS
 62
     2
100
AcDbLine
 39
96.0
 10
34.7746
 20
15.1736
 30
0.0
 11
34.7746
 21
15.1736
 31
0.0
  0
LINE
  5
51F
100
AcDbEntity
  8
BORDER
  6
CONTINUOUS
 62
     2
100
AcDbLine
 39
96.0
 10
34.3059
 20
15.1736
 30
0.0
 11
34.3059
 21
15.1736
 31
0.0
  0
LINE
  5
520
100
AcDbEntity
  8
BORDER
  6
CONTINUOUS
 62
     2
100
AcDbLine
 39
96.0
 10
35.9465
 20
15.6423
 30
0.0
 11
35.9465
 21
15.6423
 31
0.0
  0
LINE
  5
521
100
AcDbEntity
  8
BORDER
  6
CONTINUOUS
 62
     2
100
AcDbLine
 39
96.0
 10
35.4777
 20
15.6423
 30
0.0
 11
35.4777
 21
15.6423
 31
0.0
  0
LINE
  5
522
100
AcDbEntity
  8
BORDER
  6
CONTINUOUS
 62
     2
100
AcDbLine
 39
96.0
 10
35.009
 20
15.6423
 30
0.0
 11
35.009
 21
15.6423
 31
0.0
  0
LINE
  5
523
100
AcDbEntity
  8
BORDER
  6
CONTINUOUS
 62
     2
100
AcDbLine
 39
96.0
 10
34.5402
 20
15.6423
 30
0.0
 11
34.5402
 21
15.6423
 31
0.0
  0
LINE
  5
524
100
AcDbEntity
  8
BORDER
  6
CONTINUOUS
 62
     2
100
AcDbLine
 39
96.0
 10
35.7121
 20
16.1111
 30
0.0
 11
35.7121
 21
16.1111
 31
0.0
  0
LINE
  5
525
100
AcDbEntity
  8
BORDER
  6
CONTINUOUS
 62
     2
100
AcDbLine
 39
96.0
 10
35.2434
 20
16.1111
 30
0.0
 11
35.2434
 21
16.1111
 31
0.0
  0
LINE
  5
526
100
AcDbEntity
  8
BORDER
  6
CONTINUOUS
 62
     2
100
AcDbLine
 39
96.0
 10
34.7746
 20
16.1111
 30
0.0
 11
34.7746
 21
16.1111
 31
0.0
  0
LINE
  5
527
100
AcDbEntity
  8
BORDER
  6
CONTINUOUS
 62
     2
100
AcDbLine
 39
96.0
 10
34.3059
 20
16.1111
 30
0.0
 11
34.3059
 21
16.1111
 31
0.0
  0
LINE
  5
528
100
AcDbEntity
  8
BORDER
  6
CONTINUOUS
 62
     2
100
AcDbLine
 39
96.0
 10
35.9465
 20
16.5798
 30
0.0
 11
35.9465
 21
16.5798
 31
0.0
  0
LINE
  5
529
100
AcDbEntity
  8
BORDER
  6
CONTINUOUS
 62
     2
100
AcDbLine
 39
96.0
 10
35.4777
 20
16.5798
 30
0.0
 11
35.4777
 21
16.5798
 31
0.0
  0
LINE
  5
52A
100
AcDbEntity
  8
BORDER
  6
CONTINUOUS
 62
     2
100
AcDbLine
 39
96.0
 10
35.009
 20
16.5798
 30
0.0
 11
35.009
 21
16.5798
 31
0.0
  0
LINE
  5
52B
100
AcDbEntity
  8
BORDER
  6
CONTINUOUS
 62
     2
100
AcDbLine
 39
96.0
 10
34.5402
 20
16.5798
 30
0.0
 11
34.5402
 21
16.5798
 31
0.0
  0
LINE
  5
52C
100
AcDbEntity
  8
BORDER
  6
CONTINUOUS
 62
     2
100
AcDbLine
 39
96.0
 10
35.7121
 20
17.0486
 30
0.0
 11
35.7121
 21
17.0486
 31
0.0
  0
LINE
  5
52D
100
AcDbEntity
  8
BORDER
  6
CONTINUOUS
 62
     2
100
AcDbLine
 39
96.0
 10
35.2434
 20
17.0486
 30
0.0
 11
35.2434
 21
17.0486
 31
0.0
  0
LINE
  5
52E
100
AcDbEntity
  8
BORDER
  6
CONTINUOUS
 62
     2
100
AcDbLine
 39
96.0
 10
34.7746
 20
17.0486
 30
0.0
 11
34.7746
 21
17.0486
 31
0.0
  0
LINE
  5
52F
100
AcDbEntity
  8
BORDER
  6
CONTINUOUS
 62
     2
100
AcDbLine
 39
96.0
 10
34.3059
 20
17.0486
 30
0.0
 11
34.3059
 21
17.0486
 31
0.0
  0
LINE
  5
530
100
AcDbEntity
  8
BORDER
  6
CONTINUOUS
 62
     2
100
AcDbLine
 39
96.0
 10
35.9465
 20
17.5173
 30
0.0
 11
35.9465
 21
17.5173
 31
0.0
  0
LINE
  5
531
100
AcDbEntity
  8
BORDER
  6
CONTINUOUS
 62
     2
100
AcDbLine
 39
96.0
 10
35.4777
 20
17.5173
 30
0.0
 11
35.4777
 21
17.5173
 31
0.0
  0
LINE
  5
532
100
AcDbEntity
  8
BORDER
  6
CONTINUOUS
 62
     2
100
AcDbLine
 39
96.0
 10
35.009
 20
17.5173
 30
0.0
 11
35.009
 21
17.5173
 31
0.0
  0
LINE
  5
533
100
AcDbEntity
  8
BORDER
  6
CONTINUOUS
 62
     2
100
AcDbLine
 39
96.0
 10
34.5402
 20
17.5173
 30
0.0
 11
34.5402
 21
17.5173
 31
0.0
  0
LINE
  5
534
100
AcDbEntity
  8
BORDER
  6
CONTINUOUS
 62
     2
100
AcDbLine
 39
96.0
 10
35.7121
 20
17.9861
 30
0.0
 11
35.7121
 21
17.9861
 31
0.0
  0
LINE
  5
535
100
AcDbEntity
  8
BORDER
  6
CONTINUOUS
 62
     2
100
AcDbLine
 39
96.0
 10
35.2434
 20
17.9861
 30
0.0
 11
35.2434
 21
17.9861
 31
0.0
  0
LINE
  5
536
100
AcDbEntity
  8
BORDER
  6
CONTINUOUS
 62
     2
100
AcDbLine
 39
96.0
 10
34.7746
 20
17.9861
 30
0.0
 11
34.7746
 21
17.9861
 31
0.0
  0
LINE
  5
537
100
AcDbEntity
  8
BORDER
  6
CONTINUOUS
 62
     2
100
AcDbLine
 39
96.0
 10
34.3059
 20
17.9861
 30
0.0
 11
34.3059
 21
17.9861
 31
0.0
  0
LINE
  5
538
100
AcDbEntity
  8
BORDER
  6
CONTINUOUS
 62
     2
100
AcDbLine
 39
96.0
 10
35.9465
 20
18.4548
 30
0.0
 11
35.9465
 21
18.4548
 31
0.0
  0
LINE
  5
539
100
AcDbEntity
  8
BORDER
  6
CONTINUOUS
 62
     2
100
AcDbLine
 39
96.0
 10
35.4777
 20
18.4548
 30
0.0
 11
35.4777
 21
18.4548
 31
0.0
  0
LINE
  5
53A
100
AcDbEntity
  8
BORDER
  6
CONTINUOUS
 62
     2
100
AcDbLine
 39
96.0
 10
35.009
 20
18.4548
 30
0.0
 11
35.009
 21
18.4548
 31
0.0
  0
LINE
  5
53B
100
AcDbEntity
  8
BORDER
  6
CONTINUOUS
 62
     2
100
AcDbLine
 39
96.0
 10
34.5402
 20
18.4548
 30
0.0
 11
34.5402
 21
18.4548
 31
0.0
  0
LINE
  5
53C
100
AcDbEntity
  8
BORDER
  6
CONTINUOUS
 62
     2
100
AcDbLine
 39
96.0
 10
35.7121
 20
18.9236
 30
0.0
 11
35.7121
 21
18.9236
 31
0.0
  0
LINE
  5
53D
100
AcDbEntity
  8
BORDER
  6
CONTINUOUS
 62
     2
100
AcDbLine
 39
96.0
 10
35.2434
 20
18.9236
 30
0.0
 11
35.2434
 21
18.9236
 31
0.0
  0
LINE
  5
53E
100
AcDbEntity
  8
BORDER
  6
CONTINUOUS
 62
     2
100
AcDbLine
 39
96.0
 10
34.7746
 20
18.9236
 30
0.0
 11
34.7746
 21
18.9236
 31
0.0
  0
LINE
  5
53F
100
AcDbEntity
  8
BORDER
  6
CONTINUOUS
 62
     2
100
AcDbLine
 39
96.0
 10
34.3059
 20
18.9236
 30
0.0
 11
34.3059
 21
18.9236
 31
0.0
  0
LINE
  5
540
100
AcDbEntity
  8
BORDER
  6
CONTINUOUS
 62
     2
100
AcDbLine
 39
96.0
 10
35.9465
 20
19.3923
 30
0.0
 11
35.9465
 21
19.3923
 31
0.0
  0
LINE
  5
541
100
AcDbEntity
  8
BORDER
  6
CONTINUOUS
 62
     2
100
AcDbLine
 39
96.0
 10
35.4777
 20
19.3923
 30
0.0
 11
35.4777
 21
19.3923
 31
0.0
  0
LINE
  5
542
100
AcDbEntity
  8
BORDER
  6
CONTINUOUS
 62
     2
100
AcDbLine
 39
96.0
 10
35.009
 20
19.3923
 30
0.0
 11
35.009
 21
19.3923
 31
0.0
  0
LINE
  5
543
100
AcDbEntity
  8
BORDER
  6
CONTINUOUS
 62
     2
100
AcDbLine
 39
96.0
 10
34.5402
 20
19.3923
 30
0.0
 11
34.5402
 21
19.3923
 31
0.0
  0
LINE
  5
544
100
AcDbEntity
  8
BORDER
  6
CONTINUOUS
 62
     2
100
AcDbLine
 39
96.0
 10
35.7121
 20
19.8611
 30
0.0
 11
35.7121
 21
19.8611
 31
0.0
  0
LINE
  5
545
100
AcDbEntity
  8
BORDER
  6
CONTINUOUS
 62
     2
100
AcDbLine
 39
96.0
 10
35.2434
 20
19.8611
 30
0.0
 11
35.2434
 21
19.8611
 31
0.0
  0
LINE
  5
546
100
AcDbEntity
  8
BORDER
  6
CONTINUOUS
 62
     2
100
AcDbLine
 39
96.0
 10
34.7746
 20
19.8611
 30
0.0
 11
34.7746
 21
19.8611
 31
0.0
  0
LINE
  5
547
100
AcDbEntity
  8
BORDER
  6
CONTINUOUS
 62
     2
100
AcDbLine
 39
96.0
 10
34.3059
 20
19.8611
 30
0.0
 11
34.3059
 21
19.8611
 31
0.0
  0
LINE
  5
548
100
AcDbEntity
  8
BORDER
  6
CONTINUOUS
 62
     2
100
AcDbLine
 39
96.0
 10
35.9465
 20
20.3298
 30
0.0
 11
35.9465
 21
20.3298
 31
0.0
  0
LINE
  5
549
100
AcDbEntity
  8
BORDER
  6
CONTINUOUS
 62
     2
100
AcDbLine
 39
96.0
 10
35.4777
 20
20.3298
 30
0.0
 11
35.4777
 21
20.3298
 31
0.0
  0
LINE
  5
54A
100
AcDbEntity
  8
BORDER
  6
CONTINUOUS
 62
     2
100
AcDbLine
 39
96.0
 10
35.009
 20
20.3298
 30
0.0
 11
35.009
 21
20.3298
 31
0.0
  0
LINE
  5
54B
100
AcDbEntity
  8
BORDER
  6
CONTINUOUS
 62
     2
100
AcDbLine
 39
96.0
 10
34.5402
 20
20.3298
 30
0.0
 11
34.5402
 21
20.3298
 31
0.0
  0
LINE
  5
54C
100
AcDbEntity
  8
BORDER
  6
CONTINUOUS
 62
     2
100
AcDbLine
 39
96.0
 10
35.7121
 20
20.7986
 30
0.0
 11
35.7121
 21
20.7986
 31
0.0
  0
LINE
  5
54D
100
AcDbEntity
  8
BORDER
  6
CONTINUOUS
 62
     2
100
AcDbLine
 39
96.0
 10
35.2434
 20
20.7986
 30
0.0
 11
35.2434
 21
20.7986
 31
0.0
  0
LINE
  5
54E
100
AcDbEntity
  8
BORDER
  6
CONTINUOUS
 62
     2
100
AcDbLine
 39
96.0
 10
34.7746
 20
20.7986
 30
0.0
 11
34.7746
 21
20.7986
 31
0.0
  0
LINE
  5
54F
100
AcDbEntity
  8
BORDER
  6
CONTINUOUS
 62
     2
100
AcDbLine
 39
96.0
 10
34.3059
 20
20.7986
 30
0.0
 11
34.3059
 21
20.7986
 31
0.0
  0
LINE
  5
550
100
AcDbEntity
  8
BORDER
  6
CONTINUOUS
 62
     2
100
AcDbLine
 39
96.0
 10
35.9465
 20
21.2673
 30
0.0
 11
35.9465
 21
21.2673
 31
0.0
  0
LINE
  5
551
100
AcDbEntity
  8
BORDER
  6
CONTINUOUS
 62
     2
100
AcDbLine
 39
96.0
 10
35.4777
 20
21.2673
 30
0.0
 11
35.4777
 21
21.2673
 31
0.0
  0
LINE
  5
552
100
AcDbEntity
  8
BORDER
  6
CONTINUOUS
 62
     2
100
AcDbLine
 39
96.0
 10
35.009
 20
21.2673
 30
0.0
 11
35.009
 21
21.2673
 31
0.0
  0
LINE
  5
553
100
AcDbEntity
  8
BORDER
  6
CONTINUOUS
 62
     2
100
AcDbLine
 39
96.0
 10
34.5402
 20
21.2673
 30
0.0
 11
34.5402
 21
21.2673
 31
0.0
  0
LINE
  5
554
100
AcDbEntity
  8
BORDER
  6
CONTINUOUS
 62
     2
100
AcDbLine
 39
96.0
 10
35.7121
 20
21.7361
 30
0.0
 11
35.7121
 21
21.7361
 31
0.0
  0
LINE
  5
555
100
AcDbEntity
  8
BORDER
  6
CONTINUOUS
 62
     2
100
AcDbLine
 39
96.0
 10
35.2434
 20
21.7361
 30
0.0
 11
35.2434
 21
21.7361
 31
0.0
  0
LINE
  5
556
100
AcDbEntity
  8
BORDER
  6
CONTINUOUS
 62
     2
100
AcDbLine
 39
96.0
 10
34.7746
 20
21.7361
 30
0.0
 11
34.7746
 21
21.7361
 31
0.0
  0
LINE
  5
557
100
AcDbEntity
  8
BORDER
  6
CONTINUOUS
 62
     2
100
AcDbLine
 39
96.0
 10
34.3059
 20
21.7361
 30
0.0
 11
34.3059
 21
21.7361
 31
0.0
  0
LINE
  5
558
100
AcDbEntity
  8
BORDER
  6
CONTINUOUS
 62
     2
100
AcDbLine
 39
96.0
 10
35.9465
 20
22.2048
 30
0.0
 11
35.9465
 21
22.2048
 31
0.0
  0
LINE
  5
559
100
AcDbEntity
  8
BORDER
  6
CONTINUOUS
 62
     2
100
AcDbLine
 39
96.0
 10
35.4777
 20
22.2048
 30
0.0
 11
35.4777
 21
22.2048
 31
0.0
  0
LINE
  5
55A
100
AcDbEntity
  8
BORDER
  6
CONTINUOUS
 62
     2
100
AcDbLine
 39
96.0
 10
35.009
 20
22.2048
 30
0.0
 11
35.009
 21
22.2048
 31
0.0
  0
LINE
  5
55B
100
AcDbEntity
  8
BORDER
  6
CONTINUOUS
 62
     2
100
AcDbLine
 39
96.0
 10
34.5402
 20
22.2048
 30
0.0
 11
34.5402
 21
22.2048
 31
0.0
  0
LINE
  5
55C
100
AcDbEntity
  8
BORDER
  6
CONTINUOUS
 62
     2
100
AcDbLine
 39
96.0
 10
35.7121
 20
22.6736
 30
0.0
 11
35.7121
 21
22.6736
 31
0.0
  0
LINE
  5
55D
100
AcDbEntity
  8
BORDER
  6
CONTINUOUS
 62
     2
100
AcDbLine
 39
96.0
 10
35.2434
 20
22.6736
 30
0.0
 11
35.2434
 21
22.6736
 31
0.0
  0
LINE
  5
55E
100
AcDbEntity
  8
BORDER
  6
CONTINUOUS
 62
     2
100
AcDbLine
 39
96.0
 10
34.7746
 20
22.6736
 30
0.0
 11
34.7746
 21
22.6736
 31
0.0
  0
LINE
  5
55F
100
AcDbEntity
  8
BORDER
  6
CONTINUOUS
 62
     2
100
AcDbLine
 39
96.0
 10
34.3059
 20
22.6736
 30
0.0
 11
34.3059
 21
22.6736
 31
0.0
  0
LINE
  5
560
100
AcDbEntity
  8
BORDER
  6
CONTINUOUS
 62
     2
100
AcDbLine
 39
96.0
 10
35.9465
 20
23.1423
 30
0.0
 11
35.9465
 21
23.1423
 31
0.0
  0
LINE
  5
561
100
AcDbEntity
  8
BORDER
  6
CONTINUOUS
 62
     2
100
AcDbLine
 39
96.0
 10
35.4777
 20
23.1423
 30
0.0
 11
35.4777
 21
23.1423
 31
0.0
  0
LINE
  5
562
100
AcDbEntity
  8
BORDER
  6
CONTINUOUS
 62
     2
100
AcDbLine
 39
96.0
 10
35.009
 20
23.1423
 30
0.0
 11
35.009
 21
23.1423
 31
0.0
  0
LINE
  5
563
100
AcDbEntity
  8
BORDER
  6
CONTINUOUS
 62
     2
100
AcDbLine
 39
96.0
 10
34.5402
 20
23.1423
 30
0.0
 11
34.5402
 21
23.1423
 31
0.0
  0
LINE
  5
564
100
AcDbEntity
  8
BORDER
  6
CONTINUOUS
 62
     2
100
AcDbLine
 39
96.0
 10
35.7121
 20
23.6111
 30
0.0
 11
35.7121
 21
23.6111
 31
0.0
  0
LINE
  5
565
100
AcDbEntity
  8
BORDER
  6
CONTINUOUS
 62
     2
100
AcDbLine
 39
96.0
 10
35.2434
 20
23.6111
 30
0.0
 11
35.2434
 21
23.6111
 31
0.0
  0
LINE
  5
566
100
AcDbEntity
  8
BORDER
  6
CONTINUOUS
 62
     2
100
AcDbLine
 39
96.0
 10
34.7746
 20
23.6111
 30
0.0
 11
34.7746
 21
23.6111
 31
0.0
  0
LINE
  5
567
100
AcDbEntity
  8
BORDER
  6
CONTINUOUS
 62
     2
100
AcDbLine
 39
96.0
 10
34.3059
 20
23.6111
 30
0.0
 11
34.3059
 21
23.6111
 31
0.0
  0
LINE
  5
568
100
AcDbEntity
  8
BORDER
  6
CONTINUOUS
 62
     2
100
AcDbLine
 39
96.0
 10
35.9465
 20
24.0798
 30
0.0
 11
35.9465
 21
24.0798
 31
0.0
  0
LINE
  5
569
100
AcDbEntity
  8
BORDER
  6
CONTINUOUS
 62
     2
100
AcDbLine
 39
96.0
 10
35.4777
 20
24.0798
 30
0.0
 11
35.4777
 21
24.0798
 31
0.0
  0
LINE
  5
56A
100
AcDbEntity
  8
BORDER
  6
CONTINUOUS
 62
     2
100
AcDbLine
 39
96.0
 10
35.009
 20
24.0798
 30
0.0
 11
35.009
 21
24.0798
 31
0.0
  0
LINE
  5
56B
100
AcDbEntity
  8
BORDER
  6
CONTINUOUS
 62
     2
100
AcDbLine
 39
96.0
 10
34.5402
 20
24.0798
 30
0.0
 11
34.5402
 21
24.0798
 31
0.0
  0
LINE
  5
56C
100
AcDbEntity
  8
BORDER
  6
CONTINUOUS
 62
     2
100
AcDbLine
 39
96.0
 10
35.7121
 20
24.5486
 30
0.0
 11
35.7121
 21
24.5486
 31
0.0
  0
LINE
  5
56D
100
AcDbEntity
  8
BORDER
  6
CONTINUOUS
 62
     2
100
AcDbLine
 39
96.0
 10
35.2434
 20
24.5486
 30
0.0
 11
35.2434
 21
24.5486
 31
0.0
  0
LINE
  5
56E
100
AcDbEntity
  8
BORDER
  6
CONTINUOUS
 62
     2
100
AcDbLine
 39
96.0
 10
34.7746
 20
24.5486
 30
0.0
 11
34.7746
 21
24.5486
 31
0.0
  0
LINE
  5
56F
100
AcDbEntity
  8
BORDER
  6
CONTINUOUS
 62
     2
100
AcDbLine
 39
96.0
 10
34.3059
 20
24.5486
 30
0.0
 11
34.3059
 21
24.5486
 31
0.0
  0
LINE
  5
570
100
AcDbEntity
  8
BORDER
  6
CONTINUOUS
 62
     1
100
AcDbLine
 39
96.0
 10
42.1601
 20
13.998
 30
0.0
 11
42.1709
 21
14.0595
 31
0.0
  0
LINE
  5
571
100
AcDbEntity
  8
BORDER
  6
CONTINUOUS
 62
     1
100
AcDbLine
 39
96.0
 10
41.726
 20
11.536
 30
0.0
 11
41.7368
 21
11.5975
 31
0.0
  0
LINE
  5
572
100
AcDbEntity
  8
BORDER
  6
CONTINUOUS
 62
     1
100
AcDbLine
 39
96.0
 10
40.5664
 20
20.8562
 30
0.0
 11
40.5771
 21
20.9177
 31
0.0
  0
LINE
  5
573
100
AcDbEntity
  8
BORDER
  6
CONTINUOUS
 62
     1
100
AcDbLine
 39
96.0
 10
40.1323
 20
18.3941
 30
0.0
 11
40.143
 21
18.4557
 31
0.0
  0
LINE
  5
574
100
AcDbEntity
  8
BORDER
  6
CONTINUOUS
 62
     1
100
AcDbLine
 39
96.0
 10
39.6982
 20
15.9321
 30
0.0
 11
39.7089
 21
15.9936
 31
0.0
  0
LINE
  5
575
100
AcDbEntity
  8
BORDER
  6
CONTINUOUS
 62
     1
100
AcDbLine
 39
96.0
 10
38.1047
 20
19.7903
 30
0.0
 11
38.1154
 21
19.8518
 31
0.0
  0
LINE
  5
576
100
AcDbEntity
  8
BORDER
  6
CONTINUOUS
 62
     1
100
AcDbLine
 39
96.0
 10
37.6706
 20
17.3282
 30
0.0
 11
37.6814
 21
17.3897
 31
0.0
  0
LINE
  5
577
100
AcDbEntity
  8
BORDER
  6
CONTINUOUS
 62
     1
100
AcDbLine
 39
96.0
 10
37.2365
 20
14.8662
 30
0.0
 11
37.2473
 21
14.9277
 31
0.0
  0
LINE
  5
578
100
AcDbEntity
  8
BORDER
  6
CONTINUOUS
 62
     1
100
AcDbLine
 39
96.0
 10
36.8025
 20
12.4041
 30
0.0
 11
36.8132
 21
12.4657
 31
0.0
  0
LINE
  5
579
100
AcDbEntity
  8
BORDER
  6
CONTINUOUS
 62
     1
100
AcDbLine
 39
96.0
 10
36.0769
 20
22.6864
 30
0.0
 11
36.0876
 21
22.7479
 31
0.0
  0
LINE
  5
57A
100
AcDbEntity
  8
BORDER
  6
CONTINUOUS
 62
     1
100
AcDbLine
 39
96.0
 10
42.0818
 20
12.3944
 30
0.0
 11
42.1176
 21
12.4456
 31
0.0
  0
LINE
  5
57B
100
AcDbEntity
  8
BORDER
  6
CONTINUOUS
 62
     1
100
AcDbLine
 39
96.0
 10
41.4682
 20
15.8761
 30
0.0
 11
41.5041
 21
15.9272
 31
0.0
  0
LINE
  5
57C
100
AcDbEntity
  8
BORDER
  6
CONTINUOUS
 62
     1
100
AcDbLine
 39
96.0
 10
40.0341
 20
15.3282
 30
0.0
 11
40.07
 21
15.3794
 31
0.0
  0
LINE
  5
57D
100
AcDbEntity
  8
BORDER
  6
CONTINUOUS
 62
     1
100
AcDbLine
 39
96.0
 10
40.8545
 20
20.8579
 30
0.0
 11
40.8903
 21
20.909
 31
0.0
  0
LINE
  5
57E
100
AcDbEntity
  8
BORDER
  6
CONTINUOUS
 62
     1
100
AcDbLine
 39
96.0
 10
39.4204
 20
18.81
 30
0.0
 11
39.4563
 21
18.8612
 31
0.0
  0
LINE
  5
57F
100
AcDbEntity
  8
BORDER
  6
CONTINUOUS
 62
     1
100
AcDbLine
 39
96.0
 10
37.9863
 20
15.2621
 30
0.0
 11
38.0222
 21
15.3133
 31
0.0
  0
LINE
  5
580
100
AcDbEntity
  8
BORDER
  6
CONTINUOUS
 62
     1
100
AcDbLine
 39
96.0
 10
36.5522
 20
13.2142
 30
0.0
 11
36.5881
 21
13.2654
 31
0.0
  0
LINE
  5
581
100
AcDbEntity
  8
BORDER
  6
CONTINUOUS
 62
     1
100
AcDbLine
 39
96.0
 10
37.3725
 20
18.7439
 30
0.0
 11
37.4084
 21
18.795
 31
0.0
  0
LINE
  5
582
100
AcDbEntity
  8
BORDER
  6
CONTINUOUS
 62
     1
100
AcDbLine
 39
96.0
 10
36.7585
 20
22.2257
 30
0.0
 11
36.7944
 21
22.2769
 31
0.0
  0
LINE
  5
583
100
AcDbEntity
  8
BORDER
  6
CONTINUOUS
 62
     1
100
AcDbLine
 39
96.0
 10
41.416
 20
11.9769
 30
0.0
 11
41.4748
 21
11.9983
 31
0.0
  0
LINE
  5
584
100
AcDbEntity
  8
BORDER
  6
CONTINUOUS
 62
     1
100
AcDbLine
 39
96.0
 10
40.5612
 20
15.8261
 30
0.0
 11
40.6201
 21
15.8475
 31
0.0
  0
LINE
  5
585
100
AcDbEntity
  8
BORDER
  6
CONTINUOUS
 62
     1
100
AcDbLine
 39
96.0
 10
38.2119
 20
13.471
 30
0.0
 11
38.2707
 21
13.4924
 31
0.0
  0
LINE
  5
586
100
AcDbEntity
  8
BORDER
  6
CONTINUOUS
 62
     1
100
AcDbLine
 39
96.0
 10
42.0556
 20
17.5304
 30
0.0
 11
42.1145
 21
17.5517
 31
0.0
  0
LINE
  5
587
100
AcDbEntity
  8
BORDER
  6
CONTINUOUS
 62
     1
100
AcDbLine
 39
96.0
 10
39.7063
 20
18.1753
 30
0.0
 11
39.7651
 21
18.1967
 31
0.0
  0
LINE
  5
588
100
AcDbEntity
  8
BORDER
  6
CONTINUOUS
 62
     1
100
AcDbLine
 39
96.0
 10
37.3569
 20
15.8203
 30
0.0
 11
37.4157
 21
15.8416
 31
0.0
  0
LINE
  5
589
100
AcDbEntity
  8
BORDER
  6
CONTINUOUS
 62
     1
100
AcDbLine
 39
96.0
 10
38.8513
 20
20.5246
 30
0.0
 11
38.9101
 21
20.5459
 31
0.0
  0
LINE
  5
58A
100
AcDbEntity
  8
BORDER
  6
CONTINUOUS
 62
     1
100
AcDbLine
 39
96.0
 10
36.5019
 20
18.1695
 30
0.0
 11
36.5608
 21
18.1909
 31
0.0
  0
LINE
  5
58B
100
AcDbEntity
  8
BORDER
  6
CONTINUOUS
 62
     1
100
AcDbLine
 39
96.0
 10
37.9963
 20
21.3739
 30
0.0
 11
38.0551
 21
21.3952
 31
0.0
  0
LINE
  5
58C
100
AcDbEntity
  8
BORDER
  6
CONTINUOUS
 62
     3
100
AcDbLine
 39
96.0
 10
42.2185
 20
9.6844
 30
0.0
 11
44.0935
 21
9.6844
 31
0.0
  0
LINE
  5
58D
100
AcDbEntity
  8
BORDER
  6
CONTINUOUS
 62
     3
100
AcDbLine
 39
96.0
 10
42.2185
 20
24.6844
 30
0.0
 11
34.0935
 21
24.6844
 31
0.0
  0
ARC
  5
58E
100
AcDbEntity
  8
BORDER
  6
CONTINUOUS
 62
     3
100
AcDbCircle
 39
96.0
 10
39.0935
 20
24.6844
 30
0.0
 40
3.0
100
AcDbArc
 50
180.0
 51
0.0
  0
ARC
  5
58F
100
AcDbEntity
  8
BORDER
  6
CONTINUOUS
 62
     3
100
AcDbCircle
 39
96.0
 10
39.0935
 20
9.6844
 30
0.0
 40
3.0
100
AcDbArc
 50
0.0
 51
180.0
  0
LINE
  5
590
100
AcDbEntity
  8
BORDER
  6
CONTINUOUS
 62
     3
100
AcDbLine
 39
96.0
 10
42.2185
 20
9.6844
 30
0.0
 11
42.2185
 21
24.6844
 31
0.0
  0
LINE
  5
591
100
AcDbEntity
  8
BORDER
  6
CONTINUOUS
 62
     3
100
AcDbLine
 39
96.0
 10
35.9685
 20
24.6844
 30
0.0
 11
35.9685
 21
9.6844
 31
0.0
  0
LINE
  5
592
100
AcDbEntity
  8
BORDER
  6
CONTINUOUS
 62
     3
100
AcDbLine
 39
96.0
 10
34.0935
 20
24.6844
 30
0.0
 11
34.0935
 21
9.6844
 31
0.0
  0
LINE
  5
593
100
AcDbEntity
  8
BORDER
  6
CONTINUOUS
 62
     3
100
AcDbLine
 39
96.0
 10
44.0935
 20
24.6844
 30
0.0
 11
42.2185
 21
24.6844
 31
0.0
  0
LINE
  5
594
100
AcDbEntity
  8
BORDER
  6
CONTINUOUS
 62
     3
100
AcDbLine
 39
96.0
 10
44.0935
 20
9.6844
 30
0.0
 11
44.0935
 21
24.6844
 31
0.0
  0
LINE
  5
595
100
AcDbEntity
  8
BORDER
  6
CONTINUOUS
 62
     3
100
AcDbLine
 39
96.0
 10
34.0935
 20
9.6844
 30
0.0
 11
35.9685
 21
9.6844
 31
0.0
  0
LINE
  5
596
100
AcDbEntity
  8
BORDER
  6
CONTINUOUS
 62
     3
100
AcDbLine
 39
96.0
 10
35.9685
 20
9.6844
 30
0.0
 11
34.0935
 21
9.6844
 31
0.0
  0
LINE
  5
597
100
AcDbEntity
  8
BORDER
  6
CONTINUOUS
 62
     3
100
AcDbLine
 39
96.0
 10
44.0935
 20
9.6844
 30
0.0
 11
42.2185
 21
9.6844
 31
0.0
  0
LINE
  5
598
100
AcDbEntity
  8
BORDER
  6
CONTINUOUS
 62
    15
100
AcDbLine
 39
96.0
 10
39.6591
 20
28.1446
 30
0.0
 11
39.6591
 21
28.6446
 31
0.0
  0
LINE
  5
599
100
AcDbEntity
  8
BORDER
  6
CONTINUOUS
 62
    15
100
AcDbLine
 39
96.0
 10
39.1591
 20
28.6446
 30
0.0
 11
39.1591
 21
28.1446
 31
0.0
  0
ARC
  5
59A
100
AcDbEntity
  8
BORDER
  6
CONTINUOUS
 62
    15
100
AcDbCircle
 39
96.0
 10
39.4091
 20
28.6446
 30
0.0
 40
0.25
100
AcDbArc
 50
0.0
 51
180.0
  0
ARC
  5
59B
100
AcDbEntity
  8
BORDER
  6
CONTINUOUS
 62
    15
100
AcDbCircle
 39
96.0
 10
39.4091
 20
28.1446
 30
0.0
 40
0.25
100
AcDbArc
 50
180.0
 51
0.0
  0
LEADER
  5
59C
100
AcDbEntity
  8
RF-SW
 62
    13
100
AcDbLeader
  3
ARCHITECTURAL
 76
     3
 10
38.910465
 20
17.59017
 30
0.0
 10
29.903269
 20
12.292734
 30
0.0
 10
28.114
 20
12.292734
 30
0.0
 77
    13
1001
ACAD
1000
DSTYLE
1002
{
1070
    40
1040
12.0
1070
   173
1070
     1
1070
     7
1000
_CLOSEDBLANK
1070
     6
1000
_CLOSEDBLANK
1002
}
  0
LEADER
  5
59D
100
AcDbEntity
  8
RF-SW
 62
    13
100
AcDbLeader
  3
ARCHITECTURAL
 76
     3
 10
38.145462
 20
9.562555
 30
0.0
 10
29.903269
 20
5.352917
 30
0.0
 10
28.114
 20
5.352917
 30
0.0
 77
    13
1001
ACAD
1000
DSTYLE
1002
{
1070
    40
1040
12.0
1070
   173
1070
     1
1070
     7
1000
_CLOSEDBLANK
1070
     6
1000
_CLOSEDBLANK
1002
}
  0
TEXT
  5
59E
100
AcDbEntity
  8
BORDER
  6
CONTINUOUS
 62
    15
100
AcDbText
 10
9.309057
 20
7.829059
 30
0.0
 40
1.124955
  1
REQUIRED, PER DESIGN)
  7
ROMAN
100
AcDbText
  0
LINE
  5
59F
100
AcDbEntity
  8
BORDER
  6
CONTINUOUS
 62
    15
100
AcDbLine
 10
3.7937
 20
18.6713
 30
0.0
 11
29.289
 21
25.8103
 31
0.0
  0
TEXT
  5
5A0
100
AcDbEntity
  8
BORDER
  6
CONTINUOUS
 62
    15
100
AcDbText
 10
6.6291
 20
17.9631
 30
0.0
 40
1.125
  1
2 X 4 BLK'G @ 48" O.C.
  7
ROMAN
100
AcDbText
  0
LINE
  5
5A1
100
AcDbEntity
  8
BORDER
  6
CONTINUOUS
 62
    15
100
AcDbLine
 10
20.9814
 20
47.9077
 30
0.0
 11
24.7978
 21
45.6463
 31
0.0
  0
LINE
  5
5A2
100
AcDbEntity
  8
BORDER
  6
CONTINUOUS
 62
    15
100
AcDbLine
 10
3.7942
 20
18.6718
 30
0.0
 11
18.7273
 21
32.0948
 31
0.0
  0
LINE
  5
5A3
100
AcDbEntity
  8
BORDER
  6
CONTINUOUS
 62
    15
100
AcDbLine
 10
3.7942
 20
18.6718
 30
0.0
 11
20.4646
 21
39.935
 31
0.0
  0
TEXT
  5
5A4
100
AcDbEntity
  8
BORDER
  6
CONTINUOUS
 62
    15
100
AcDbText
 10
7.333799
 20
0.745703
 30
0.0
 40
1.124955
  1
REQUIRED, PER DESIGN)
  7
ROMAN
100
AcDbText
  0
TEXT
  5
5A5
100
AcDbEntity
  8
BORDER
  6
CONTINUOUS
 62
    15
100
AcDbText
 10
9.309057
 20
9.958835
 30
0.0
 40
1.124955
  1
(MIN. #4 @ 30" O.C.
  7
ROMAN
100
AcDbText
  0
TEXT
  5
5A6
100
AcDbEntity
  8
BORDER
  6
CONTINUOUS
 62
    15
100
AcDbText
 10
8.796522
 20
2.74068
 30
0.0
 40
1.124955
  1
(MIN. #4 @ 30" O.C.)
  7
ROMAN
100
AcDbText
  0
TEXT
  5
5A7
100
AcDbEntity
  8
BORDER
  6
CONTINUOUS
 62
    15
100
AcDbText
 10
6.6291
 20
16.0345
 30
0.0
 40
1.125
  1
TYPICAL
  7
ROMAN
100
AcDbText
  0
TEXT
  5
5A8
100
AcDbEntity
  8
BORDER
  6
CONTINUOUS
 62
    15
100
AcDbText
 10
16.065422
 20
4.619713
 30
0.0
 40
1.124955
  1
HORIZ. REINF.
  7
ROMAN
100
AcDbText
  0
TEXT
  5
5A9
100
AcDbEntity
  8
BORDER
  6
CONTINUOUS
 62
    15
100
AcDbText
 10
17.509632
 20
11.815641
 30
0.0
 40
1.124955
  1
VERT. REINF.
  7
ROMAN
100
AcDbText
  0
LINE
  5
5AA
100
AcDbEntity
  8
BORDER
  6
DASHED
 62
    11
100
AcDbLine
 39
96.0
 10
12.0932
 20
40.6867
 30
0.0
 11
17.0429
 21
40.6867
 31
0.0
  0
LINE
  5
5AB
100
AcDbEntity
  8
BORDER
  6
CONTINUOUS
 62
    15
100
AcDbLine
 10
18.978
 20
31.8159
 30
0.0
 11
18.4765
 21
32.3736
 31
0.0
  0
LINE
  5
5AC
100
AcDbEntity
  8
BORDER
  6
CONTINUOUS
 62
    15
100
AcDbLine
 10
19.5639
 20
32.8468
 30
0.0
 11
18.4765
 21
32.3736
 31
0.0
  0
LINE
  5
5AD
100
AcDbEntity
  8
BORDER
  6
CONTINUOUS
 62
    15
100
AcDbLine
 10
19.5639
 20
32.8468
 30
0.0
 11
18.978
 21
31.8159
 31
0.0
  0
LINE
  5
5AE
100
AcDbEntity
  8
BORDER
  6
CONTINUOUS
 62
    15
100
AcDbLine
 10
21.1587
 20
40.8203
 30
0.0
 11
20.1694
 21
40.1664
 31
0.0
  0
LINE
  5
5AF
100
AcDbEntity
  8
BORDER
  6
CONTINUOUS
 62
    15
100
AcDbLine
 10
21.1587
 20
40.8203
 30
0.0
 11
20.7597
 21
39.7036
 31
0.0
  0
LINE
  5
5B0
100
AcDbEntity
  8
BORDER
  6
CONTINUOUS
 62
    15
100
AcDbLine
 10
20.7597
 20
39.7036
 30
0.0
 11
20.1694
 21
40.1664
 31
0.0
  0
LINE
  5
5B1
100
AcDbEntity
  8
BORDER
  6
CONTINUOUS
 62
    15
100
AcDbLine
 10
24.6067
 20
45.3236
 30
0.0
 11
24.989
 21
45.9689
 31
0.0
  0
LINE
  5
5B2
100
AcDbEntity
  8
BORDER
  6
CONTINUOUS
 62
    15
100
AcDbLine
 10
25.7656
 20
45.0728
 30
0.0
 11
24.6067
 21
45.3236
 31
0.0
  0
LINE
  5
5B3
100
AcDbEntity
  8
BORDER
  6
CONTINUOUS
 62
    15
100
AcDbLine
 10
25.7656
 20
45.0728
 30
0.0
 11
24.989
 21
45.9689
 31
0.0
  0
TEXT
  5
5B4
100
AcDbEntity
  8
BORDER
  6
CONTINUOUS
 62
    15
100
AcDbText
 10
5.2116
 20
47.199
 30
0.0
 40
1.125
  1
BOUND. NAILING
  7
ROMAN
100
AcDbText
  0
LINE
  5
5B5
100
AcDbEntity
  8
BORDER
  6
CONTINUOUS
 62
    15
100
AcDbLine
 10
19.0325
 20
47.9077
 30
0.0
 11
20.9814
 21
47.9077
 31
0.0
  0
LINE
  5
5B6
100
AcDbEntity
  8
BORDER
  6
CONTINUOUS
 62
     1
100
AcDbLine
 39
47.9988
 10
39.7495
 20
27.03
 30
0.0
 11
39.7495
 21
26.6862
 31
0.0
  0
LINE
  5
5B7
100
AcDbEntity
  8
BORDER
  6
CONTINUOUS
 62
     1
100
AcDbLine
 39
47.9988
 10
38.9375
 20
27.03
 30
0.0
 11
39.7495
 21
27.03
 31
0.0
  0
LINE
  5
5B8
100
AcDbEntity
  8
BORDER
  6
CONTINUOUS
 62
     1
100
AcDbLine
 39
47.9988
 10
39.0935
 20
27.3759
 30
0.0
 11
39.0935
 21
27.03
 31
0.0
  0
LINE
  5
5B9
100
AcDbEntity
  8
BORDER
  6
CONTINUOUS
 62
     1
100
AcDbLine
 39
47.9988
 10
39.5935
 20
27.3759
 30
0.0
 11
39.0935
 21
27.3759
 31
0.0
  0
LINE
  5
5BA
100
AcDbEntity
  8
BORDER
  6
CONTINUOUS
 62
     1
100
AcDbLine
 39
47.9988
 10
39.5935
 20
27.03
 30
0.0
 11
39.5935
 21
27.3759
 31
0.0
  0
LINE
  5
5BB
100
AcDbEntity
  8
BORDER
  6
CONTINUOUS
 62
     1
100
AcDbLine
 39
47.9988
 10
39.5798
 20
26.9372
 30
0.0
 11
39.6504
 21
27.03
 31
0.0
  0
LINE
  5
5BC
100
AcDbEntity
  8
BORDER
  6
CONTINUOUS
 62
     1
100
AcDbLine
 39
47.9988
 10
39.5798
 20
26.9372
 30
0.0
 11
39.5092
 21
27.03
 31
0.0
  0
LINE
  5
5BD
100
AcDbEntity
  8
BORDER
  6
CONTINUOUS
 62
     1
100
AcDbLine
 39
47.9988
 10
39.1001
 20
26.9372
 30
0.0
 11
39.1704
 21
27.03
 31
0.0
  0
LINE
  5
5BE
100
AcDbEntity
  8
BORDER
  6
CONTINUOUS
 62
     1
100
AcDbLine
 39
47.9988
 10
39.1001
 20
26.9372
 30
0.0
 11
39.0293
 21
27.03
 31
0.0
  0
LINE
  5
5BF
100
AcDbEntity
  8
BORDER
  6
CONTINUOUS
 62
     1
100
AcDbLine
 39
47.9988
 10
39.5798
 20
26.6862
 30
0.0
 11
39.5798
 21
26.9372
 31
0.0
  0
LINE
  5
5C0
100
AcDbEntity
  8
BORDER
  6
CONTINUOUS
 62
     1
100
AcDbLine
 39
47.9988
 10
39.1001
 20
26.6862
 30
0.0
 11
39.1001
 21
26.9372
 31
0.0
  0
LINE
  5
5C1
100
AcDbEntity
  8
BORDER
  6
CONTINUOUS
 62
     1
100
AcDbLine
 39
47.9988
 10
38.9375
 20
26.6862
 30
0.0
 11
38.9375
 21
27.03
 31
0.0
  0
LINE
  5
5C2
100
AcDbEntity
  8
BORDER
  6
CONTINUOUS
 62
    11
100
AcDbLine
 10
49.8747
 20
48.8117
 30
0.0
 11
47.7234
 21
45.8469
 31
0.0
  0
TEXT
  5
5C3
100
AcDbEntity
  8
BORDER
  6
CONTINUOUS
 62
    15
100
AcDbText
 10
51.374378
 20
17.109661
 30
0.0
 40
1.125
  1
2 X 6 PL. WITH ANCHOR BOLTS
  7
ROMAN
100
AcDbText
  0
TEXT
  5
5C4
100
AcDbEntity
  8
BORDER
  6
CONTINUOUS
 62
    15
100
AcDbText
 10
51.374378
 20
15.401142
 30
0.0
 40
1.125
  1
(MIN.-1/2"%%C A.B. @ 45" O.C.)
  7
ROMAN
100
AcDbText
  0
LINE
  5
5C5
100
AcDbEntity
  8
BORDER
  6
CONTINUOUS
 62
    15
100
AcDbLine
 10
53.5839
 20
28.7715
 30
0.0
 11
54.7541
 21
28.5789
 31
0.0
  0
LINE
  5
5C6
100
AcDbEntity
  8
BORDER
  6
CONTINUOUS
 62
    15
100
AcDbLine
 10
53.5839
 20
28.7715
 30
0.0
 11
54.6355
 21
29.3196
 31
0.0
  0
TEXT
  5
5C7
100
AcDbEntity
  8
BORDER
  6
CONTINUOUS
 62
    15
100
AcDbText
 10
50.2172
 20
21.1525
 30
0.0
 40
1.125
  1
WALL/MEMBER ANCHORAGE
  7
ROMAN
100
AcDbText
  0
TEXT
  5
5C8
100
AcDbEntity
  8
BORDER
  6
CONTINUOUS
 62
    15
100
AcDbText
 10
49.8628
 20
10.8756
 30
0.0
 40
1.125
  1
RASTRA WALL
  7
ROMAN
100
AcDbText
  0
LEADER
  5
5C9
100
AcDbEntity
  8
0
  6
CONTINUOUS
100
AcDbLeader
  3
STANDARD
 76
     3
 10
40.082256
 20
24.732164
 30
0.0
 10
49.481778
 20
17.451533
 30
0.0
 10
50.860929
 20
17.451533
 30
0.0
 77
   256
211
-1.0
221
0.0
231
0.0
1001
ACAD
1000
DSTYLE
1002
{
1070
    78
1070
     1
1070
   140
1040
6.0
1070
    73
1070
     0
1070
    77
1070
     1
1070
   173
1070
     1
1070
    42
1040
6.0
1070
    44
1040
0.0
1070
    43
1040
24.0
1070
   141
1040
3.0
1070
     7
1000
_CLOSEDBLANK
1070
     6
1000
_CLOSEDBLANK
1070
    41
1040
1.5
1002
}
  0
LINE
  5
5CA
100
AcDbEntity
  8
BORDER
  6
CONTINUOUS
 62
    15
100
AcDbLine
 10
48.091
 20
11.4072
 30
0.0
 11
44.9951
 21
13.1571
 31
0.0
  0
LINE
  5
5CB
100
AcDbEntity
  8
BORDER
  6
CONTINUOUS
 62
    15
100
AcDbLine
 10
44.0156
 20
13.7106
 30
0.0
 11
44.8105
 21
12.8306
 31
0.0
  0
LINE
  5
5CC
100
AcDbEntity
  8
BORDER
  6
CONTINUOUS
 62
    15
100
AcDbLine
 10
44.0156
 20
13.7106
 30
0.0
 11
45.1797
 21
13.4836
 31
0.0
  0
LINE
  5
5CD
100
AcDbEntity
  8
BORDER
  6
CONTINUOUS
 62
    15
100
AcDbLine
 10
45.1797
 20
13.4836
 30
0.0
 11
44.8105
 21
12.8306
 31
0.0
  0
LINE
  5
5CE
100
AcDbEntity
  8
BORDER
  6
CONTINUOUS
 62
    15
100
AcDbLine
 10
49.5085
 20
11.4072
 30
0.0
 11
48.091
 21
11.4072
 31
0.0
  0
LINE
  5
5CF
100
AcDbEntity
  8
BORDER
  6
CONTINUOUS
 62
    15
100
AcDbLine
 10
40.7378
 20
28.4467
 30
0.0
 11
41.3173
 21
27.4121
 31
0.0
  0
LINE
  5
5D0
100
AcDbEntity
  8
BORDER
  6
CONTINUOUS
 62
    15
100
AcDbLine
 10
40.7378
 20
28.4467
 30
0.0
 11
41.8222
 21
27.9668
 31
0.0
  0
LINE
  5
5D1
100
AcDbEntity
  8
BORDER
  6
CONTINUOUS
 62
    15
100
AcDbLine
 10
29.3901
 20
25.4492
 30
0.0
 11
29.188
 21
26.1714
 31
0.0
  0
LINE
  5
5D2
100
AcDbEntity
  8
BORDER
  6
CONTINUOUS
 62
    15
100
AcDbLine
 10
30.3723
 20
26.1137
 30
0.0
 11
29.188
 21
26.1714
 31
0.0
  0
LINE
  5
5D3
100
AcDbEntity
  8
BORDER
  6
CONTINUOUS
 62
    15
100
AcDbLine
 10
30.3723
 20
26.1137
 30
0.0
 11
29.3901
 21
25.4492
 31
0.0
  0
LINE
  5
5D4
100
AcDbEntity
  8
BORDER
  6
DASHED
 62
    11
100
AcDbLine
 39
96.0
 10
40.8435
 20
29.6867
 30
0.0
 11
37.8435
 21
29.6867
 31
0.0
  0
LINE
  5
5D5
100
AcDbEntity
  8
BORDER
  6
CONTINUOUS
 62
    15
100
AcDbLine
 10
48.2978
 20
21.5659
 30
0.0
 11
41.5698
 21
27.6895
 31
0.0
  0
LINE
  5
5D6
100
AcDbEntity
  8
BORDER
  6
CONTINUOUS
 62
    15
100
AcDbLine
 10
41.8222
 20
27.9668
 30
0.0
 11
41.3173
 21
27.4121
 31
0.0
  0
LINE
  5
5D7
100
AcDbEntity
  8
BORDER
  6
CONTINUOUS
 62
    15
100
AcDbLine
 10
49.6562
 20
21.7431
 30
0.0
 11
48.2978
 21
21.5659
 31
0.0
  0
LINE
  5
5D8
100
AcDbEntity
  8
BORDER
  6
CONTINUOUS
 62
    11
100
AcDbLine
 10
47.4196
 20
46.0676
 30
0.0
 11
48.0271
 21
45.6262
 31
0.0
  0
LINE
  5
5D9
100
AcDbEntity
  8
BORDER
  6
CONTINUOUS
 62
    11
100
AcDbLine
 10
47.0622
 20
44.9367
 30
0.0
 11
48.0271
 21
45.6262
 31
0.0
  0
LINE
  5
5DA
100
AcDbEntity
  8
BORDER
  6
CONTINUOUS
 62
    11
100
AcDbLine
 10
47.0622
 20
44.9367
 30
0.0
 11
47.4196
 21
46.0676
 31
0.0
  0
TEXT
  5
5DB
100
AcDbEntity
  8
BORDER
  6
CONTINUOUS
 62
    15
100
AcDbText
 10
62.9748
 20
32.6696
 30
0.0
 40
1.125
  1
4 - 16d
  7
ROMAN
100
AcDbText
  0
TEXT
  5
5DC
100
AcDbEntity
  8
BORDER
  6
CONTINUOUS
 62
    15
100
AcDbText
 10
59.0766
 20
28.5943
 30
0.0
 40
1.125
  1
FRAMING CLIP
  7
ROMAN
100
AcDbText
  0
LINE
  5
5DD
100
AcDbEntity
  8
BORDER
  6
CONTINUOUS
 62
    15
100
AcDbLine
 10
61.3801
 20
33.2012
 30
0.0
 11
65.9277
 21
40.5716
 31
0.0
  0
LINE
  5
5DE
100
AcDbEntity
  8
BORDER
  6
CONTINUOUS
 62
    15
100
AcDbLine
 10
58.0136
 20
29.4803
 30
0.0
 11
54.6948
 21
28.9492
 31
0.0
  0
LINE
  5
5DF
100
AcDbEntity
  8
BORDER
  6
CONTINUOUS
 62
    15
100
AcDbLine
 10
54.6355
 20
29.3196
 30
0.0
 11
54.7541
 21
28.5789
 31
0.0
  0
LINE
  5
5E0
100
AcDbEntity
  8
BORDER
  6
CONTINUOUS
 62
    15
100
AcDbLine
 10
58.8994
 20
29.4803
 30
0.0
 11
58.0136
 21
29.4803
 31
0.0
  0
TEXT
  5
5E1
100
AcDbEntity
  8
BORDER
  6
CONTINUOUS
 62
    15
100
AcDbText
 10
62.9748
 20
30.7411
 30
0.0
 40
1.125
  1
TYP.
  7
ROMAN
100
AcDbText
  0
LINE
  5
5E2
100
AcDbEntity
  8
BORDER
  6
CONTINUOUS
 62
    15
100
AcDbLine
 10
62.6203
 20
33.2012
 30
0.0
 11
61.3801
 21
33.2012
 31
0.0
  0
LINE
  5
5E3
100
AcDbEntity
  8
BORDER
  6
CONTINUOUS
 62
    15
100
AcDbLine
 10
66.2468
 20
40.3747
 30
0.0
 11
65.6086
 21
40.7685
 31
0.0
  0
LINE
  5
5E4
100
AcDbEntity
  8
BORDER
  6
CONTINUOUS
 62
    15
100
AcDbLine
 10
66.5185
 20
41.529
 30
0.0
 11
66.2468
 21
40.3747
 31
0.0
  0
LINE
  5
5E5
100
AcDbEntity
  8
BORDER
  6
DASHED
 62
    11
100
AcDbLine
 39
96.0
 10
61.9482
 20
40.6867
 30
0.0
 11
66.8979
 21
40.6867
 31
0.0
  0
LINE
  5
5E6
100
AcDbEntity
  8
BORDER
  6
CONTINUOUS
 62
    15
100
AcDbLine
 10
66.5185
 20
41.529
 30
0.0
 11
65.6086
 21
40.7685
 31
0.0
  0
TEXT
  5
5E7
100
AcDbEntity
  8
BORDER
  6
CONTINUOUS
 62
    11
100
AcDbText
 10
50.8435
 20
48.1867
 30
0.0
 40
1.125
  1
SHEATHING
  7
ROMAN
100
AcDbText
  0
LINE
  5
5E8
100
AcDbEntity
  8
BORDER
  6
CONTINUOUS
 62
    11
100
AcDbLine
 10
50.4372
 20
48.8117
 30
0.0
 11
49.8747
 21
48.8117
 31
0.0
  0
ENDBLK
  5
5EA
100
AcDbEntity
  8
0
100
AcDbBlockEnd
  0
ENDSEC
  0
SECTION
  2
ENTITIES
  0
TEXT
  5
301
100
AcDbEntity
  8
DRAWING
100
AcDbText
 10
16.849678
 20
9.83643
 30
0.0
 40
2.5
  1
NON-BEARING WALL TO
  7
TITLE
 72
     1
 11
40.540154
 21
9.83643
 31
0.0
100
AcDbText
  0
TEXT
  5
303
100
AcDbEntity
  8
DRAWING
100
AcDbText
 10
22.563963
 20
4.83643
 30
0.0
 40
2.5
  1
ROOF ANCHORAGE
  7
TITLE
 72
     1
 11
40.540154
 21
4.83643
 31
0.0
100
AcDbText
  0
CIRCLE
  5
5ED
100
AcDbEntity
  8
DIM_TEXT
 62
     7
100
AcDbCircle
 39
96.0
 10
40.370707
 20
29.802899
 30
0.0
 40
0.375
  0
LINE
  5
5EE
100
AcDbEntity
  8
DIM_TEXT
100
AcDbLine
 39
96.0
 10
5.809907
 20
39.01125
 30
0.0
 11
8.305707
 21
38.98235
 31
0.0
  0
LINE
  5
5EF
100
AcDbEntity
  8
DIM_TEXT
 62
     7
100
AcDbLine
 39
96.0
 10
7.548407
 20
65.47185
 30
0.0
 11
7.548407
 21
63.58185
 31
0.0
  0
LINE
  5
5F0
100
AcDbEntity
  8
DIM_TEXT
 62
     7
100
AcDbLine
 39
96.0
 10
11.548407
 20
65.47185
 30
0.0
 11
11.548407
 21
63.58185
 31
0.0
  0
LINE
  5
5F1
100
AcDbEntity
  8
DIM_TEXT
 62
     7
100
AcDbLine
 39
96.0
 10
15.548407
 20
65.47185
 30
0.0
 11
15.548407
 21
63.58185
 31
0.0
  0
LINE
  5
5F2
100
AcDbEntity
  8
DIM_TEXT
 62
     7
100
AcDbLine
 39
96.0
 10
19.548407
 20
65.47185
 30
0.0
 11
19.548407
 21
63.58185
 31
0.0
  0
LINE
  5
5F3
100
AcDbEntity
  8
DIM_TEXT
 62
     7
100
AcDbLine
 39
96.0
 10
23.548407
 20
65.47185
 30
0.0
 11
23.548407
 21
63.58185
 31
0.0
  0
LINE
  5
5F4
100
AcDbEntity
  8
DIM_TEXT
 62
     7
100
AcDbLine
 39
96.0
 10
27.548407
 20
65.47185
 30
0.0
 11
27.548407
 21
63.58185
 31
0.0
  0
LINE
  5
5F5
100
AcDbEntity
  8
DIM_TEXT
 62
     7
100
AcDbLine
 39
96.0
 10
31.548407
 20
65.47185
 30
0.0
 11
31.548407
 21
63.58185
 31
0.0
  0
LINE
  5
5F6
100
AcDbEntity
  8
DIM_TEXT
 62
     7
100
AcDbLine
 39
96.0
 10
35.548407
 20
65.47185
 30
0.0
 11
35.548407
 21
63.58185
 31
0.0
  0
LINE
  5
5F7
100
AcDbEntity
  8
DIM_TEXT
 62
     7
100
AcDbLine
 39
96.0
 10
39.548407
 20
65.47185
 30
0.0
 11
39.548407
 21
63.58185
 31
0.0
  0
LINE
  5
5F8
100
AcDbEntity
  8
DIM_TEXT
 62
     7
100
AcDbLine
 39
96.0
 10
43.548407
 20
65.47185
 30
0.0
 11
43.548407
 21
63.58185
 31
0.0
  0
LINE
  5
5F9
100
AcDbEntity
  8
DIM_TEXT
 62
     7
100
AcDbLine
 39
96.0
 10
47.548407
 20
65.47185
 30
0.0
 11
47.548407
 21
63.58185
 31
0.0
  0
LINE
  5
5FA
100
AcDbEntity
  8
DIM_TEXT
 62
     7
100
AcDbLine
 39
96.0
 10
51.548407
 20
65.47185
 30
0.0
 11
51.548407
 21
63.58185
 31
0.0
  0
LINE
  5
5FB
100
AcDbEntity
  8
DIM_TEXT
 62
     7
100
AcDbLine
 39
96.0
 10
55.548407
 20
65.47185
 30
0.0
 11
55.548407
 21
63.58185
 31
0.0
  0
LINE
  5
5FC
100
AcDbEntity
  8
DIM_TEXT
 62
     7
100
AcDbLine
 39
96.0
 10
59.548407
 20
65.47185
 30
0.0
 11
59.548407
 21
63.58185
 31
0.0
  0
LINE
  5
5FD
100
AcDbEntity
  8
DIM_TEXT
 62
     7
100
AcDbLine
 39
96.0
 10
63.548407
 20
65.47185
 30
0.0
 11
63.548407
 21
63.58185
 31
0.0
  0
LINE
  5
5FE
100
AcDbEntity
  8
DIM_TEXT
 62
     7
100
AcDbLine
 39
96.0
 10
67.548407
 20
65.47185
 30
0.0
 11
67.548407
 21
63.58185
 31
0.0
  0
LINE
  5
5FF
100
AcDbEntity
  8
DIM_TEXT
 62
     7
100
AcDbLine
 39
96.0
 10
71.548407
 20
65.47185
 30
0.0
 11
71.548407
 21
63.58185
 31
0.0
  0
LINE
  5
600
100
AcDbEntity
  8
DIM_TEXT
 62
     7
100
AcDbLine
 39
96.0
 10
75.548407
 20
65.47185
 30
0.0
 11
75.548407
 21
63.58185
 31
0.0
  0
LINE
  5
601
100
AcDbEntity
  8
DIM_TEXT
 62
     7
100
AcDbLine
 39
96.0
 10
68.678807
 20
62.10515
 30
0.0
 11
68.560607
 21
62.22335
 31
0.0
  0
LINE
  5
602
100
AcDbEntity
  8
DIM_TEXT
 62
     7
100
AcDbLine
 39
96.0
 10
66.906807
 20
62.16415
 30
0.0
 11
66.788607
 21
62.28235
 31
0.0
  0
LINE
  5
603
100
AcDbEntity
  8
DIM_TEXT
 62
     7
100
AcDbLine
 39
96.0
 10
67.970007
 20
63.58175
 30
0.0
 11
67.851907
 21
63.69995
 31
0.0
  0
LINE
  5
604
100
AcDbEntity
  8
DIM_TEXT
 62
     7
100
AcDbLine
 39
96.0
 10
70.096207
 20
63.58175
 30
0.0
 11
69.978107
 21
63.69995
 31
0.0
  0
LINE
  5
605
100
AcDbEntity
  8
DIM_TEXT
 62
     7
100
AcDbLine
 39
96.0
 10
54.555207
 20
47.98925
 30
0.0
 11
53.462507
 21
47.98925
 31
0.0
  0
LINE
  5
606
100
AcDbEntity
  8
DIM_TEXT
 62
     7
100
AcDbLine
 39
96.0
 10
54.555207
 20
48.74235
 30
0.0
 11
53.462507
 21
48.74235
 31
0.0
  0
LINE
  5
607
100
AcDbEntity
  8
DIM_TEXT
 62
     7
100
AcDbLine
 39
96.0
 10
54.555207
 20
49.84975
 30
0.0
 11
53.462507
 21
49.84975
 31
0.0
  0
LINE
  5
608
100
AcDbEntity
  8
DIM_TEXT
 62
     7
100
AcDbLine
 39
96.0
 10
55.054307
 20
50.31415
 30
0.0
 11
54.410707
 21
50.31415
 31
0.0
  0
LINE
  5
609
100
AcDbEntity
  8
DIM_TEXT
 62
     7
100
AcDbLine
 39
96.0
 10
54.410707
 20
50.31415
 30
0.0
 11
54.410707
 21
47.78285
 31
0.0
  0
CIRCLE
  5
60A
100
AcDbEntity
  8
DIM_TEXT
 62
     7
100
AcDbCircle
 39
96.0
 10
54.802307
 20
50.20085
 30
0.0
 40
0.033146
  0
CIRCLE
  5
60B
100
AcDbEntity
  8
DIM_TEXT
 62
     7
100
AcDbCircle
 39
96.0
 10
55.364807
 20
49.02895
 30
0.0
 40
0.033146
  0
CIRCLE
  5
60C
100
AcDbEntity
  8
DIM_TEXT
 62
     7
100
AcDbCircle
 39
96.0
 10
54.755407
 20
48.01335
 30
0.0
 40
0.033146
  0
LINE
  5
60D
100
AcDbEntity
  8
DIM_TEXT
 62
     7
100
AcDbLine
 39
96.0
 10
54.473207
 20
50.31415
 30
0.0
 11
54.473207
 21
47.78285
 31
0.0
  0
LINE
  5
60E
100
AcDbEntity
  8
DIM_TEXT
 62
     7
100
AcDbLine
 39
96.0
 10
55.054307
 20
49.84535
 30
0.0
 11
55.054307
 21
50.31415
 31
0.0
  0
LINE
  5
60F
100
AcDbEntity
  8
DIM_TEXT
 62
     7
100
AcDbLine
 39
96.0
 10
55.640207
 20
49.25945
 30
0.0
 11
55.054307
 21
49.84535
 31
0.0
  0
LINE
  5
610
100
AcDbEntity
  8
DIM_TEXT
 62
     7
100
AcDbLine
 39
96.0
 10
55.640207
 20
48.83755
 30
0.0
 11
55.640207
 21
49.25945
 31
0.0
  0
LINE
  5
611
100
AcDbEntity
  8
DIM_TEXT
 62
     7
100
AcDbLine
 39
96.0
 10
55.015207
 20
48.21255
 30
0.0
 11
55.640207
 21
48.83755
 31
0.0
  0
LINE
  5
612
100
AcDbEntity
  8
DIM_TEXT
 62
     7
100
AcDbLine
 39
96.0
 10
55.015207
 20
47.78285
 30
0.0
 11
55.015207
 21
48.21255
 31
0.0
  0
LINE
  5
613
100
AcDbEntity
  8
DIM_TEXT
 62
     7
100
AcDbLine
 39
96.0
 10
55.015207
 20
47.78285
 30
0.0
 11
54.410707
 21
47.78285
 31
0.0
  0
LINE
  5
614
100
AcDbEntity
  8
DIM_TEXT
 62
     7
100
AcDbLine
 39
96.0
 10
54.413907
 20
46.52655
 30
0.0
 11
72.413907
 21
64.52655
 31
0.0
  0
LINE
  5
615
100
AcDbEntity
  8
DIM_TEXT
 62
     7
100
AcDbLine
 39
96.0
 10
54.413907
 20
51.47625
 30
0.0
 11
67.464207
 21
64.52655
 31
0.0
  0
LINE
  5
616
100
AcDbEntity
  8
DIM_TEXT
 62
     7
100
AcDbLine
 39
96.0
 10
16.116807
 20
62.16415
 30
0.0
 11
16.234907
 21
62.28235
 31
0.0
  0
LINE
  5
617
100
AcDbEntity
  8
DIM_TEXT
 62
     7
100
AcDbLine
 39
96.0
 10
14.344807
 20
62.10515
 30
0.0
 11
14.463007
 21
62.22335
 31
0.0
  0
LINE
  5
618
100
AcDbEntity
  8
DIM_TEXT
 62
     7
100
AcDbLine
 39
96.0
 10
15.053507
 20
63.58175
 30
0.0
 11
15.171707
 21
63.69995
 31
0.0
  0
LINE
  5
619
100
AcDbEntity
  8
DIM_TEXT
 62
     7
100
AcDbLine
 39
96.0
 10
12.927307
 20
63.58175
 30
0.0
 11
13.045507
 21
63.69995
 31
0.0
  0
LINE
  5
61A
100
AcDbEntity
  8
DIM_TEXT
 62
     7
100
AcDbLine
 39
96.0
 10
28.468307
 20
47.98925
 30
0.0
 11
29.561107
 21
47.98925
 31
0.0
  0
LINE
  5
61B
100
AcDbEntity
  8
DIM_TEXT
 62
     7
100
AcDbLine
 39
96.0
 10
28.468307
 20
48.74235
 30
0.0
 11
29.561107
 21
48.74235
 31
0.0
  0
LINE
  5
61C
100
AcDbEntity
  8
DIM_TEXT
 62
     7
100
AcDbLine
 39
96.0
 10
28.468307
 20
49.84975
 30
0.0
 11
29.561107
 21
49.84975
 31
0.0
  0
LINE
  5
61D
100
AcDbEntity
  8
DIM_TEXT
 62
     7
100
AcDbLine
 39
96.0
 10
27.969307
 20
50.31415
 30
0.0
 11
28.612807
 21
50.31415
 31
0.0
  0
LINE
  5
61E
100
AcDbEntity
  8
BORDER
  6
CONTINUOUS
 62
    13
100
AcDbLine
 39
96.0
 10
28.612807
 20
50.31415
 30
0.0
 11
28.612807
 21
47.78285
 31
0.0
  0
CIRCLE
  5
61F
100
AcDbEntity
  8
DIM_TEXT
 62
     7
100
AcDbCircle
 39
96.0
 10
28.221207
 20
50.20085
 30
0.0
 40
0.033146
  0
CIRCLE
  5
620
100
AcDbEntity
  8
DIM_TEXT
 62
     7
100
AcDbCircle
 39
96.0
 10
27.658707
 20
49.02895
 30
0.0
 40
0.033146
  0
CIRCLE
  5
621
100
AcDbEntity
  8
DIM_TEXT
 62
     7
100
AcDbCircle
 39
96.0
 10
28.268107
 20
48.01335
 30
0.0
 40
0.033146
  0
LINE
  5
622
100
AcDbEntity
  8
DIM_TEXT
 62
     7
100
AcDbLine
 39
96.0
 10
28.550307
 20
50.31415
 30
0.0
 11
28.550307
 21
47.78285
 31
0.0
  0
LINE
  5
623
100
AcDbEntity
  8
DIM_TEXT
 62
     7
100
AcDbLine
 39
96.0
 10
27.969307
 20
49.84535
 30
0.0
 11
27.969307
 21
50.31415
 31
0.0
  0
LINE
  5
624
100
AcDbEntity
  8
DIM_TEXT
 62
     7
100
AcDbLine
 39
96.0
 10
27.383407
 20
49.25945
 30
0.0
 11
27.969307
 21
49.84535
 31
0.0
  0
LINE
  5
625
100
AcDbEntity
  8
DIM_TEXT
 62
     7
100
AcDbLine
 39
96.0
 10
27.383407
 20
48.83755
 30
0.0
 11
27.383407
 21
49.25945
 31
0.0
  0
LINE
  5
626
100
AcDbEntity
  8
DIM_TEXT
 62
     7
100
AcDbLine
 39
96.0
 10
28.008407
 20
48.21255
 30
0.0
 11
27.383407
 21
48.83755
 31
0.0
  0
LINE
  5
627
100
AcDbEntity
  8
DIM_TEXT
 62
     7
100
AcDbLine
 39
96.0
 10
28.008407
 20
47.78285
 30
0.0
 11
28.008407
 21
48.21255
 31
0.0
  0
LINE
  5
628
100
AcDbEntity
  8
DIM_TEXT
 62
     7
100
AcDbLine
 39
96.0
 10
28.008407
 20
47.78285
 30
0.0
 11
28.612807
 21
47.78285
 31
0.0
  0
LINE
  5
629
100
AcDbEntity
  8
DIM_TEXT
 62
     7
100
AcDbLine
 39
96.0
 10
28.609707
 20
51.47625
 30
0.0
 11
15.559407
 21
64.52655
 31
0.0
  0
LINE
  5
62A
100
AcDbEntity
  8
DIM_TEXT
 62
     7
100
AcDbLine
 39
96.0
 10
77.456307
 20
64.24545
 30
0.0
 11
78.706307
 21
65.49545
 31
0.0
  0
LINE
  5
62B
100
AcDbEntity
  8
BORDER
  6
CONTINUOUS
 62
     3
100
AcDbLine
 39
96.0
 10
77.349907
 20
64.51695
 30
0.0
 11
78.101907
 21
65.26885
 31
0.0
  0
LINE
  5
62C
100
AcDbEntity
  8
BORDER
  6
CONTINUOUS
 62
     3
100
AcDbLine
 39
96.0
 10
75.361607
 20
64.51785
 30
0.0
 11
76.113607
 21
65.26985
 31
0.0
  0
LINE
  5
62D
100
AcDbEntity
  8
BORDER
  6
CONTINUOUS
 62
     3
100
AcDbLine
 39
96.0
 10
73.373307
 20
64.51885
 30
0.0
 11
74.125307
 21
65.27085
 31
0.0
  0
LINE
  5
62E
100
AcDbEntity
  8
BORDER
  6
CONTINUOUS
 62
     3
100
AcDbLine
 39
96.0
 10
71.385107
 20
64.51985
 30
0.0
 11
72.137007
 21
65.27185
 31
0.0
  0
LINE
  5
62F
100
AcDbEntity
  8
BORDER
  6
CONTINUOUS
 62
     3
100
AcDbLine
 39
96.0
 10
69.396807
 20
64.52085
 30
0.0
 11
70.148707
 21
65.27275
 31
0.0
  0
LINE
  5
630
100
AcDbEntity
  8
BORDER
  6
CONTINUOUS
 62
     3
100
AcDbLine
 39
96.0
 10
67.408507
 20
64.52185
 30
0.0
 11
68.160507
 21
65.27375
 31
0.0
  0
LINE
  5
631
100
AcDbEntity
  8
BORDER
  6
CONTINUOUS
 62
     3
100
AcDbLine
 39
96.0
 10
65.420207
 20
64.52275
 30
0.0
 11
66.172207
 21
65.27475
 31
0.0
  0
LINE
  5
632
100
AcDbEntity
  8
BORDER
  6
CONTINUOUS
 62
     3
100
AcDbLine
 39
96.0
 10
63.431907
 20
64.52375
 30
0.0
 11
64.183907
 21
65.27575
 31
0.0
  0
LINE
  5
633
100
AcDbEntity
  8
BORDER
  6
CONTINUOUS
 62
     3
100
AcDbLine
 39
96.0
 10
3.777907
 20
64.52135
 30
0.0
 11
4.529907
 21
65.27325
 31
0.0
  0
LINE
  5
634
100
AcDbEntity
  8
BORDER
  6
CONTINUOUS
 62
     3
100
AcDbLine
 39
96.0
 10
5.766907
 20
64.52185
 30
0.0
 11
6.518907
 21
65.27375
 31
0.0
  0
LINE
  5
635
100
AcDbEntity
  8
BORDER
  6
CONTINUOUS
 62
     3
100
AcDbLine
 39
96.0
 10
7.755907
 20
64.52225
 30
0.0
 11
8.507907
 21
65.27425
 31
0.0
  0
LINE
  5
636
100
AcDbEntity
  8
BORDER
  6
CONTINUOUS
 62
     3
100
AcDbLine
 39
96.0
 10
9.744907
 20
64.52275
 30
0.0
 11
10.496907
 21
65.27475
 31
0.0
  0
LINE
  5
637
100
AcDbEntity
  8
BORDER
  6
CONTINUOUS
 62
     3
100
AcDbLine
 39
96.0
 10
11.734007
 20
64.52325
 30
0.0
 11
12.485907
 21
65.27525
 31
0.0
  0
LINE
  5
638
100
AcDbEntity
  8
BORDER
  6
CONTINUOUS
 62
     3
100
AcDbLine
 39
96.0
 10
13.723007
 20
64.52375
 30
0.0
 11
14.474907
 21
65.27575
 31
0.0
  0
LINE
  5
639
100
AcDbEntity
  8
BORDER
  6
CONTINUOUS
 62
     3
100
AcDbLine
 39
96.0
 10
15.712007
 20
64.52425
 30
0.0
 11
16.463907
 21
65.27615
 31
0.0
  0
LINE
  5
63A
100
AcDbEntity
  8
BORDER
  6
CONTINUOUS
 62
     3
100
AcDbLine
 39
96.0
 10
17.701007
 20
64.52475
 30
0.0
 11
18.452907
 21
65.27665
 31
0.0
  0
LINE
  5
63B
100
AcDbEntity
  8
BORDER
  6
CONTINUOUS
 62
     3
100
AcDbLine
 39
96.0
 10
19.690007
 20
64.52525
 30
0.0
 11
20.442007
 21
65.27715
 31
0.0
  0
LINE
  5
63C
100
AcDbEntity
  8
DIM_TEXT
 62
     7
100
AcDbLine
 39
96.0
 10
28.609707
 20
46.52655
 30
0.0
 11
10.609707
 21
64.52655
 31
0.0
  0
LINE
  5
63D
100
AcDbEntity
  8
BORDER
  6
CONTINUOUS
 62
     3
100
AcDbLine
 39
96.0
 10
76.109707
 20
50.02665
 30
0.0
 11
74.609707
 21
46.52665
 31
0.0
  0
LINE
  5
63E
100
AcDbEntity
  8
BORDER
  6
CONTINUOUS
 62
     3
100
AcDbLine
 39
96.0
 10
74.609707
 20
50.02665
 30
0.0
 11
76.109707
 21
46.52665
 31
0.0
  0
LINE
  5
63F
100
AcDbEntity
  8
BORDER
  6
CONTINUOUS
 62
     3
100
AcDbLine
 39
96.0
 10
76.109707
 20
64.52665
 30
0.0
 11
74.609707
 21
61.02665
 31
0.0
  0
LINE
  5
640
100
AcDbEntity
  8
BORDER
  6
CONTINUOUS
 62
     3
100
AcDbLine
 39
96.0
 10
76.109707
 20
61.02665
 30
0.0
 11
74.609707
 21
64.52575
 31
0.0
  0
LINE
  5
641
100
AcDbEntity
  8
DIM_TEXT
 62
     7
100
AcDbLine
 39
96.0
 10
74.609707
 20
50.02665
 30
0.0
 11
76.109707
 21
50.02665
 31
0.0
  0
LINE
  5
642
100
AcDbEntity
  8
DIM_TEXT
 62
     7
100
AcDbLine
 39
96.0
 10
74.609707
 20
46.52665
 30
0.0
 11
76.109707
 21
46.52665
 31
0.0
  0
LINE
  5
643
100
AcDbEntity
  8
DIM_TEXT
 62
     7
100
AcDbLine
 39
96.0
 10
76.109707
 20
64.52665
 30
0.0
 11
76.109707
 21
46.52665
 31
0.0
  0
LINE
  5
644
100
AcDbEntity
  8
DIM_TEXT
 62
     7
100
AcDbLine
 39
96.0
 10
74.609707
 20
64.52665
 30
0.0
 11
74.609707
 21
46.52665
 31
0.0
  0
LINE
  5
645
100
AcDbEntity
  8
BORDER
  6
CONTINUOUS
 62
     3
100
AcDbLine
 39
96.0
 10
8.109707
 20
50.02665
 30
0.0
 11
6.609707
 21
46.52665
 31
0.0
  0
LINE
  5
646
100
AcDbEntity
  8
BORDER
  6
CONTINUOUS
 62
     3
100
AcDbLine
 39
96.0
 10
6.609707
 20
50.02665
 30
0.0
 11
8.109707
 21
46.52665
 31
0.0
  0
LINE
  5
647
100
AcDbEntity
  8
BORDER
  6
CONTINUOUS
 62
     3
100
AcDbLine
 39
96.0
 10
8.109707
 20
64.52665
 30
0.0
 11
6.609707
 21
61.02665
 31
0.0
  0
LINE
  5
648
100
AcDbEntity
  8
BORDER
  6
CONTINUOUS
 62
     3
100
AcDbLine
 39
96.0
 10
8.109707
 20
61.02665
 30
0.0
 11
6.609707
 21
64.52575
 31
0.0
  0
LINE
  5
649
100
AcDbEntity
  8
DIM_TEXT
 62
     7
100
AcDbLine
 39
96.0
 10
68.914107
 20
61.02665
 30
0.0
 11
76.109707
 21
61.02665
 31
0.0
  0
LINE
  5
64A
100
AcDbEntity
  8
DIM_TEXT
 62
     7
100
AcDbLine
 39
96.0
 10
19.059107
 20
61.02665
 30
0.0
 11
63.964407
 21
61.02665
 31
0.0
  0
LINE
  5
64B
100
AcDbEntity
  8
DIM_TEXT
 62
     7
100
AcDbLine
 39
96.0
 10
6.609707
 20
61.02665
 30
0.0
 11
14.109407
 21
61.02665
 31
0.0
  0
LINE
  5
64C
100
AcDbEntity
  8
DIM_TEXT
 62
     7
100
AcDbLine
 39
96.0
 10
6.609707
 20
50.02665
 30
0.0
 11
8.109707
 21
50.02665
 31
0.0
  0
LINE
  5
64D
100
AcDbEntity
  8
DIM_TEXT
 62
     7
100
AcDbLine
 39
96.0
 10
6.609707
 20
46.52665
 30
0.0
 11
8.109707
 21
46.52665
 31
0.0
  0
LINE
  5
64E
100
AcDbEntity
  8
DIM_TEXT
 62
     7
100
AcDbLine
 39
96.0
 10
8.109707
 20
64.52665
 30
0.0
 11
8.109707
 21
46.52665
 31
0.0
  0
LINE
  5
64F
100
AcDbEntity
  8
DIM_TEXT
 62
     7
100
AcDbLine
 39
96.0
 10
6.609707
 20
64.52665
 30
0.0
 11
6.609707
 21
46.52665
 31
0.0
  0
LINE
  5
650
100
AcDbEntity
  8
DIM_TEXT
 62
     7
100
AcDbLine
 39
63.9984
 10
41.609707
 20
47.02615
 30
0.0
 11
41.609707
 21
39.15295
 31
0.0
  0
LINE
  5
651
100
AcDbEntity
  8
DIM_TEXT
 62
     7
100
AcDbLine
 39
63.9984
 10
41.109707
 20
47.02615
 30
0.0
 11
41.109707
 21
38.90295
 31
0.0
  0
LINE
  5
652
100
AcDbEntity
  8
DIM_TEXT
 62
     7
100
AcDbLine
 39
63.9984
 10
41.609707
 20
38.40295
 30
0.0
 11
42.455107
 21
38.40295
 31
0.0
  0
LINE
  5
653
100
AcDbEntity
  8
DIM_TEXT
 62
     7
100
AcDbLine
 39
63.9984
 10
42.455107
 20
38.90295
 30
0.0
 11
42.455107
 21
38.40295
 31
0.0
  0
LINE
  5
654
100
AcDbEntity
  8
DIM_TEXT
 62
     7
100
AcDbLine
 39
63.9984
 10
41.859707
 20
38.90295
 30
0.0
 11
42.455107
 21
38.90295
 31
0.0
  0
ARC
  5
655
100
AcDbEntity
  8
DIM_TEXT
 62
     7
100
AcDbCircle
 39
63.9984
 10
41.859707
 20
39.15295
 30
0.0
 40
0.249994
100
AcDbArc
 50
180.0
 51
270.0
  0
ARC
  5
656
100
AcDbEntity
  8
DIM_TEXT
 62
     7
100
AcDbCircle
 39
63.9984
 10
41.609707
 20
38.90295
 30
0.0
 40
0.499988
100
AcDbArc
 50
180.0
 51
270.0
  0
LINE
  5
657
100
AcDbEntity
  8
DIM_TEXT
 62
     7
100
AcDbLine
 39
96.0
 10
42.859707
 20
47.02615
 30
0.0
 11
39.859707
 21
47.02615
 31
0.0
  0
LINE
  5
658
100
AcDbEntity
  8
DIM_TEXT
 62
     7
100
AcDbLine
 39
96.0
 10
42.859707
 20
51.52615
 30
0.0
 11
42.859707
 21
46.52615
 31
0.0
  0
LINE
  5
659
100
AcDbEntity
  8
DIM_TEXT
 62
     7
100
AcDbLine
 39
96.0
 10
39.859707
 20
51.52615
 30
0.0
 11
42.859707
 21
51.52615
 31
0.0
  0
LINE
  5
65A
100
AcDbEntity
  8
DIM_TEXT
 62
     7
100
AcDbLine
 39
96.0
 10
39.859707
 20
46.52615
 30
0.0
 11
39.859707
 21
51.52615
 31
0.0
  0
LINE
  5
65B
100
AcDbEntity
  8
BORDER
  6
CONTINUOUS
 62
     3
100
AcDbLine
 39
96.0
 10
2.766707
 20
64.90165
 30
0.0
 11
78.111607
 21
64.90075
 31
0.0
  0
LINE
  5
65C
100
AcDbEntity
  8
BORDER
  6
CONTINUOUS
 62
     3
100
AcDbLine
 39
96.0
 10
61.443707
 20
64.52475
 30
0.0
 11
62.195607
 21
65.27665
 31
0.0
  0
LINE
  5
65D
100
AcDbEntity
  8
BORDER
  6
CONTINUOUS
 62
     3
100
AcDbLine
 39
96.0
 10
59.455407
 20
64.52475
 30
0.0
 11
60.207307
 21
65.27665
 31
0.0
  0
LINE
  5
65E
100
AcDbEntity
  8
BORDER
  6
CONTINUOUS
 62
     3
100
AcDbLine
 39
96.0
 10
57.467107
 20
64.52575
 30
0.0
 11
58.219007
 21
65.27665
 31
0.0
  0
LINE
  5
65F
100
AcDbEntity
  8
BORDER
  6
CONTINUOUS
 62
     3
100
AcDbLine
 39
96.0
 10
55.478807
 20
64.52575
 30
0.0
 11
56.230807
 21
65.27665
 31
0.0
  0
LINE
  5
660
100
AcDbEntity
  8
BORDER
  6
CONTINUOUS
 62
     3
100
AcDbLine
 39
96.0
 10
53.491507
 20
64.52575
 30
0.0
 11
54.242507
 21
65.27665
 31
0.0
  0
LINE
  5
661
100
AcDbEntity
  8
BORDER
  6
CONTINUOUS
 62
     3
100
AcDbLine
 39
96.0
 10
51.503207
 20
64.52575
 30
0.0
 11
52.254207
 21
65.27665
 31
0.0
  0
LINE
  5
662
100
AcDbEntity
  8
BORDER
  6
CONTINUOUS
 62
     3
100
AcDbLine
 39
96.0
 10
49.514907
 20
64.52575
 30
0.0
 11
50.265907
 21
65.27665
 31
0.0
  0
LINE
  5
663
100
AcDbEntity
  8
BORDER
  6
CONTINUOUS
 62
     3
100
AcDbLine
 39
96.0
 10
47.526707
 20
64.52575
 30
0.0
 11
48.277607
 21
65.27665
 31
0.0
  0
LINE
  5
664
100
AcDbEntity
  8
BORDER
  6
CONTINUOUS
 62
     3
100
AcDbLine
 39
96.0
 10
45.538407
 20
64.52575
 30
0.0
 11
46.289407
 21
65.27665
 31
0.0
  0
LINE
  5
665
100
AcDbEntity
  8
BORDER
  6
CONTINUOUS
 62
     3
100
AcDbLine
 39
96.0
 10
43.550107
 20
64.52575
 30
0.0
 11
44.301107
 21
65.27665
 31
0.0
  0
LINE
  5
666
100
AcDbEntity
  8
BORDER
  6
CONTINUOUS
 62
     3
100
AcDbLine
 39
96.0
 10
41.561807
 20
64.52575
 30
0.0
 11
42.313807
 21
65.27765
 31
0.0
  0
LINE
  5
667
100
AcDbEntity
  8
BORDER
  6
CONTINUOUS
 62
     3
100
AcDbLine
 39
96.0
 10
39.573507
 20
64.52575
 30
0.0
 11
40.325507
 21
65.27765
 31
0.0
  0
LINE
  5
668
100
AcDbEntity
  8
BORDER
  6
CONTINUOUS
 62
     3
100
AcDbLine
 39
96.0
 10
37.585307
 20
64.52575
 30
0.0
 11
38.337207
 21
65.27765
 31
0.0
  0
LINE
  5
669
100
AcDbEntity
  8
BORDER
  6
CONTINUOUS
 62
     3
100
AcDbLine
 39
96.0
 10
35.597007
 20
64.52575
 30
0.0
 11
36.348907
 21
65.27765
 31
0.0
  0
LINE
  5
66A
100
AcDbEntity
  8
BORDER
  6
CONTINUOUS
 62
     3
100
AcDbLine
 39
96.0
 10
33.608707
 20
64.52575
 30
0.0
 11
34.360607
 21
65.27765
 31
0.0
  0
LINE
  5
66B
100
AcDbEntity
  8
BORDER
  6
CONTINUOUS
 62
     3
100
AcDbLine
 39
96.0
 10
31.620407
 20
64.52575
 30
0.0
 11
32.372407
 21
65.27765
 31
0.0
  0
LINE
  5
66C
100
AcDbEntity
  8
BORDER
  6
CONTINUOUS
 62
     3
100
AcDbLine
 39
96.0
 10
29.632107
 20
64.52575
 30
0.0
 11
30.384107
 21
65.27765
 31
0.0
  0
LINE
  5
66D
100
AcDbEntity
  8
BORDER
  6
CONTINUOUS
 62
     3
100
AcDbLine
 39
96.0
 10
27.643807
 20
64.52575
 30
0.0
 11
28.395807
 21
65.27765
 31
0.0
  0
LINE
  5
66E
100
AcDbEntity
  8
BORDER
  6
CONTINUOUS
 62
     3
100
AcDbLine
 39
96.0
 10
25.655607
 20
64.52575
 30
0.0
 11
26.407507
 21
65.27765
 31
0.0
  0
LINE
  5
66F
100
AcDbEntity
  8
BORDER
  6
CONTINUOUS
 62
     3
100
AcDbLine
 39
96.0
 10
23.667307
 20
64.52575
 30
0.0
 11
24.419307
 21
65.27765
 31
0.0
  0
LINE
  5
670
100
AcDbEntity
  8
BORDER
  6
CONTINUOUS
 62
     3
100
AcDbLine
 39
96.0
 10
21.679007
 20
64.52575
 30
0.0
 11
22.431007
 21
65.27765
 31
0.0
  0
LINE
  5
671
100
AcDbEntity
  8
BORDER
  6
CONTINUOUS
 62
    11
100
AcDbLine
 39
96.0
 10
3.142207
 20
65.27765
 30
0.0
 11
2.391207
 21
64.52665
 31
0.0
  0
LINE
  5
672
100
AcDbEntity
  8
DIM_TEXT
 62
     7
100
AcDbLine
 39
96.0
 10
2.016207
 20
64.15165
 30
0.0
 11
3.453707
 21
65.58915
 31
0.0
  0
LINE
  5
673
100
AcDbEntity
  8
DIM_TEXT
 62
     7
100
AcDbLine
 39
96.0
 10
54.500307
 20
47.15165
 30
0.0
 11
51.406507
 21
47.15165
 31
0.0
  0
LINE
  5
674
100
AcDbEntity
  8
DIM_TEXT
 62
     7
100
AcDbLine
 39
96.0
 10
54.500307
 20
49.12045
 30
0.0
 11
51.312807
 21
49.12045
 31
0.0
  0
LINE
  5
675
100
AcDbEntity
  8
DIM_TEXT
 62
     7
100
AcDbLine
 39
96.0
 10
28.219007
 20
47.15165
 30
0.0
 11
31.312807
 21
47.15165
 31
0.0
  0
LINE
  5
676
100
AcDbEntity
  8
DIM_TEXT
 62
     7
100
AcDbLine
 39
96.0
 10
28.219007
 20
49.12045
 30
0.0
 11
31.406507
 21
49.12045
 31
0.0
  0
LINE
  5
677
100
AcDbEntity
  8
DIM_TEXT
 62
     7
100
AcDbLine
 39
96.0
 10
39.859707
 20
50.02665
 30
0.0
 11
30.109707
 21
50.02665
 31
0.0
  0
LINE
  5
678
100
AcDbEntity
  8
DIM_TEXT
 62
     7
100
AcDbLine
 39
96.0
 10
52.609707
 20
50.02665
 30
0.0
 11
42.859707
 21
50.02665
 31
0.0
  0
LINE
  5
679
100
AcDbEntity
  8
DIM_TEXT
 62
     7
100
AcDbLine
 39
96.0
 10
30.109707
 20
46.52665
 30
0.0
 11
52.609707
 21
46.52575
 31
0.0
  0
LINE
  5
67A
100
AcDbEntity
  8
BORDER
  6
CONTINUOUS
 62
     3
100
AcDbLine
 39
96.0
 10
54.109707
 20
50.02665
 30
0.0
 11
52.609707
 21
46.52665
 31
0.0
  0
LINE
  5
67B
100
AcDbEntity
  8
BORDER
  6
CONTINUOUS
 62
     3
100
AcDbLine
 39
96.0
 10
52.609707
 20
50.02665
 30
0.0
 11
54.109707
 21
46.52665
 31
0.0
  0
LINE
  5
67C
100
AcDbEntity
  8
BORDER
  6
CONTINUOUS
 62
     3
100
AcDbLine
 39
96.0
 10
54.109707
 20
64.52665
 30
0.0
 11
52.609707
 21
61.02665
 31
0.0
  0
LINE
  5
67D
100
AcDbEntity
  8
BORDER
  6
CONTINUOUS
 62
     3
100
AcDbLine
 39
96.0
 10
54.109707
 20
61.02665
 30
0.0
 11
52.609707
 21
64.52575
 31
0.0
  0
LINE
  5
67E
100
AcDbEntity
  8
DIM_TEXT
 62
     7
100
AcDbLine
 39
96.0
 10
52.609707
 20
50.02665
 30
0.0
 11
54.109707
 21
50.02665
 31
0.0
  0
LINE
  5
67F
100
AcDbEntity
  8
DIM_TEXT
 62
     7
100
AcDbLine
 39
96.0
 10
52.609707
 20
46.52665
 30
0.0
 11
54.109707
 21
46.52665
 31
0.0
  0
LINE
  5
680
100
AcDbEntity
  8
DIM_TEXT
 62
     7
100
AcDbLine
 39
96.0
 10
54.109707
 20
64.52665
 30
0.0
 11
54.109707
 21
46.52665
 31
0.0
  0
LINE
  5
681
100
AcDbEntity
  8
DIM_TEXT
 62
     7
100
AcDbLine
 39
96.0
 10
52.609707
 20
64.52665
 30
0.0
 11
52.609707
 21
46.52665
 31
0.0
  0
LINE
  5
682
100
AcDbEntity
  8
BORDER
  6
CONTINUOUS
 62
     3
100
AcDbLine
 39
96.0
 10
30.109707
 20
50.02665
 30
0.0
 11
28.609707
 21
46.52665
 31
0.0
  0
LINE
  5
683
100
AcDbEntity
  8
BORDER
  6
CONTINUOUS
 62
     3
100
AcDbLine
 39
96.0
 10
28.609707
 20
50.02665
 30
0.0
 11
30.109707
 21
46.52665
 31
0.0
  0
LINE
  5
684
100
AcDbEntity
  8
BORDER
  6
CONTINUOUS
 62
     3
100
AcDbLine
 39
96.0
 10
30.109707
 20
64.52665
 30
0.0
 11
28.609707
 21
61.02665
 31
0.0
  0
LINE
  5
685
100
AcDbEntity
  8
BORDER
  6
CONTINUOUS
 62
     3
100
AcDbLine
 39
96.0
 10
30.109707
 20
61.02665
 30
0.0
 11
28.609707
 21
64.52575
 31
0.0
  0
LINE
  5
686
100
AcDbEntity
  8
DIM_TEXT
 62
     7
100
AcDbLine
 39
96.0
 10
28.609707
 20
50.02665
 30
0.0
 11
30.109707
 21
50.02665
 31
0.0
  0
LINE
  5
687
100
AcDbEntity
  8
DIM_TEXT
 62
     7
100
AcDbLine
 39
96.0
 10
28.609707
 20
46.52665
 30
0.0
 11
30.109707
 21
46.52665
 31
0.0
  0
LINE
  5
688
100
AcDbEntity
  8
DIM_TEXT
 62
     7
100
AcDbLine
 39
96.0
 10
30.109707
 20
64.52665
 30
0.0
 11
30.109707
 21
46.52665
 31
0.0
  0
LINE
  5
689
100
AcDbEntity
  8
DIM_TEXT
 62
     7
100
AcDbLine
 39
96.0
 10
28.609707
 20
64.52665
 30
0.0
 11
28.609707
 21
46.52665
 31
0.0
  0
LINE
  5
68A
100
AcDbEntity
  8
DIM_TEXT
 62
     7
100
AcDbLine
 39
96.0
 10
3.142207
 20
65.27765
 30
0.0
 11
78.486607
 21
65.27575
 31
0.0
  0
LINE
  5
68B
100
AcDbEntity
  8
DIM_TEXT
 62
     7
100
AcDbLine
 39
96.0
 10
2.391207
 20
64.52665
 30
0.0
 11
77.736607
 21
64.52575
 31
0.0
  0
LINE
  5
68C
100
AcDbEntity
  8
BORDER
  6
CONTINUOUS
 62
     3
100
AcDbLine
 39
96.0
 10
43.909307
 20
46.52615
 30
0.0
 11
38.409307
 21
45.02615
 31
0.0
  0
LINE
  5
68D
100
AcDbEntity
  8
BORDER
  6
CONTINUOUS
 62
     3
100
AcDbLine
 39
96.0
 10
43.909307
 20
45.02615
 30
0.0
 11
38.409307
 21
46.52615
 31
0.0
  0
LINE
  5
68E
100
AcDbEntity
  8
DIM_TEXT
 62
     7
100
AcDbLine
 39
96.0
 10
43.909307
 20
46.52615
 30
0.0
 11
43.909307
 21
45.02615
 31
0.0
  0
LINE
  5
68F
100
AcDbEntity
  8
DIM_TEXT
 62
     7
100
AcDbLine
 39
96.0
 10
38.645507
 20
46.52615
 30
0.0
 11
44.145507
 21
46.52615
 31
0.0
  0
LINE
  5
690
100
AcDbEntity
  8
DIM_TEXT
 62
     7
100
AcDbLine
 39
96.0
 10
38.409307
 20
45.02615
 30
0.0
 11
38.409307
 21
46.52615
 31
0.0
  0
CIRCLE
  5
691
100
AcDbEntity
  8
DIM_TEXT
 62
     7
100
AcDbCircle
 39
96.0
 10
40.370707
 20
44.432653
 30
0.0
 40
0.375
  0
LINE
  5
692
100
AcDbEntity
  8
DIM_TEXT
 62
     7
100
AcDbLine
 39
96.0
 10
40.863807
 20
44.538314
 30
0.0
 11
40.863807
 21
22.545007
 31
0.0
  0
LINE
  5
693
100
AcDbEntity
  8
BORDER
  6
CONTINUOUS
 62
    15
100
AcDbLine
 39
96.0
 10
43.909307
 20
45.02615
 30
0.0
 11
38.409307
 21
45.02615
 31
0.0
  0
LINE
  5
694
100
AcDbEntity
  8
BORDER
  6
CONTINUOUS
 62
     3
100
AcDbLine
 39
96.0
 10
42.163107
 20
20.33995
 30
0.0
 11
42.813007
 21
21.99365
 31
0.0
  0
LINE
  5
695
100
AcDbEntity
  8
BORDER
  6
CONTINUOUS
 62
     3
100
AcDbLine
 39
96.0
 10
40.214207
 20
23.64745
 30
0.0
 11
42.163107
 21
20.33995
 31
0.0
  0
LINE
  5
696
100
AcDbEntity
  8
BORDER
  6
CONTINUOUS
 62
     3
100
AcDbLine
 39
96.0
 10
39.387307
 20
21.99365
 30
0.0
 11
40.214207
 21
23.64745
 31
0.0
  0
LINE
  5
697
100
AcDbEntity
  8
BORDER
  6
CONTINUOUS
 62
     3
100
AcDbLine
 39
96.0
 10
39.387307
 20
21.99365
 30
0.0
 11
34.957607
 21
21.99365
 31
0.0
  0
LINE
  5
698
100
AcDbEntity
  8
BORDER
  6
CONTINUOUS
 62
     3
100
AcDbLine
 39
96.0
 10
47.242707
 20
21.99365
 30
0.0
 11
42.813007
 21
21.99365
 31
0.0
  0
LINE
  5
699
100
AcDbEntity
  8
BORDER
  6
CONTINUOUS
 62
    10
100
AcDbLine
 39
96.0
 10
40.214907
 20
27.76365
 30
0.0
 11
40.201207
 21
27.68675
 31
0.0
  0
LINE
  5
69A
100
AcDbEntity
  8
BORDER
  6
CONTINUOUS
 62
    10
100
AcDbLine
 39
96.0
 10
41.360207
 20
28.73645
 30
0.0
 11
41.315207
 21
28.67245
 31
0.0
  0
LINE
  5
69B
100
AcDbEntity
  8
BORDER
  6
CONTINUOUS
 62
    10
100
AcDbLine
 39
96.0
 10
41.629007
 20
27.90365
 30
0.0
 11
41.555507
 21
27.87695
 31
0.0
  0
LINE
  5
69C
100
AcDbEntity
  8
BORDER
  6
CONTINUOUS
 62
     3
100
AcDbLine
 39
96.0
 10
44.234707
 20
30.02435
 30
0.0
 11
46.109707
 21
30.02435
 31
0.0
  0
LINE
  5
69D
100
AcDbEntity
  8
BORDER
  6
CONTINUOUS
 62
     3
100
AcDbLine
 39
96.0
 10
36.109707
 20
30.02435
 30
0.0
 11
37.984707
 21
30.02435
 31
0.0
  0
LINE
  5
69E
100
AcDbEntity
  8
BORDER
  6
CONTINUOUS
 62
     2
100
AcDbLine
 39
96.0
 10
45.697107
 20
22.38855
 30
0.0
 11
45.697107
 21
22.38855
 31
0.0
  0
LINE
  5
69F
100
AcDbEntity
  8
BORDER
  6
CONTINUOUS
 62
     2
100
AcDbLine
 39
96.0
 10
45.228307
 20
22.38855
 30
0.0
 11
45.228307
 21
22.38855
 31
0.0
  0
LINE
  5
6A0
100
AcDbEntity
  8
BORDER
  6
CONTINUOUS
 62
     2
100
AcDbLine
 39
96.0
 10
44.759607
 20
22.38855
 30
0.0
 11
44.759607
 21
22.38855
 31
0.0
  0
LINE
  5
6A1
100
AcDbEntity
  8
BORDER
  6
CONTINUOUS
 62
     2
100
AcDbLine
 39
96.0
 10
44.290807
 20
22.38855
 30
0.0
 11
44.290807
 21
22.38855
 31
0.0
  0
LINE
  5
6A2
100
AcDbEntity
  8
BORDER
  6
CONTINUOUS
 62
     2
100
AcDbLine
 39
96.0
 10
45.931407
 20
22.85735
 30
0.0
 11
45.931407
 21
22.85735
 31
0.0
  0
LINE
  5
6A3
100
AcDbEntity
  8
BORDER
  6
CONTINUOUS
 62
     2
100
AcDbLine
 39
96.0
 10
45.462707
 20
22.85735
 30
0.0
 11
45.462707
 21
22.85735
 31
0.0
  0
LINE
  5
6A4
100
AcDbEntity
  8
BORDER
  6
CONTINUOUS
 62
     2
100
AcDbLine
 39
96.0
 10
44.993907
 20
22.85735
 30
0.0
 11
44.993907
 21
22.85735
 31
0.0
  0
LINE
  5
6A5
100
AcDbEntity
  8
BORDER
  6
CONTINUOUS
 62
     2
100
AcDbLine
 39
96.0
 10
44.525207
 20
22.85735
 30
0.0
 11
44.525207
 21
22.85735
 31
0.0
  0
LINE
  5
6A6
100
AcDbEntity
  8
BORDER
  6
CONTINUOUS
 62
     2
100
AcDbLine
 39
96.0
 10
45.697107
 20
23.32605
 30
0.0
 11
45.697107
 21
23.32605
 31
0.0
  0
LINE
  5
6A7
100
AcDbEntity
  8
BORDER
  6
CONTINUOUS
 62
     2
100
AcDbLine
 39
96.0
 10
45.228307
 20
23.32605
 30
0.0
 11
45.228307
 21
23.32605
 31
0.0
  0
LINE
  5
6A8
100
AcDbEntity
  8
BORDER
  6
CONTINUOUS
 62
     2
100
AcDbLine
 39
96.0
 10
44.759607
 20
23.32605
 30
0.0
 11
44.759607
 21
23.32605
 31
0.0
  0
LINE
  5
6A9
100
AcDbEntity
  8
BORDER
  6
CONTINUOUS
 62
     2
100
AcDbLine
 39
96.0
 10
44.290807
 20
23.32605
 30
0.0
 11
44.290807
 21
23.32605
 31
0.0
  0
LINE
  5
6AA
100
AcDbEntity
  8
BORDER
  6
CONTINUOUS
 62
     2
100
AcDbLine
 39
96.0
 10
45.931407
 20
23.79485
 30
0.0
 11
45.931407
 21
23.79485
 31
0.0
  0
LINE
  5
6AB
100
AcDbEntity
  8
BORDER
  6
CONTINUOUS
 62
     2
100
AcDbLine
 39
96.0
 10
45.462707
 20
23.79485
 30
0.0
 11
45.462707
 21
23.79485
 31
0.0
  0
LINE
  5
6AC
100
AcDbEntity
  8
BORDER
  6
CONTINUOUS
 62
     2
100
AcDbLine
 39
96.0
 10
44.993907
 20
23.79485
 30
0.0
 11
44.993907
 21
23.79485
 31
0.0
  0
LINE
  5
6AD
100
AcDbEntity
  8
BORDER
  6
CONTINUOUS
 62
     2
100
AcDbLine
 39
96.0
 10
44.525207
 20
23.79485
 30
0.0
 11
44.525207
 21
23.79485
 31
0.0
  0
LINE
  5
6AE
100
AcDbEntity
  8
BORDER
  6
CONTINUOUS
 62
     2
100
AcDbLine
 39
96.0
 10
45.697107
 20
24.26355
 30
0.0
 11
45.697107
 21
24.26355
 31
0.0
  0
LINE
  5
6AF
100
AcDbEntity
  8
BORDER
  6
CONTINUOUS
 62
     2
100
AcDbLine
 39
96.0
 10
45.228307
 20
24.26355
 30
0.0
 11
45.228307
 21
24.26355
 31
0.0
  0
LINE
  5
6B0
100
AcDbEntity
  8
BORDER
  6
CONTINUOUS
 62
     2
100
AcDbLine
 39
96.0
 10
44.759607
 20
24.26355
 30
0.0
 11
44.759607
 21
24.26355
 31
0.0
  0
LINE
  5
6B1
100
AcDbEntity
  8
BORDER
  6
CONTINUOUS
 62
     2
100
AcDbLine
 39
96.0
 10
44.290807
 20
24.26355
 30
0.0
 11
44.290807
 21
24.26355
 31
0.0
  0
LINE
  5
6B2
100
AcDbEntity
  8
BORDER
  6
CONTINUOUS
 62
     2
100
AcDbLine
 39
96.0
 10
45.931407
 20
24.73235
 30
0.0
 11
45.931407
 21
24.73235
 31
0.0
  0
LINE
  5
6B3
100
AcDbEntity
  8
BORDER
  6
CONTINUOUS
 62
     2
100
AcDbLine
 39
96.0
 10
45.462707
 20
24.73235
 30
0.0
 11
45.462707
 21
24.73235
 31
0.0
  0
LINE
  5
6B4
100
AcDbEntity
  8
BORDER
  6
CONTINUOUS
 62
     2
100
AcDbLine
 39
96.0
 10
44.993907
 20
24.73235
 30
0.0
 11
44.993907
 21
24.73235
 31
0.0
  0
LINE
  5
6B5
100
AcDbEntity
  8
BORDER
  6
CONTINUOUS
 62
     2
100
AcDbLine
 39
96.0
 10
44.525207
 20
24.73235
 30
0.0
 11
44.525207
 21
24.73235
 31
0.0
  0
LINE
  5
6B6
100
AcDbEntity
  8
BORDER
  6
CONTINUOUS
 62
     2
100
AcDbLine
 39
96.0
 10
45.697107
 20
25.20105
 30
0.0
 11
45.697107
 21
25.20105
 31
0.0
  0
LINE
  5
6B7
100
AcDbEntity
  8
BORDER
  6
CONTINUOUS
 62
     2
100
AcDbLine
 39
96.0
 10
45.228307
 20
25.20105
 30
0.0
 11
45.228307
 21
25.20105
 31
0.0
  0
LINE
  5
6B8
100
AcDbEntity
  8
BORDER
  6
CONTINUOUS
 62
     2
100
AcDbLine
 39
96.0
 10
44.759607
 20
25.20105
 30
0.0
 11
44.759607
 21
25.20105
 31
0.0
  0
LINE
  5
6B9
100
AcDbEntity
  8
BORDER
  6
CONTINUOUS
 62
     2
100
AcDbLine
 39
96.0
 10
44.290807
 20
25.20105
 30
0.0
 11
44.290807
 21
25.20105
 31
0.0
  0
LINE
  5
6BA
100
AcDbEntity
  8
BORDER
  6
CONTINUOUS
 62
     2
100
AcDbLine
 39
96.0
 10
45.931407
 20
25.66985
 30
0.0
 11
45.931407
 21
25.66985
 31
0.0
  0
LINE
  5
6BB
100
AcDbEntity
  8
BORDER
  6
CONTINUOUS
 62
     2
100
AcDbLine
 39
96.0
 10
45.462707
 20
25.66985
 30
0.0
 11
45.462707
 21
25.66985
 31
0.0
  0
LINE
  5
6BC
100
AcDbEntity
  8
BORDER
  6
CONTINUOUS
 62
     2
100
AcDbLine
 39
96.0
 10
44.993907
 20
25.66985
 30
0.0
 11
44.993907
 21
25.66985
 31
0.0
  0
LINE
  5
6BD
100
AcDbEntity
  8
BORDER
  6
CONTINUOUS
 62
     2
100
AcDbLine
 39
96.0
 10
44.525207
 20
25.66985
 30
0.0
 11
44.525207
 21
25.66985
 31
0.0
  0
LINE
  5
6BE
100
AcDbEntity
  8
BORDER
  6
CONTINUOUS
 62
     2
100
AcDbLine
 39
96.0
 10
45.697107
 20
26.13855
 30
0.0
 11
45.697107
 21
26.13855
 31
0.0
  0
LINE
  5
6BF
100
AcDbEntity
  8
BORDER
  6
CONTINUOUS
 62
     2
100
AcDbLine
 39
96.0
 10
45.228307
 20
26.13855
 30
0.0
 11
45.228307
 21
26.13855
 31
0.0
  0
LINE
  5
6C0
100
AcDbEntity
  8
BORDER
  6
CONTINUOUS
 62
     2
100
AcDbLine
 39
96.0
 10
44.759607
 20
26.13855
 30
0.0
 11
44.759607
 21
26.13855
 31
0.0
  0
LINE
  5
6C1
100
AcDbEntity
  8
BORDER
  6
CONTINUOUS
 62
     2
100
AcDbLine
 39
96.0
 10
44.290807
 20
26.13855
 30
0.0
 11
44.290807
 21
26.13855
 31
0.0
  0
LINE
  5
6C2
100
AcDbEntity
  8
BORDER
  6
CONTINUOUS
 62
     2
100
AcDbLine
 39
96.0
 10
45.931407
 20
26.60735
 30
0.0
 11
45.931407
 21
26.60735
 31
0.0
  0
LINE
  5
6C3
100
AcDbEntity
  8
BORDER
  6
CONTINUOUS
 62
     2
100
AcDbLine
 39
96.0
 10
45.462707
 20
26.60735
 30
0.0
 11
45.462707
 21
26.60735
 31
0.0
  0
LINE
  5
6C4
100
AcDbEntity
  8
BORDER
  6
CONTINUOUS
 62
     2
100
AcDbLine
 39
96.0
 10
44.993907
 20
26.60735
 30
0.0
 11
44.993907
 21
26.60735
 31
0.0
  0
LINE
  5
6C5
100
AcDbEntity
  8
BORDER
  6
CONTINUOUS
 62
     2
100
AcDbLine
 39
96.0
 10
44.525207
 20
26.60735
 30
0.0
 11
44.525207
 21
26.60735
 31
0.0
  0
LINE
  5
6C6
100
AcDbEntity
  8
BORDER
  6
CONTINUOUS
 62
     2
100
AcDbLine
 39
96.0
 10
45.697107
 20
27.07605
 30
0.0
 11
45.697107
 21
27.07605
 31
0.0
  0
LINE
  5
6C7
100
AcDbEntity
  8
BORDER
  6
CONTINUOUS
 62
     2
100
AcDbLine
 39
96.0
 10
45.228307
 20
27.07605
 30
0.0
 11
45.228307
 21
27.07605
 31
0.0
  0
LINE
  5
6C8
100
AcDbEntity
  8
BORDER
  6
CONTINUOUS
 62
     2
100
AcDbLine
 39
96.0
 10
44.759607
 20
27.07605
 30
0.0
 11
44.759607
 21
27.07605
 31
0.0
  0
LINE
  5
6C9
100
AcDbEntity
  8
BORDER
  6
CONTINUOUS
 62
     2
100
AcDbLine
 39
96.0
 10
44.290807
 20
27.07605
 30
0.0
 11
44.290807
 21
27.07605
 31
0.0
  0
LINE
  5
6CA
100
AcDbEntity
  8
BORDER
  6
CONTINUOUS
 62
     2
100
AcDbLine
 39
96.0
 10
45.931407
 20
27.54475
 30
0.0
 11
45.931407
 21
27.54475
 31
0.0
  0
LINE
  5
6CB
100
AcDbEntity
  8
BORDER
  6
CONTINUOUS
 62
     2
100
AcDbLine
 39
96.0
 10
45.462707
 20
27.54475
 30
0.0
 11
45.462707
 21
27.54475
 31
0.0
  0
LINE
  5
6CC
100
AcDbEntity
  8
BORDER
  6
CONTINUOUS
 62
     2
100
AcDbLine
 39
96.0
 10
44.993907
 20
27.54475
 30
0.0
 11
44.993907
 21
27.54475
 31
0.0
  0
LINE
  5
6CD
100
AcDbEntity
  8
BORDER
  6
CONTINUOUS
 62
     2
100
AcDbLine
 39
96.0
 10
44.525207
 20
27.54475
 30
0.0
 11
44.525207
 21
27.54475
 31
0.0
  0
LINE
  5
6CE
100
AcDbEntity
  8
BORDER
  6
CONTINUOUS
 62
     2
100
AcDbLine
 39
96.0
 10
45.697107
 20
28.01355
 30
0.0
 11
45.697107
 21
28.01355
 31
0.0
  0
LINE
  5
6CF
100
AcDbEntity
  8
BORDER
  6
CONTINUOUS
 62
     2
100
AcDbLine
 39
96.0
 10
45.228307
 20
28.01355
 30
0.0
 11
45.228307
 21
28.01355
 31
0.0
  0
LINE
  5
6D0
100
AcDbEntity
  8
BORDER
  6
CONTINUOUS
 62
     2
100
AcDbLine
 39
96.0
 10
44.759607
 20
28.01355
 30
0.0
 11
44.759607
 21
28.01355
 31
0.0
  0
LINE
  5
6D1
100
AcDbEntity
  8
BORDER
  6
CONTINUOUS
 62
     2
100
AcDbLine
 39
96.0
 10
44.290807
 20
28.01355
 30
0.0
 11
44.290807
 21
28.01355
 31
0.0
  0
LINE
  5
6D2
100
AcDbEntity
  8
BORDER
  6
CONTINUOUS
 62
     2
100
AcDbLine
 39
96.0
 10
45.931407
 20
28.48225
 30
0.0
 11
45.931407
 21
28.48225
 31
0.0
  0
LINE
  5
6D3
100
AcDbEntity
  8
BORDER
  6
CONTINUOUS
 62
     2
100
AcDbLine
 39
96.0
 10
45.462707
 20
28.48225
 30
0.0
 11
45.462707
 21
28.48225
 31
0.0
  0
LINE
  5
6D4
100
AcDbEntity
  8
BORDER
  6
CONTINUOUS
 62
     2
100
AcDbLine
 39
96.0
 10
44.993907
 20
28.48225
 30
0.0
 11
44.993907
 21
28.48225
 31
0.0
  0
LINE
  5
6D5
100
AcDbEntity
  8
BORDER
  6
CONTINUOUS
 62
     2
100
AcDbLine
 39
96.0
 10
44.525207
 20
28.48225
 30
0.0
 11
44.525207
 21
28.48225
 31
0.0
  0
LINE
  5
6D6
100
AcDbEntity
  8
BORDER
  6
CONTINUOUS
 62
     2
100
AcDbLine
 39
96.0
 10
45.697107
 20
28.95105
 30
0.0
 11
45.697107
 21
28.95105
 31
0.0
  0
LINE
  5
6D7
100
AcDbEntity
  8
BORDER
  6
CONTINUOUS
 62
     2
100
AcDbLine
 39
96.0
 10
45.228307
 20
28.95105
 30
0.0
 11
45.228307
 21
28.95105
 31
0.0
  0
LINE
  5
6D8
100
AcDbEntity
  8
BORDER
  6
CONTINUOUS
 62
     2
100
AcDbLine
 39
96.0
 10
44.759607
 20
28.95105
 30
0.0
 11
44.759607
 21
28.95105
 31
0.0
  0
LINE
  5
6D9
100
AcDbEntity
  8
BORDER
  6
CONTINUOUS
 62
     2
100
AcDbLine
 39
96.0
 10
44.290807
 20
28.95105
 30
0.0
 11
44.290807
 21
28.95105
 31
0.0
  0
LINE
  5
6DA
100
AcDbEntity
  8
BORDER
  6
CONTINUOUS
 62
     2
100
AcDbLine
 39
96.0
 10
45.931407
 20
29.41985
 30
0.0
 11
45.931407
 21
29.41985
 31
0.0
  0
LINE
  5
6DB
100
AcDbEntity
  8
BORDER
  6
CONTINUOUS
 62
     2
100
AcDbLine
 39
96.0
 10
45.462707
 20
29.41985
 30
0.0
 11
45.462707
 21
29.41985
 31
0.0
  0
LINE
  5
6DC
100
AcDbEntity
  8
BORDER
  6
CONTINUOUS
 62
     2
100
AcDbLine
 39
96.0
 10
44.993907
 20
29.41985
 30
0.0
 11
44.993907
 21
29.41985
 31
0.0
  0
LINE
  5
6DD
100
AcDbEntity
  8
BORDER
  6
CONTINUOUS
 62
     2
100
AcDbLine
 39
96.0
 10
44.525207
 20
29.41985
 30
0.0
 11
44.525207
 21
29.41985
 31
0.0
  0
LINE
  5
6DE
100
AcDbEntity
  8
BORDER
  6
CONTINUOUS
 62
     2
100
AcDbLine
 39
96.0
 10
45.697107
 20
29.88855
 30
0.0
 11
45.697107
 21
29.88855
 31
0.0
  0
LINE
  5
6DF
100
AcDbEntity
  8
BORDER
  6
CONTINUOUS
 62
     2
100
AcDbLine
 39
96.0
 10
45.228307
 20
29.88855
 30
0.0
 11
45.228307
 21
29.88855
 31
0.0
  0
LINE
  5
6E0
100
AcDbEntity
  8
BORDER
  6
CONTINUOUS
 62
     2
100
AcDbLine
 39
96.0
 10
44.759607
 20
29.88855
 30
0.0
 11
44.759607
 21
29.88855
 31
0.0
  0
LINE
  5
6E1
100
AcDbEntity
  8
BORDER
  6
CONTINUOUS
 62
     2
100
AcDbLine
 39
96.0
 10
44.290807
 20
29.88855
 30
0.0
 11
44.290807
 21
29.88855
 31
0.0
  0
LINE
  5
6E2
100
AcDbEntity
  8
BORDER
  6
CONTINUOUS
 62
     2
100
AcDbLine
 39
96.0
 10
37.728307
 20
22.38855
 30
0.0
 11
37.728307
 21
22.38855
 31
0.0
  0
LINE
  5
6E3
100
AcDbEntity
  8
BORDER
  6
CONTINUOUS
 62
     2
100
AcDbLine
 39
96.0
 10
37.259607
 20
22.38855
 30
0.0
 11
37.259607
 21
22.38855
 31
0.0
  0
LINE
  5
6E4
100
AcDbEntity
  8
BORDER
  6
CONTINUOUS
 62
     2
100
AcDbLine
 39
96.0
 10
36.790807
 20
22.38855
 30
0.0
 11
36.790807
 21
22.38855
 31
0.0
  0
LINE
  5
6E5
100
AcDbEntity
  8
BORDER
  6
CONTINUOUS
 62
     2
100
AcDbLine
 39
96.0
 10
36.322107
 20
22.38855
 30
0.0
 11
36.322107
 21
22.38855
 31
0.0
  0
LINE
  5
6E6
100
AcDbEntity
  8
BORDER
  6
CONTINUOUS
 62
     2
100
AcDbLine
 39
96.0
 10
37.962707
 20
22.85735
 30
0.0
 11
37.962707
 21
22.85735
 31
0.0
  0
LINE
  5
6E7
100
AcDbEntity
  8
BORDER
  6
CONTINUOUS
 62
     2
100
AcDbLine
 39
96.0
 10
37.493907
 20
22.85735
 30
0.0
 11
37.493907
 21
22.85735
 31
0.0
  0
LINE
  5
6E8
100
AcDbEntity
  8
BORDER
  6
CONTINUOUS
 62
     2
100
AcDbLine
 39
96.0
 10
37.025207
 20
22.85735
 30
0.0
 11
37.025207
 21
22.85735
 31
0.0
  0
LINE
  5
6E9
100
AcDbEntity
  8
BORDER
  6
CONTINUOUS
 62
     2
100
AcDbLine
 39
96.0
 10
36.556407
 20
22.85735
 30
0.0
 11
36.556407
 21
22.85735
 31
0.0
  0
LINE
  5
6EA
100
AcDbEntity
  8
BORDER
  6
CONTINUOUS
 62
     2
100
AcDbLine
 39
96.0
 10
37.728307
 20
23.32605
 30
0.0
 11
37.728307
 21
23.32605
 31
0.0
  0
LINE
  5
6EB
100
AcDbEntity
  8
BORDER
  6
CONTINUOUS
 62
     2
100
AcDbLine
 39
96.0
 10
37.259607
 20
23.32605
 30
0.0
 11
37.259607
 21
23.32605
 31
0.0
  0
LINE
  5
6EC
100
AcDbEntity
  8
BORDER
  6
CONTINUOUS
 62
     2
100
AcDbLine
 39
96.0
 10
36.790807
 20
23.32605
 30
0.0
 11
36.790807
 21
23.32605
 31
0.0
  0
LINE
  5
6ED
100
AcDbEntity
  8
BORDER
  6
CONTINUOUS
 62
     2
100
AcDbLine
 39
96.0
 10
36.322107
 20
23.32605
 30
0.0
 11
36.322107
 21
23.32605
 31
0.0
  0
LINE
  5
6EE
100
AcDbEntity
  8
BORDER
  6
CONTINUOUS
 62
     2
100
AcDbLine
 39
96.0
 10
37.962707
 20
23.79485
 30
0.0
 11
37.962707
 21
23.79485
 31
0.0
  0
LINE
  5
6EF
100
AcDbEntity
  8
BORDER
  6
CONTINUOUS
 62
     2
100
AcDbLine
 39
96.0
 10
37.493907
 20
23.79485
 30
0.0
 11
37.493907
 21
23.79485
 31
0.0
  0
LINE
  5
6F0
100
AcDbEntity
  8
BORDER
  6
CONTINUOUS
 62
     2
100
AcDbLine
 39
96.0
 10
37.025207
 20
23.79485
 30
0.0
 11
37.025207
 21
23.79485
 31
0.0
  0
LINE
  5
6F1
100
AcDbEntity
  8
BORDER
  6
CONTINUOUS
 62
     2
100
AcDbLine
 39
96.0
 10
36.556407
 20
23.79485
 30
0.0
 11
36.556407
 21
23.79485
 31
0.0
  0
LINE
  5
6F2
100
AcDbEntity
  8
BORDER
  6
CONTINUOUS
 62
     2
100
AcDbLine
 39
96.0
 10
37.728307
 20
24.26355
 30
0.0
 11
37.728307
 21
24.26355
 31
0.0
  0
LINE
  5
6F3
100
AcDbEntity
  8
BORDER
  6
CONTINUOUS
 62
     2
100
AcDbLine
 39
96.0
 10
37.259607
 20
24.26355
 30
0.0
 11
37.259607
 21
24.26355
 31
0.0
  0
LINE
  5
6F4
100
AcDbEntity
  8
BORDER
  6
CONTINUOUS
 62
     2
100
AcDbLine
 39
96.0
 10
36.790807
 20
24.26355
 30
0.0
 11
36.790807
 21
24.26355
 31
0.0
  0
LINE
  5
6F5
100
AcDbEntity
  8
BORDER
  6
CONTINUOUS
 62
     2
100
AcDbLine
 39
96.0
 10
36.322107
 20
24.26355
 30
0.0
 11
36.322107
 21
24.26355
 31
0.0
  0
LINE
  5
6F6
100
AcDbEntity
  8
BORDER
  6
CONTINUOUS
 62
     2
100
AcDbLine
 39
96.0
 10
37.962707
 20
24.73235
 30
0.0
 11
37.962707
 21
24.73235
 31
0.0
  0
LINE
  5
6F7
100
AcDbEntity
  8
BORDER
  6
CONTINUOUS
 62
     2
100
AcDbLine
 39
96.0
 10
37.493907
 20
24.73235
 30
0.0
 11
37.493907
 21
24.73235
 31
0.0
  0
LINE
  5
6F8
100
AcDbEntity
  8
BORDER
  6
CONTINUOUS
 62
     2
100
AcDbLine
 39
96.0
 10
37.025207
 20
24.73235
 30
0.0
 11
37.025207
 21
24.73235
 31
0.0
  0
LINE
  5
6F9
100
AcDbEntity
  8
BORDER
  6
CONTINUOUS
 62
     2
100
AcDbLine
 39
96.0
 10
36.556407
 20
24.73235
 30
0.0
 11
36.556407
 21
24.73235
 31
0.0
  0
LINE
  5
6FA
100
AcDbEntity
  8
BORDER
  6
CONTINUOUS
 62
     2
100
AcDbLine
 39
96.0
 10
37.728307
 20
25.20105
 30
0.0
 11
37.728307
 21
25.20105
 31
0.0
  0
LINE
  5
6FB
100
AcDbEntity
  8
BORDER
  6
CONTINUOUS
 62
     2
100
AcDbLine
 39
96.0
 10
37.259607
 20
25.20105
 30
0.0
 11
37.259607
 21
25.20105
 31
0.0
  0
LINE
  5
6FC
100
AcDbEntity
  8
BORDER
  6
CONTINUOUS
 62
     2
100
AcDbLine
 39
96.0
 10
36.790807
 20
25.20105
 30
0.0
 11
36.790807
 21
25.20105
 31
0.0
  0
LINE
  5
6FD
100
AcDbEntity
  8
BORDER
  6
CONTINUOUS
 62
     2
100
AcDbLine
 39
96.0
 10
36.322107
 20
25.20105
 30
0.0
 11
36.322107
 21
25.20105
 31
0.0
  0
LINE
  5
6FE
100
AcDbEntity
  8
BORDER
  6
CONTINUOUS
 62
     2
100
AcDbLine
 39
96.0
 10
37.962707
 20
25.66985
 30
0.0
 11
37.962707
 21
25.66985
 31
0.0
  0
LINE
  5
6FF
100
AcDbEntity
  8
BORDER
  6
CONTINUOUS
 62
     2
100
AcDbLine
 39
96.0
 10
37.493907
 20
25.66985
 30
0.0
 11
37.493907
 21
25.66985
 31
0.0
  0
LINE
  5
700
100
AcDbEntity
  8
BORDER
  6
CONTINUOUS
 62
     2
100
AcDbLine
 39
96.0
 10
37.025207
 20
25.66985
 30
0.0
 11
37.025207
 21
25.66985
 31
0.0
  0
LINE
  5
701
100
AcDbEntity
  8
BORDER
  6
CONTINUOUS
 62
     2
100
AcDbLine
 39
96.0
 10
36.556407
 20
25.66985
 30
0.0
 11
36.556407
 21
25.66985
 31
0.0
  0
LINE
  5
702
100
AcDbEntity
  8
BORDER
  6
CONTINUOUS
 62
     2
100
AcDbLine
 39
96.0
 10
37.728307
 20
26.13855
 30
0.0
 11
37.728307
 21
26.13855
 31
0.0
  0
LINE
  5
703
100
AcDbEntity
  8
BORDER
  6
CONTINUOUS
 62
     2
100
AcDbLine
 39
96.0
 10
37.259607
 20
26.13855
 30
0.0
 11
37.259607
 21
26.13855
 31
0.0
  0
LINE
  5
704
100
AcDbEntity
  8
BORDER
  6
CONTINUOUS
 62
     2
100
AcDbLine
 39
96.0
 10
36.790807
 20
26.13855
 30
0.0
 11
36.790807
 21
26.13855
 31
0.0
  0
LINE
  5
705
100
AcDbEntity
  8
BORDER
  6
CONTINUOUS
 62
     2
100
AcDbLine
 39
96.0
 10
36.322107
 20
26.13855
 30
0.0
 11
36.322107
 21
26.13855
 31
0.0
  0
LINE
  5
706
100
AcDbEntity
  8
BORDER
  6
CONTINUOUS
 62
     2
100
AcDbLine
 39
96.0
 10
37.962707
 20
26.60735
 30
0.0
 11
37.962707
 21
26.60735
 31
0.0
  0
LINE
  5
707
100
AcDbEntity
  8
BORDER
  6
CONTINUOUS
 62
     2
100
AcDbLine
 39
96.0
 10
37.493907
 20
26.60735
 30
0.0
 11
37.493907
 21
26.60735
 31
0.0
  0
LINE
  5
708
100
AcDbEntity
  8
BORDER
  6
CONTINUOUS
 62
     2
100
AcDbLine
 39
96.0
 10
37.025207
 20
26.60735
 30
0.0
 11
37.025207
 21
26.60735
 31
0.0
  0
LINE
  5
709
100
AcDbEntity
  8
BORDER
  6
CONTINUOUS
 62
     2
100
AcDbLine
 39
96.0
 10
36.556407
 20
26.60735
 30
0.0
 11
36.556407
 21
26.60735
 31
0.0
  0
LINE
  5
70A
100
AcDbEntity
  8
BORDER
  6
CONTINUOUS
 62
     2
100
AcDbLine
 39
96.0
 10
37.728307
 20
27.07605
 30
0.0
 11
37.728307
 21
27.07605
 31
0.0
  0
LINE
  5
70B
100
AcDbEntity
  8
BORDER
  6
CONTINUOUS
 62
     2
100
AcDbLine
 39
96.0
 10
37.259607
 20
27.07605
 30
0.0
 11
37.259607
 21
27.07605
 31
0.0
  0
LINE
  5
70C
100
AcDbEntity
  8
BORDER
  6
CONTINUOUS
 62
     2
100
AcDbLine
 39
96.0
 10
36.790807
 20
27.07605
 30
0.0
 11
36.790807
 21
27.07605
 31
0.0
  0
LINE
  5
70D
100
AcDbEntity
  8
BORDER
  6
CONTINUOUS
 62
     2
100
AcDbLine
 39
96.0
 10
36.322107
 20
27.07605
 30
0.0
 11
36.322107
 21
27.07605
 31
0.0
  0
LINE
  5
70E
100
AcDbEntity
  8
BORDER
  6
CONTINUOUS
 62
     2
100
AcDbLine
 39
96.0
 10
37.962707
 20
27.54475
 30
0.0
 11
37.962707
 21
27.54475
 31
0.0
  0
LINE
  5
70F
100
AcDbEntity
  8
BORDER
  6
CONTINUOUS
 62
     2
100
AcDbLine
 39
96.0
 10
37.493907
 20
27.54475
 30
0.0
 11
37.493907
 21
27.54475
 31
0.0
  0
LINE
  5
710
100
AcDbEntity
  8
BORDER
  6
CONTINUOUS
 62
     2
100
AcDbLine
 39
96.0
 10
37.025207
 20
27.54475
 30
0.0
 11
37.025207
 21
27.54475
 31
0.0
  0
LINE
  5
711
100
AcDbEntity
  8
BORDER
  6
CONTINUOUS
 62
     2
100
AcDbLine
 39
96.0
 10
36.556407
 20
27.54475
 30
0.0
 11
36.556407
 21
27.54475
 31
0.0
  0
LINE
  5
712
100
AcDbEntity
  8
BORDER
  6
CONTINUOUS
 62
     2
100
AcDbLine
 39
96.0
 10
37.728307
 20
28.01355
 30
0.0
 11
37.728307
 21
28.01355
 31
0.0
  0
LINE
  5
713
100
AcDbEntity
  8
BORDER
  6
CONTINUOUS
 62
     2
100
AcDbLine
 39
96.0
 10
37.259607
 20
28.01355
 30
0.0
 11
37.259607
 21
28.01355
 31
0.0
  0
LINE
  5
714
100
AcDbEntity
  8
BORDER
  6
CONTINUOUS
 62
     2
100
AcDbLine
 39
96.0
 10
36.790807
 20
28.01355
 30
0.0
 11
36.790807
 21
28.01355
 31
0.0
  0
LINE
  5
715
100
AcDbEntity
  8
BORDER
  6
CONTINUOUS
 62
     2
100
AcDbLine
 39
96.0
 10
36.322107
 20
28.01355
 30
0.0
 11
36.322107
 21
28.01355
 31
0.0
  0
LINE
  5
716
100
AcDbEntity
  8
BORDER
  6
CONTINUOUS
 62
     2
100
AcDbLine
 39
96.0
 10
37.962707
 20
28.48225
 30
0.0
 11
37.962707
 21
28.48225
 31
0.0
  0
LINE
  5
717
100
AcDbEntity
  8
BORDER
  6
CONTINUOUS
 62
     2
100
AcDbLine
 39
96.0
 10
37.493907
 20
28.48225
 30
0.0
 11
37.493907
 21
28.48225
 31
0.0
  0
LINE
  5
718
100
AcDbEntity
  8
BORDER
  6
CONTINUOUS
 62
     2
100
AcDbLine
 39
96.0
 10
37.025207
 20
28.48225
 30
0.0
 11
37.025207
 21
28.48225
 31
0.0
  0
LINE
  5
719
100
AcDbEntity
  8
BORDER
  6
CONTINUOUS
 62
     2
100
AcDbLine
 39
96.0
 10
36.556407
 20
28.48225
 30
0.0
 11
36.556407
 21
28.48225
 31
0.0
  0
LINE
  5
71A
100
AcDbEntity
  8
BORDER
  6
CONTINUOUS
 62
     2
100
AcDbLine
 39
96.0
 10
37.728307
 20
28.95105
 30
0.0
 11
37.728307
 21
28.95105
 31
0.0
  0
LINE
  5
71B
100
AcDbEntity
  8
BORDER
  6
CONTINUOUS
 62
     2
100
AcDbLine
 39
96.0
 10
37.259607
 20
28.95105
 30
0.0
 11
37.259607
 21
28.95105
 31
0.0
  0
LINE
  5
71C
100
AcDbEntity
  8
BORDER
  6
CONTINUOUS
 62
     2
100
AcDbLine
 39
96.0
 10
36.790807
 20
28.95105
 30
0.0
 11
36.790807
 21
28.95105
 31
0.0
  0
LINE
  5
71D
100
AcDbEntity
  8
BORDER
  6
CONTINUOUS
 62
     2
100
AcDbLine
 39
96.0
 10
36.322107
 20
28.95105
 30
0.0
 11
36.322107
 21
28.95105
 31
0.0
  0
LINE
  5
71E
100
AcDbEntity
  8
BORDER
  6
CONTINUOUS
 62
     2
100
AcDbLine
 39
96.0
 10
37.962707
 20
29.41985
 30
0.0
 11
37.962707
 21
29.41985
 31
0.0
  0
LINE
  5
71F
100
AcDbEntity
  8
BORDER
  6
CONTINUOUS
 62
     2
100
AcDbLine
 39
96.0
 10
37.493907
 20
29.41985
 30
0.0
 11
37.493907
 21
29.41985
 31
0.0
  0
LINE
  5
720
100
AcDbEntity
  8
BORDER
  6
CONTINUOUS
 62
     2
100
AcDbLine
 39
96.0
 10
37.025207
 20
29.41985
 30
0.0
 11
37.025207
 21
29.41985
 31
0.0
  0
LINE
  5
721
100
AcDbEntity
  8
BORDER
  6
CONTINUOUS
 62
     2
100
AcDbLine
 39
96.0
 10
36.556407
 20
29.41985
 30
0.0
 11
36.556407
 21
29.41985
 31
0.0
  0
LINE
  5
722
100
AcDbEntity
  8
BORDER
  6
CONTINUOUS
 62
     2
100
AcDbLine
 39
96.0
 10
37.728307
 20
29.88855
 30
0.0
 11
37.728307
 21
29.88855
 31
0.0
  0
LINE
  5
723
100
AcDbEntity
  8
BORDER
  6
CONTINUOUS
 62
     2
100
AcDbLine
 39
96.0
 10
37.259607
 20
29.88855
 30
0.0
 11
37.259607
 21
29.88855
 31
0.0
  0
LINE
  5
724
100
AcDbEntity
  8
BORDER
  6
CONTINUOUS
 62
     2
100
AcDbLine
 39
96.0
 10
36.790807
 20
29.88855
 30
0.0
 11
36.790807
 21
29.88855
 31
0.0
  0
LINE
  5
725
100
AcDbEntity
  8
BORDER
  6
CONTINUOUS
 62
     2
100
AcDbLine
 39
96.0
 10
36.322107
 20
29.88855
 30
0.0
 11
36.322107
 21
29.88855
 31
0.0
  0
LINE
  5
726
100
AcDbEntity
  8
BORDER
  6
CONTINUOUS
 62
     1
100
AcDbLine
 39
96.0
 10
43.016707
 20
27.15815
 30
0.0
 11
43.027407
 21
27.21975
 31
0.0
  0
LINE
  5
727
100
AcDbEntity
  8
BORDER
  6
CONTINUOUS
 62
     1
100
AcDbLine
 39
96.0
 10
42.582607
 20
24.69615
 30
0.0
 11
42.593307
 21
24.75775
 31
0.0
  0
LINE
  5
728
100
AcDbEntity
  8
BORDER
  6
CONTINUOUS
 62
     1
100
AcDbLine
 39
96.0
 10
42.148507
 20
22.23405
 30
0.0
 11
42.159207
 21
22.29565
 31
0.0
  0
LINE
  5
729
100
AcDbEntity
  8
BORDER
  6
CONTINUOUS
 62
     1
100
AcDbLine
 39
96.0
 10
40.120907
 20
25.13025
 30
0.0
 11
40.131607
 21
25.19175
 31
0.0
  0
LINE
  5
72A
100
AcDbEntity
  8
BORDER
  6
CONTINUOUS
 62
     1
100
AcDbLine
 39
96.0
 10
39.686807
 20
22.66815
 30
0.0
 11
39.697607
 21
22.72975
 31
0.0
  0
LINE
  5
72B
100
AcDbEntity
  8
BORDER
  6
CONTINUOUS
 62
     1
100
AcDbLine
 39
96.0
 10
38.093107
 20
28.02625
 30
0.0
 11
38.103807
 21
28.08785
 31
0.0
  0
LINE
  5
72C
100
AcDbEntity
  8
BORDER
  6
CONTINUOUS
 62
     1
100
AcDbLine
 39
96.0
 10
42.870707
 20
24.69775
 30
0.0
 11
42.906507
 21
24.74905
 31
0.0
  0
LINE
  5
72D
100
AcDbEntity
  8
BORDER
  6
CONTINUOUS
 62
     1
100
AcDbLine
 39
96.0
 10
41.436607
 20
22.64995
 30
0.0
 11
41.472507
 21
22.70115
 31
0.0
  0
LINE
  5
72E
100
AcDbEntity
  8
BORDER
  6
CONTINUOUS
 62
     1
100
AcDbLine
 39
96.0
 10
40.822807
 20
26.13165
 30
0.0
 11
40.858707
 21
26.18285
 31
0.0
  0
LINE
  5
72F
100
AcDbEntity
  8
BORDER
  6
CONTINUOUS
 62
     1
100
AcDbLine
 39
96.0
 10
39.388707
 20
24.08375
 30
0.0
 11
39.424607
 21
24.13505
 31
0.0
  0
LINE
  5
730
100
AcDbEntity
  8
BORDER
  6
CONTINUOUS
 62
     1
100
AcDbLine
 39
96.0
 10
38.774707
 20
27.56565
 30
0.0
 11
38.810607
 21
27.61685
 31
0.0
  0
LINE
  5
731
100
AcDbEntity
  8
BORDER
  6
CONTINUOUS
 62
     1
100
AcDbLine
 39
96.0
 10
44.071807
 20
22.87035
 30
0.0
 11
44.130707
 21
22.89165
 31
0.0
  0
LINE
  5
732
100
AcDbEntity
  8
BORDER
  6
CONTINUOUS
 62
     1
100
AcDbLine
 39
96.0
 10
41.722507
 20
22.01525
 30
0.0
 11
41.781307
 21
22.03665
 31
0.0
  0
LINE
  5
733
100
AcDbEntity
  8
BORDER
  6
CONTINUOUS
 62
     1
100
AcDbLine
 39
96.0
 10
43.216807
 20
25.21955
 30
0.0
 11
43.275707
 21
25.24095
 31
0.0
  0
LINE
  5
734
100
AcDbEntity
  8
BORDER
  6
CONTINUOUS
 62
     1
100
AcDbLine
 39
96.0
 10
40.867507
 20
24.36455
 30
0.0
 11
40.926307
 21
24.38585
 31
0.0
  0
LINE
  5
735
100
AcDbEntity
  8
BORDER
  6
CONTINUOUS
 62
     1
100
AcDbLine
 39
96.0
 10
38.518107
 20
23.50945
 30
0.0
 11
38.577007
 21
23.53085
 31
0.0
  0
LINE
  5
736
100
AcDbEntity
  8
BORDER
  6
CONTINUOUS
 62
     1
100
AcDbLine
 39
96.0
 10
40.012507
 20
26.71375
 30
0.0
 11
40.071307
 21
26.73515
 31
0.0
  0
LINE
  5
737
100
AcDbEntity
  8
BORDER
  6
CONTINUOUS
 62
     3
100
AcDbLine
 39
96.0
 10
37.984707
 20
30.02435
 30
0.0
 11
36.109707
 21
30.02435
 31
0.0
  0
ARC
  5
738
100
AcDbEntity
  8
BORDER
  6
CONTINUOUS
 62
     3
100
AcDbCircle
 39
96.0
 10
41.109707
 20
30.02435
 30
0.0
 40
3.0
100
AcDbArc
 50
180.0
 51
0.0
  0
LINE
  5
739
100
AcDbEntity
  8
BORDER
  6
CONTINUOUS
 62
     3
100
AcDbLine
 39
96.0
 10
44.234707
 20
21.99365
 30
0.0
 11
44.234707
 21
30.02435
 31
0.0
  0
LINE
  5
73A
100
AcDbEntity
  8
BORDER
  6
CONTINUOUS
 62
     3
100
AcDbLine
 39
96.0
 10
37.984707
 20
30.02435
 30
0.0
 11
37.984707
 21
21.99365
 31
0.0
  0
LINE
  5
73B
100
AcDbEntity
  8
BORDER
  6
CONTINUOUS
 62
     3
100
AcDbLine
 39
96.0
 10
36.109707
 20
30.02435
 30
0.0
 11
36.109707
 21
21.99365
 31
0.0
  0
LINE
  5
73C
100
AcDbEntity
  8
BORDER
  6
CONTINUOUS
 62
     3
100
AcDbLine
 39
96.0
 10
46.109707
 20
30.02435
 30
0.0
 11
44.234707
 21
30.02435
 31
0.0
  0
LINE
  5
73D
100
AcDbEntity
  8
BORDER
  6
CONTINUOUS
 62
     3
100
AcDbLine
 39
96.0
 10
46.109707
 20
21.99365
 30
0.0
 11
46.109707
 21
30.02435
 31
0.0
  0
LINE
  5
73E
100
AcDbEntity
  8
BORDER
  6
CONTINUOUS
 62
     1
100
AcDbLine
 39
96.0
 10
41.436607
 20
30.97585
 30
0.0
 11
41.472507
 21
31.02705
 31
0.0
  0
LINE
  5
73F
100
AcDbEntity
  8
BORDER
  6
CONTINUOUS
 62
     1
100
AcDbLine
 39
96.0
 10
42.148507
 20
30.56005
 30
0.0
 11
42.159207
 21
30.62155
 31
0.0
  0
LINE
  5
740
100
AcDbEntity
  8
BORDER
  6
CONTINUOUS
 62
     1
100
AcDbLine
 39
96.0
 10
41.722507
 20
30.34125
 30
0.0
 11
41.781307
 21
30.36255
 31
0.0
  0
LINE
  5
741
100
AcDbEntity
  8
BORDER
  6
CONTINUOUS
 62
    10
100
AcDbLine
 39
96.0
 10
40.214907
 20
42.76365
 30
0.0
 11
40.201207
 21
42.68675
 31
0.0
  0
LINE
  5
742
100
AcDbEntity
  8
BORDER
  6
CONTINUOUS
 62
    10
100
AcDbLine
 39
96.0
 10
41.661707
 20
34.47305
 30
0.0
 11
41.650707
 21
34.41155
 31
0.0
  0
LINE
  5
743
100
AcDbEntity
  8
BORDER
  6
CONTINUOUS
 62
    10
100
AcDbLine
 39
96.0
 10
39.310107
 20
29.91205
 30
0.0
 11
39.265207
 21
29.84805
 31
0.0
  0
LINE
  5
744
100
AcDbEntity
  8
BORDER
  6
CONTINUOUS
 62
    10
100
AcDbLine
 39
96.0
 10
41.102607
 20
33.97195
 30
0.0
 11
41.057707
 21
33.90795
 31
0.0
  0
LINE
  5
745
100
AcDbEntity
  8
BORDER
  6
CONTINUOUS
 62
    10
100
AcDbLine
 39
96.0
 10
38.962507
 20
31.95645
 30
0.0
 11
38.889007
 21
31.92975
 31
0.0
  0
LINE
  5
746
100
AcDbEntity
  8
BORDER
  6
CONTINUOUS
 62
     3
100
AcDbLine
 39
96.0
 10
44.234707
 20
45.02435
 30
0.0
 11
46.109707
 21
45.02435
 31
0.0
  0
LINE
  5
747
100
AcDbEntity
  8
BORDER
  6
CONTINUOUS
 62
     3
100
AcDbLine
 39
96.0
 10
36.109707
 20
45.02435
 30
0.0
 11
37.984707
 21
45.02435
 31
0.0
  0
LINE
  5
748
100
AcDbEntity
  8
BORDER
  6
CONTINUOUS
 62
     2
100
AcDbLine
 39
96.0
 10
45.931407
 20
30.35725
 30
0.0
 11
45.931407
 21
30.35725
 31
0.0
  0
LINE
  5
749
100
AcDbEntity
  8
BORDER
  6
CONTINUOUS
 62
     2
100
AcDbLine
 39
96.0
 10
45.462707
 20
30.35725
 30
0.0
 11
45.462707
 21
30.35725
 31
0.0
  0
LINE
  5
74A
100
AcDbEntity
  8
BORDER
  6
CONTINUOUS
 62
     2
100
AcDbLine
 39
96.0
 10
44.993907
 20
30.35725
 30
0.0
 11
44.993907
 21
30.35725
 31
0.0
  0
LINE
  5
74B
100
AcDbEntity
  8
BORDER
  6
CONTINUOUS
 62
     2
100
AcDbLine
 39
96.0
 10
44.525207
 20
30.35725
 30
0.0
 11
44.525207
 21
30.35725
 31
0.0
  0
LINE
  5
74C
100
AcDbEntity
  8
BORDER
  6
CONTINUOUS
 62
     2
100
AcDbLine
 39
96.0
 10
45.697107
 20
30.82605
 30
0.0
 11
45.697107
 21
30.82605
 31
0.0
  0
LINE
  5
74D
100
AcDbEntity
  8
BORDER
  6
CONTINUOUS
 62
     2
100
AcDbLine
 39
96.0
 10
45.228307
 20
30.82605
 30
0.0
 11
45.228307
 21
30.82605
 31
0.0
  0
LINE
  5
74E
100
AcDbEntity
  8
BORDER
  6
CONTINUOUS
 62
     2
100
AcDbLine
 39
96.0
 10
44.759607
 20
30.82605
 30
0.0
 11
44.759607
 21
30.82605
 31
0.0
  0
LINE
  5
74F
100
AcDbEntity
  8
BORDER
  6
CONTINUOUS
 62
     2
100
AcDbLine
 39
96.0
 10
44.290807
 20
30.82605
 30
0.0
 11
44.290807
 21
30.82605
 31
0.0
  0
LINE
  5
750
100
AcDbEntity
  8
BORDER
  6
CONTINUOUS
 62
     2
100
AcDbLine
 39
96.0
 10
45.931407
 20
31.29475
 30
0.0
 11
45.931407
 21
31.29475
 31
0.0
  0
LINE
  5
751
100
AcDbEntity
  8
BORDER
  6
CONTINUOUS
 62
     2
100
AcDbLine
 39
96.0
 10
45.462707
 20
31.29475
 30
0.0
 11
45.462707
 21
31.29475
 31
0.0
  0
LINE
  5
752
100
AcDbEntity
  8
BORDER
  6
CONTINUOUS
 62
     2
100
AcDbLine
 39
96.0
 10
44.993907
 20
31.29475
 30
0.0
 11
44.993907
 21
31.29475
 31
0.0
  0
LINE
  5
753
100
AcDbEntity
  8
BORDER
  6
CONTINUOUS
 62
     2
100
AcDbLine
 39
96.0
 10
44.525207
 20
31.29475
 30
0.0
 11
44.525207
 21
31.29475
 31
0.0
  0
LINE
  5
754
100
AcDbEntity
  8
BORDER
  6
CONTINUOUS
 62
     2
100
AcDbLine
 39
96.0
 10
45.697107
 20
31.76355
 30
0.0
 11
45.697107
 21
31.76355
 31
0.0
  0
LINE
  5
755
100
AcDbEntity
  8
BORDER
  6
CONTINUOUS
 62
     2
100
AcDbLine
 39
96.0
 10
45.228307
 20
31.76355
 30
0.0
 11
45.228307
 21
31.76355
 31
0.0
  0
LINE
  5
756
100
AcDbEntity
  8
BORDER
  6
CONTINUOUS
 62
     2
100
AcDbLine
 39
96.0
 10
44.759607
 20
31.76355
 30
0.0
 11
44.759607
 21
31.76355
 31
0.0
  0
LINE
  5
757
100
AcDbEntity
  8
BORDER
  6
CONTINUOUS
 62
     2
100
AcDbLine
 39
96.0
 10
44.290807
 20
31.76355
 30
0.0
 11
44.290807
 21
31.76355
 31
0.0
  0
LINE
  5
758
100
AcDbEntity
  8
BORDER
  6
CONTINUOUS
 62
     2
100
AcDbLine
 39
96.0
 10
45.931407
 20
32.23225
 30
0.0
 11
45.931407
 21
32.23225
 31
0.0
  0
LINE
  5
759
100
AcDbEntity
  8
BORDER
  6
CONTINUOUS
 62
     2
100
AcDbLine
 39
96.0
 10
45.462707
 20
32.23225
 30
0.0
 11
45.462707
 21
32.23225
 31
0.0
  0
LINE
  5
75A
100
AcDbEntity
  8
BORDER
  6
CONTINUOUS
 62
     2
100
AcDbLine
 39
96.0
 10
44.993907
 20
32.23225
 30
0.0
 11
44.993907
 21
32.23225
 31
0.0
  0
LINE
  5
75B
100
AcDbEntity
  8
BORDER
  6
CONTINUOUS
 62
     2
100
AcDbLine
 39
96.0
 10
44.525207
 20
32.23225
 30
0.0
 11
44.525207
 21
32.23225
 31
0.0
  0
LINE
  5
75C
100
AcDbEntity
  8
BORDER
  6
CONTINUOUS
 62
     2
100
AcDbLine
 39
96.0
 10
45.697107
 20
32.70105
 30
0.0
 11
45.697107
 21
32.70105
 31
0.0
  0
LINE
  5
75D
100
AcDbEntity
  8
BORDER
  6
CONTINUOUS
 62
     2
100
AcDbLine
 39
96.0
 10
45.228307
 20
32.70105
 30
0.0
 11
45.228307
 21
32.70105
 31
0.0
  0
LINE
  5
75E
100
AcDbEntity
  8
BORDER
  6
CONTINUOUS
 62
     2
100
AcDbLine
 39
96.0
 10
44.759607
 20
32.70105
 30
0.0
 11
44.759607
 21
32.70105
 31
0.0
  0
LINE
  5
75F
100
AcDbEntity
  8
BORDER
  6
CONTINUOUS
 62
     2
100
AcDbLine
 39
96.0
 10
44.290807
 20
32.70105
 30
0.0
 11
44.290807
 21
32.70105
 31
0.0
  0
LINE
  5
760
100
AcDbEntity
  8
BORDER
  6
CONTINUOUS
 62
     2
100
AcDbLine
 39
96.0
 10
45.931407
 20
33.16975
 30
0.0
 11
45.931407
 21
33.16975
 31
0.0
  0
LINE
  5
761
100
AcDbEntity
  8
BORDER
  6
CONTINUOUS
 62
     2
100
AcDbLine
 39
96.0
 10
45.462707
 20
33.16975
 30
0.0
 11
45.462707
 21
33.16975
 31
0.0
  0
LINE
  5
762
100
AcDbEntity
  8
BORDER
  6
CONTINUOUS
 62
     2
100
AcDbLine
 39
96.0
 10
44.993907
 20
33.16975
 30
0.0
 11
44.993907
 21
33.16975
 31
0.0
  0
LINE
  5
763
100
AcDbEntity
  8
BORDER
  6
CONTINUOUS
 62
     2
100
AcDbLine
 39
96.0
 10
44.525207
 20
33.16975
 30
0.0
 11
44.525207
 21
33.16975
 31
0.0
  0
LINE
  5
764
100
AcDbEntity
  8
BORDER
  6
CONTINUOUS
 62
     2
100
AcDbLine
 39
96.0
 10
45.697107
 20
33.63855
 30
0.0
 11
45.697107
 21
33.63855
 31
0.0
  0
LINE
  5
765
100
AcDbEntity
  8
BORDER
  6
CONTINUOUS
 62
     2
100
AcDbLine
 39
96.0
 10
45.228307
 20
33.63855
 30
0.0
 11
45.228307
 21
33.63855
 31
0.0
  0
LINE
  5
766
100
AcDbEntity
  8
BORDER
  6
CONTINUOUS
 62
     2
100
AcDbLine
 39
96.0
 10
44.759607
 20
33.63855
 30
0.0
 11
44.759607
 21
33.63855
 31
0.0
  0
LINE
  5
767
100
AcDbEntity
  8
BORDER
  6
CONTINUOUS
 62
     2
100
AcDbLine
 39
96.0
 10
44.290807
 20
33.63855
 30
0.0
 11
44.290807
 21
33.63855
 31
0.0
  0
LINE
  5
768
100
AcDbEntity
  8
BORDER
  6
CONTINUOUS
 62
     2
100
AcDbLine
 39
96.0
 10
45.931407
 20
34.10725
 30
0.0
 11
45.931407
 21
34.10725
 31
0.0
  0
LINE
  5
769
100
AcDbEntity
  8
BORDER
  6
CONTINUOUS
 62
     2
100
AcDbLine
 39
96.0
 10
45.462707
 20
34.10725
 30
0.0
 11
45.462707
 21
34.10725
 31
0.0
  0
LINE
  5
76A
100
AcDbEntity
  8
BORDER
  6
CONTINUOUS
 62
     2
100
AcDbLine
 39
96.0
 10
44.993907
 20
34.10725
 30
0.0
 11
44.993907
 21
34.10725
 31
0.0
  0
LINE
  5
76B
100
AcDbEntity
  8
BORDER
  6
CONTINUOUS
 62
     2
100
AcDbLine
 39
96.0
 10
44.525207
 20
34.10725
 30
0.0
 11
44.525207
 21
34.10725
 31
0.0
  0
LINE
  5
76C
100
AcDbEntity
  8
BORDER
  6
CONTINUOUS
 62
     2
100
AcDbLine
 39
96.0
 10
45.697107
 20
34.57605
 30
0.0
 11
45.697107
 21
34.57605
 31
0.0
  0
LINE
  5
76D
100
AcDbEntity
  8
BORDER
  6
CONTINUOUS
 62
     2
100
AcDbLine
 39
96.0
 10
45.228307
 20
34.57605
 30
0.0
 11
45.228307
 21
34.57605
 31
0.0
  0
LINE
  5
76E
100
AcDbEntity
  8
BORDER
  6
CONTINUOUS
 62
     2
100
AcDbLine
 39
96.0
 10
44.759607
 20
34.57605
 30
0.0
 11
44.759607
 21
34.57605
 31
0.0
  0
LINE
  5
76F
100
AcDbEntity
  8
BORDER
  6
CONTINUOUS
 62
     2
100
AcDbLine
 39
96.0
 10
44.290807
 20
34.57605
 30
0.0
 11
44.290807
 21
34.57605
 31
0.0
  0
LINE
  5
770
100
AcDbEntity
  8
BORDER
  6
CONTINUOUS
 62
     2
100
AcDbLine
 39
96.0
 10
45.931407
 20
35.04475
 30
0.0
 11
45.931407
 21
35.04475
 31
0.0
  0
LINE
  5
771
100
AcDbEntity
  8
BORDER
  6
CONTINUOUS
 62
     2
100
AcDbLine
 39
96.0
 10
45.462707
 20
35.04475
 30
0.0
 11
45.462707
 21
35.04475
 31
0.0
  0
LINE
  5
772
100
AcDbEntity
  8
BORDER
  6
CONTINUOUS
 62
     2
100
AcDbLine
 39
96.0
 10
44.993907
 20
35.04475
 30
0.0
 11
44.993907
 21
35.04475
 31
0.0
  0
LINE
  5
773
100
AcDbEntity
  8
BORDER
  6
CONTINUOUS
 62
     2
100
AcDbLine
 39
96.0
 10
44.525207
 20
35.04475
 30
0.0
 11
44.525207
 21
35.04475
 31
0.0
  0
LINE
  5
774
100
AcDbEntity
  8
BORDER
  6
CONTINUOUS
 62
     2
100
AcDbLine
 39
96.0
 10
45.697107
 20
35.51355
 30
0.0
 11
45.697107
 21
35.51355
 31
0.0
  0
LINE
  5
775
100
AcDbEntity
  8
BORDER
  6
CONTINUOUS
 62
     2
100
AcDbLine
 39
96.0
 10
45.228307
 20
35.51355
 30
0.0
 11
45.228307
 21
35.51355
 31
0.0
  0
LINE
  5
776
100
AcDbEntity
  8
BORDER
  6
CONTINUOUS
 62
     2
100
AcDbLine
 39
96.0
 10
44.759607
 20
35.51355
 30
0.0
 11
44.759607
 21
35.51355
 31
0.0
  0
LINE
  5
777
100
AcDbEntity
  8
BORDER
  6
CONTINUOUS
 62
     2
100
AcDbLine
 39
96.0
 10
44.290807
 20
35.51355
 30
0.0
 11
44.290807
 21
35.51355
 31
0.0
  0
LINE
  5
778
100
AcDbEntity
  8
BORDER
  6
CONTINUOUS
 62
     2
100
AcDbLine
 39
96.0
 10
45.931407
 20
35.98225
 30
0.0
 11
45.931407
 21
35.98225
 31
0.0
  0
LINE
  5
779
100
AcDbEntity
  8
BORDER
  6
CONTINUOUS
 62
     2
100
AcDbLine
 39
96.0
 10
45.462707
 20
35.98225
 30
0.0
 11
45.462707
 21
35.98225
 31
0.0
  0
LINE
  5
77A
100
AcDbEntity
  8
BORDER
  6
CONTINUOUS
 62
     2
100
AcDbLine
 39
96.0
 10
44.993907
 20
35.98225
 30
0.0
 11
44.993907
 21
35.98225
 31
0.0
  0
LINE
  5
77B
100
AcDbEntity
  8
BORDER
  6
CONTINUOUS
 62
     2
100
AcDbLine
 39
96.0
 10
44.525207
 20
35.98225
 30
0.0
 11
44.525207
 21
35.98225
 31
0.0
  0
LINE
  5
77C
100
AcDbEntity
  8
BORDER
  6
CONTINUOUS
 62
     2
100
AcDbLine
 39
96.0
 10
45.697107
 20
36.45105
 30
0.0
 11
45.697107
 21
36.45105
 31
0.0
  0
LINE
  5
77D
100
AcDbEntity
  8
BORDER
  6
CONTINUOUS
 62
     2
100
AcDbLine
 39
96.0
 10
45.228307
 20
36.45105
 30
0.0
 11
45.228307
 21
36.45105
 31
0.0
  0
LINE
  5
77E
100
AcDbEntity
  8
BORDER
  6
CONTINUOUS
 62
     2
100
AcDbLine
 39
96.0
 10
44.759607
 20
36.45105
 30
0.0
 11
44.759607
 21
36.45105
 31
0.0
  0
LINE
  5
77F
100
AcDbEntity
  8
BORDER
  6
CONTINUOUS
 62
     2
100
AcDbLine
 39
96.0
 10
44.290807
 20
36.45105
 30
0.0
 11
44.290807
 21
36.45105
 31
0.0
  0
LINE
  5
780
100
AcDbEntity
  8
BORDER
  6
CONTINUOUS
 62
     2
100
AcDbLine
 39
96.0
 10
45.931407
 20
36.91975
 30
0.0
 11
45.931407
 21
36.91975
 31
0.0
  0
LINE
  5
781
100
AcDbEntity
  8
BORDER
  6
CONTINUOUS
 62
     2
100
AcDbLine
 39
96.0
 10
45.462707
 20
36.91975
 30
0.0
 11
45.462707
 21
36.91975
 31
0.0
  0
LINE
  5
782
100
AcDbEntity
  8
BORDER
  6
CONTINUOUS
 62
     2
100
AcDbLine
 39
96.0
 10
44.993907
 20
36.91975
 30
0.0
 11
44.993907
 21
36.91975
 31
0.0
  0
LINE
  5
783
100
AcDbEntity
  8
BORDER
  6
CONTINUOUS
 62
     2
100
AcDbLine
 39
96.0
 10
44.525207
 20
36.91975
 30
0.0
 11
44.525207
 21
36.91975
 31
0.0
  0
LINE
  5
784
100
AcDbEntity
  8
BORDER
  6
CONTINUOUS
 62
     2
100
AcDbLine
 39
96.0
 10
45.697107
 20
37.38855
 30
0.0
 11
45.697107
 21
37.38855
 31
0.0
  0
LINE
  5
785
100
AcDbEntity
  8
BORDER
  6
CONTINUOUS
 62
     2
100
AcDbLine
 39
96.0
 10
45.228307
 20
37.38855
 30
0.0
 11
45.228307
 21
37.38855
 31
0.0
  0
LINE
  5
786
100
AcDbEntity
  8
BORDER
  6
CONTINUOUS
 62
     2
100
AcDbLine
 39
96.0
 10
44.759607
 20
37.38855
 30
0.0
 11
44.759607
 21
37.38855
 31
0.0
  0
LINE
  5
787
100
AcDbEntity
  8
BORDER
  6
CONTINUOUS
 62
     2
100
AcDbLine
 39
96.0
 10
44.290807
 20
37.38855
 30
0.0
 11
44.290807
 21
37.38855
 31
0.0
  0
LINE
  5
788
100
AcDbEntity
  8
BORDER
  6
CONTINUOUS
 62
     2
100
AcDbLine
 39
96.0
 10
45.931407
 20
37.85725
 30
0.0
 11
45.931407
 21
37.85725
 31
0.0
  0
LINE
  5
789
100
AcDbEntity
  8
BORDER
  6
CONTINUOUS
 62
     2
100
AcDbLine
 39
96.0
 10
45.462707
 20
37.85725
 30
0.0
 11
45.462707
 21
37.85725
 31
0.0
  0
LINE
  5
78A
100
AcDbEntity
  8
BORDER
  6
CONTINUOUS
 62
     2
100
AcDbLine
 39
96.0
 10
44.993907
 20
37.85725
 30
0.0
 11
44.993907
 21
37.85725
 31
0.0
  0
LINE
  5
78B
100
AcDbEntity
  8
BORDER
  6
CONTINUOUS
 62
     2
100
AcDbLine
 39
96.0
 10
44.525207
 20
37.85725
 30
0.0
 11
44.525207
 21
37.85725
 31
0.0
  0
LINE
  5
78C
100
AcDbEntity
  8
BORDER
  6
CONTINUOUS
 62
     2
100
AcDbLine
 39
96.0
 10
45.697107
 20
38.32605
 30
0.0
 11
45.697107
 21
38.32605
 31
0.0
  0
LINE
  5
78D
100
AcDbEntity
  8
BORDER
  6
CONTINUOUS
 62
     2
100
AcDbLine
 39
96.0
 10
45.228307
 20
38.32605
 30
0.0
 11
45.228307
 21
38.32605
 31
0.0
  0
LINE
  5
78E
100
AcDbEntity
  8
BORDER
  6
CONTINUOUS
 62
     2
100
AcDbLine
 39
96.0
 10
44.759607
 20
38.32605
 30
0.0
 11
44.759607
 21
38.32605
 31
0.0
  0
LINE
  5
78F
100
AcDbEntity
  8
BORDER
  6
CONTINUOUS
 62
     2
100
AcDbLine
 39
96.0
 10
44.290807
 20
38.32605
 30
0.0
 11
44.290807
 21
38.32605
 31
0.0
  0
LINE
  5
790
100
AcDbEntity
  8
BORDER
  6
CONTINUOUS
 62
     2
100
AcDbLine
 39
96.0
 10
45.931407
 20
38.79475
 30
0.0
 11
45.931407
 21
38.79475
 31
0.0
  0
LINE
  5
791
100
AcDbEntity
  8
BORDER
  6
CONTINUOUS
 62
     2
100
AcDbLine
 39
96.0
 10
45.462707
 20
38.79475
 30
0.0
 11
45.462707
 21
38.79475
 31
0.0
  0
LINE
  5
792
100
AcDbEntity
  8
BORDER
  6
CONTINUOUS
 62
     2
100
AcDbLine
 39
96.0
 10
44.993907
 20
38.79475
 30
0.0
 11
44.993907
 21
38.79475
 31
0.0
  0
LINE
  5
793
100
AcDbEntity
  8
BORDER
  6
CONTINUOUS
 62
     2
100
AcDbLine
 39
96.0
 10
44.525207
 20
38.79475
 30
0.0
 11
44.525207
 21
38.79475
 31
0.0
  0
LINE
  5
794
100
AcDbEntity
  8
BORDER
  6
CONTINUOUS
 62
     2
100
AcDbLine
 39
96.0
 10
45.697107
 20
39.26355
 30
0.0
 11
45.697107
 21
39.26355
 31
0.0
  0
LINE
  5
795
100
AcDbEntity
  8
BORDER
  6
CONTINUOUS
 62
     2
100
AcDbLine
 39
96.0
 10
45.228307
 20
39.26355
 30
0.0
 11
45.228307
 21
39.26355
 31
0.0
  0
LINE
  5
796
100
AcDbEntity
  8
BORDER
  6
CONTINUOUS
 62
     2
100
AcDbLine
 39
96.0
 10
44.759607
 20
39.26355
 30
0.0
 11
44.759607
 21
39.26355
 31
0.0
  0
LINE
  5
797
100
AcDbEntity
  8
BORDER
  6
CONTINUOUS
 62
     2
100
AcDbLine
 39
96.0
 10
44.290807
 20
39.26355
 30
0.0
 11
44.290807
 21
39.26355
 31
0.0
  0
LINE
  5
798
100
AcDbEntity
  8
BORDER
  6
CONTINUOUS
 62
     2
100
AcDbLine
 39
96.0
 10
45.931407
 20
39.73225
 30
0.0
 11
45.931407
 21
39.73225
 31
0.0
  0
LINE
  5
799
100
AcDbEntity
  8
BORDER
  6
CONTINUOUS
 62
     2
100
AcDbLine
 39
96.0
 10
45.462707
 20
39.73225
 30
0.0
 11
45.462707
 21
39.73225
 31
0.0
  0
LINE
  5
79A
100
AcDbEntity
  8
BORDER
  6
CONTINUOUS
 62
     2
100
AcDbLine
 39
96.0
 10
44.993907
 20
39.73225
 30
0.0
 11
44.993907
 21
39.73225
 31
0.0
  0
LINE
  5
79B
100
AcDbEntity
  8
BORDER
  6
CONTINUOUS
 62
     2
100
AcDbLine
 39
96.0
 10
44.525207
 20
39.73225
 30
0.0
 11
44.525207
 21
39.73225
 31
0.0
  0
LINE
  5
79C
100
AcDbEntity
  8
BORDER
  6
CONTINUOUS
 62
     2
100
AcDbLine
 39
96.0
 10
45.697107
 20
40.20105
 30
0.0
 11
45.697107
 21
40.20105
 31
0.0
  0
LINE
  5
79D
100
AcDbEntity
  8
BORDER
  6
CONTINUOUS
 62
     2
100
AcDbLine
 39
96.0
 10
45.228307
 20
40.20105
 30
0.0
 11
45.228307
 21
40.20105
 31
0.0
  0
LINE
  5
79E
100
AcDbEntity
  8
BORDER
  6
CONTINUOUS
 62
     2
100
AcDbLine
 39
96.0
 10
44.759607
 20
40.20105
 30
0.0
 11
44.759607
 21
40.20105
 31
0.0
  0
LINE
  5
79F
100
AcDbEntity
  8
BORDER
  6
CONTINUOUS
 62
     2
100
AcDbLine
 39
96.0
 10
44.290807
 20
40.20105
 30
0.0
 11
44.290807
 21
40.20105
 31
0.0
  0
LINE
  5
7A0
100
AcDbEntity
  8
BORDER
  6
CONTINUOUS
 62
     2
100
AcDbLine
 39
96.0
 10
45.931407
 20
40.66975
 30
0.0
 11
45.931407
 21
40.66975
 31
0.0
  0
LINE
  5
7A1
100
AcDbEntity
  8
BORDER
  6
CONTINUOUS
 62
     2
100
AcDbLine
 39
96.0
 10
45.462707
 20
40.66975
 30
0.0
 11
45.462707
 21
40.66975
 31
0.0
  0
LINE
  5
7A2
100
AcDbEntity
  8
BORDER
  6
CONTINUOUS
 62
     2
100
AcDbLine
 39
96.0
 10
44.993907
 20
40.66975
 30
0.0
 11
44.993907
 21
40.66975
 31
0.0
  0
LINE
  5
7A3
100
AcDbEntity
  8
BORDER
  6
CONTINUOUS
 62
     2
100
AcDbLine
 39
96.0
 10
44.525207
 20
40.66975
 30
0.0
 11
44.525207
 21
40.66975
 31
0.0
  0
LINE
  5
7A4
100
AcDbEntity
  8
BORDER
  6
CONTINUOUS
 62
     2
100
AcDbLine
 39
96.0
 10
45.697107
 20
41.13855
 30
0.0
 11
45.697107
 21
41.13855
 31
0.0
  0
LINE
  5
7A5
100
AcDbEntity
  8
BORDER
  6
CONTINUOUS
 62
     2
100
AcDbLine
 39
96.0
 10
45.228307
 20
41.13855
 30
0.0
 11
45.228307
 21
41.13855
 31
0.0
  0
LINE
  5
7A6
100
AcDbEntity
  8
BORDER
  6
CONTINUOUS
 62
     2
100
AcDbLine
 39
96.0
 10
44.759607
 20
41.13855
 30
0.0
 11
44.759607
 21
41.13855
 31
0.0
  0
LINE
  5
7A7
100
AcDbEntity
  8
BORDER
  6
CONTINUOUS
 62
     2
100
AcDbLine
 39
96.0
 10
44.290807
 20
41.13855
 30
0.0
 11
44.290807
 21
41.13855
 31
0.0
  0
LINE
  5
7A8
100
AcDbEntity
  8
BORDER
  6
CONTINUOUS
 62
     2
100
AcDbLine
 39
96.0
 10
45.931407
 20
41.60725
 30
0.0
 11
45.931407
 21
41.60725
 31
0.0
  0
LINE
  5
7A9
100
AcDbEntity
  8
BORDER
  6
CONTINUOUS
 62
     2
100
AcDbLine
 39
96.0
 10
45.462707
 20
41.60725
 30
0.0
 11
45.462707
 21
41.60725
 31
0.0
  0
LINE
  5
7AA
100
AcDbEntity
  8
BORDER
  6
CONTINUOUS
 62
     2
100
AcDbLine
 39
96.0
 10
44.993907
 20
41.60725
 30
0.0
 11
44.993907
 21
41.60725
 31
0.0
  0
LINE
  5
7AB
100
AcDbEntity
  8
BORDER
  6
CONTINUOUS
 62
     2
100
AcDbLine
 39
96.0
 10
44.525207
 20
41.60725
 30
0.0
 11
44.525207
 21
41.60725
 31
0.0
  0
LINE
  5
7AC
100
AcDbEntity
  8
BORDER
  6
CONTINUOUS
 62
     2
100
AcDbLine
 39
96.0
 10
45.697107
 20
42.07605
 30
0.0
 11
45.697107
 21
42.07605
 31
0.0
  0
LINE
  5
7AD
100
AcDbEntity
  8
BORDER
  6
CONTINUOUS
 62
     2
100
AcDbLine
 39
96.0
 10
45.228307
 20
42.07605
 30
0.0
 11
45.228307
 21
42.07605
 31
0.0
  0
LINE
  5
7AE
100
AcDbEntity
  8
BORDER
  6
CONTINUOUS
 62
     2
100
AcDbLine
 39
96.0
 10
44.759607
 20
42.07605
 30
0.0
 11
44.759607
 21
42.07605
 31
0.0
  0
LINE
  5
7AF
100
AcDbEntity
  8
BORDER
  6
CONTINUOUS
 62
     2
100
AcDbLine
 39
96.0
 10
44.290807
 20
42.07605
 30
0.0
 11
44.290807
 21
42.07605
 31
0.0
  0
LINE
  5
7B0
100
AcDbEntity
  8
BORDER
  6
CONTINUOUS
 62
     2
100
AcDbLine
 39
96.0
 10
45.931407
 20
42.54475
 30
0.0
 11
45.931407
 21
42.54475
 31
0.0
  0
LINE
  5
7B1
100
AcDbEntity
  8
BORDER
  6
CONTINUOUS
 62
     2
100
AcDbLine
 39
96.0
 10
45.462707
 20
42.54475
 30
0.0
 11
45.462707
 21
42.54475
 31
0.0
  0
LINE
  5
7B2
100
AcDbEntity
  8
BORDER
  6
CONTINUOUS
 62
     2
100
AcDbLine
 39
96.0
 10
44.993907
 20
42.54475
 30
0.0
 11
44.993907
 21
42.54475
 31
0.0
  0
LINE
  5
7B3
100
AcDbEntity
  8
BORDER
  6
CONTINUOUS
 62
     2
100
AcDbLine
 39
96.0
 10
44.525207
 20
42.54475
 30
0.0
 11
44.525207
 21
42.54475
 31
0.0
  0
LINE
  5
7B4
100
AcDbEntity
  8
BORDER
  6
CONTINUOUS
 62
     2
100
AcDbLine
 39
96.0
 10
45.697107
 20
43.01355
 30
0.0
 11
45.697107
 21
43.01355
 31
0.0
  0
LINE
  5
7B5
100
AcDbEntity
  8
BORDER
  6
CONTINUOUS
 62
     2
100
AcDbLine
 39
96.0
 10
45.228307
 20
43.01355
 30
0.0
 11
45.228307
 21
43.01355
 31
0.0
  0
LINE
  5
7B6
100
AcDbEntity
  8
BORDER
  6
CONTINUOUS
 62
     2
100
AcDbLine
 39
96.0
 10
44.759607
 20
43.01355
 30
0.0
 11
44.759607
 21
43.01355
 31
0.0
  0
LINE
  5
7B7
100
AcDbEntity
  8
BORDER
  6
CONTINUOUS
 62
     2
100
AcDbLine
 39
96.0
 10
44.290807
 20
43.01355
 30
0.0
 11
44.290807
 21
43.01355
 31
0.0
  0
LINE
  5
7B8
100
AcDbEntity
  8
BORDER
  6
CONTINUOUS
 62
     2
100
AcDbLine
 39
96.0
 10
45.931407
 20
43.48225
 30
0.0
 11
45.931407
 21
43.48225
 31
0.0
  0
LINE
  5
7B9
100
AcDbEntity
  8
BORDER
  6
CONTINUOUS
 62
     2
100
AcDbLine
 39
96.0
 10
45.462707
 20
43.48225
 30
0.0
 11
45.462707
 21
43.48225
 31
0.0
  0
LINE
  5
7BA
100
AcDbEntity
  8
BORDER
  6
CONTINUOUS
 62
     2
100
AcDbLine
 39
96.0
 10
44.993907
 20
43.48225
 30
0.0
 11
44.993907
 21
43.48225
 31
0.0
  0
LINE
  5
7BB
100
AcDbEntity
  8
BORDER
  6
CONTINUOUS
 62
     2
100
AcDbLine
 39
96.0
 10
44.525207
 20
43.48225
 30
0.0
 11
44.525207
 21
43.48225
 31
0.0
  0
LINE
  5
7BC
100
AcDbEntity
  8
BORDER
  6
CONTINUOUS
 62
     2
100
AcDbLine
 39
96.0
 10
45.697107
 20
43.95105
 30
0.0
 11
45.697107
 21
43.95105
 31
0.0
  0
LINE
  5
7BD
100
AcDbEntity
  8
BORDER
  6
CONTINUOUS
 62
     2
100
AcDbLine
 39
96.0
 10
45.228307
 20
43.95105
 30
0.0
 11
45.228307
 21
43.95105
 31
0.0
  0
LINE
  5
7BE
100
AcDbEntity
  8
BORDER
  6
CONTINUOUS
 62
     2
100
AcDbLine
 39
96.0
 10
44.759607
 20
43.95105
 30
0.0
 11
44.759607
 21
43.95105
 31
0.0
  0
LINE
  5
7BF
100
AcDbEntity
  8
BORDER
  6
CONTINUOUS
 62
     2
100
AcDbLine
 39
96.0
 10
44.290807
 20
43.95105
 30
0.0
 11
44.290807
 21
43.95105
 31
0.0
  0
LINE
  5
7C0
100
AcDbEntity
  8
BORDER
  6
CONTINUOUS
 62
     2
100
AcDbLine
 39
96.0
 10
45.931407
 20
44.41975
 30
0.0
 11
45.931407
 21
44.41975
 31
0.0
  0
LINE
  5
7C1
100
AcDbEntity
  8
BORDER
  6
CONTINUOUS
 62
     2
100
AcDbLine
 39
96.0
 10
45.462707
 20
44.41975
 30
0.0
 11
45.462707
 21
44.41975
 31
0.0
  0
LINE
  5
7C2
100
AcDbEntity
  8
BORDER
  6
CONTINUOUS
 62
     2
100
AcDbLine
 39
96.0
 10
44.993907
 20
44.41975
 30
0.0
 11
44.993907
 21
44.41975
 31
0.0
  0
LINE
  5
7C3
100
AcDbEntity
  8
BORDER
  6
CONTINUOUS
 62
     2
100
AcDbLine
 39
96.0
 10
44.525207
 20
44.41975
 30
0.0
 11
44.525207
 21
44.41975
 31
0.0
  0
LINE
  5
7C4
100
AcDbEntity
  8
BORDER
  6
CONTINUOUS
 62
     2
100
AcDbLine
 39
96.0
 10
45.697107
 20
44.88855
 30
0.0
 11
45.697107
 21
44.88855
 31
0.0
  0
LINE
  5
7C5
100
AcDbEntity
  8
BORDER
  6
CONTINUOUS
 62
     2
100
AcDbLine
 39
96.0
 10
45.228307
 20
44.88855
 30
0.0
 11
45.228307
 21
44.88855
 31
0.0
  0
LINE
  5
7C6
100
AcDbEntity
  8
BORDER
  6
CONTINUOUS
 62
     2
100
AcDbLine
 39
96.0
 10
44.759607
 20
44.88855
 30
0.0
 11
44.759607
 21
44.88855
 31
0.0
  0
LINE
  5
7C7
100
AcDbEntity
  8
BORDER
  6
CONTINUOUS
 62
     2
100
AcDbLine
 39
96.0
 10
44.290807
 20
44.88855
 30
0.0
 11
44.290807
 21
44.88855
 31
0.0
  0
LINE
  5
7C8
100
AcDbEntity
  8
BORDER
  6
CONTINUOUS
 62
     2
100
AcDbLine
 39
96.0
 10
37.962707
 20
30.35725
 30
0.0
 11
37.962707
 21
30.35725
 31
0.0
  0
LINE
  5
7C9
100
AcDbEntity
  8
BORDER
  6
CONTINUOUS
 62
     2
100
AcDbLine
 39
96.0
 10
37.493907
 20
30.35725
 30
0.0
 11
37.493907
 21
30.35725
 31
0.0
  0
LINE
  5
7CA
100
AcDbEntity
  8
BORDER
  6
CONTINUOUS
 62
     2
100
AcDbLine
 39
96.0
 10
37.025207
 20
30.35725
 30
0.0
 11
37.025207
 21
30.35725
 31
0.0
  0
LINE
  5
7CB
100
AcDbEntity
  8
BORDER
  6
CONTINUOUS
 62
     2
100
AcDbLine
 39
96.0
 10
36.556407
 20
30.35725
 30
0.0
 11
36.556407
 21
30.35725
 31
0.0
  0
LINE
  5
7CC
100
AcDbEntity
  8
BORDER
  6
CONTINUOUS
 62
     2
100
AcDbLine
 39
96.0
 10
37.728307
 20
30.82605
 30
0.0
 11
37.728307
 21
30.82605
 31
0.0
  0
LINE
  5
7CD
100
AcDbEntity
  8
BORDER
  6
CONTINUOUS
 62
     2
100
AcDbLine
 39
96.0
 10
37.259607
 20
30.82605
 30
0.0
 11
37.259607
 21
30.82605
 31
0.0
  0
LINE
  5
7CE
100
AcDbEntity
  8
BORDER
  6
CONTINUOUS
 62
     2
100
AcDbLine
 39
96.0
 10
36.790807
 20
30.82605
 30
0.0
 11
36.790807
 21
30.82605
 31
0.0
  0
LINE
  5
7CF
100
AcDbEntity
  8
BORDER
  6
CONTINUOUS
 62
     2
100
AcDbLine
 39
96.0
 10
36.322107
 20
30.82605
 30
0.0
 11
36.322107
 21
30.82605
 31
0.0
  0
LINE
  5
7D0
100
AcDbEntity
  8
BORDER
  6
CONTINUOUS
 62
     2
100
AcDbLine
 39
96.0
 10
37.962707
 20
31.29475
 30
0.0
 11
37.962707
 21
31.29475
 31
0.0
  0
LINE
  5
7D1
100
AcDbEntity
  8
BORDER
  6
CONTINUOUS
 62
     2
100
AcDbLine
 39
96.0
 10
37.493907
 20
31.29475
 30
0.0
 11
37.493907
 21
31.29475
 31
0.0
  0
LINE
  5
7D2
100
AcDbEntity
  8
BORDER
  6
CONTINUOUS
 62
     2
100
AcDbLine
 39
96.0
 10
37.025207
 20
31.29475
 30
0.0
 11
37.025207
 21
31.29475
 31
0.0
  0
LINE
  5
7D3
100
AcDbEntity
  8
BORDER
  6
CONTINUOUS
 62
     2
100
AcDbLine
 39
96.0
 10
36.556407
 20
31.29475
 30
0.0
 11
36.556407
 21
31.29475
 31
0.0
  0
LINE
  5
7D4
100
AcDbEntity
  8
BORDER
  6
CONTINUOUS
 62
     2
100
AcDbLine
 39
96.0
 10
37.728307
 20
31.76355
 30
0.0
 11
37.728307
 21
31.76355
 31
0.0
  0
LINE
  5
7D5
100
AcDbEntity
  8
BORDER
  6
CONTINUOUS
 62
     2
100
AcDbLine
 39
96.0
 10
37.259607
 20
31.76355
 30
0.0
 11
37.259607
 21
31.76355
 31
0.0
  0
LINE
  5
7D6
100
AcDbEntity
  8
BORDER
  6
CONTINUOUS
 62
     2
100
AcDbLine
 39
96.0
 10
36.790807
 20
31.76355
 30
0.0
 11
36.790807
 21
31.76355
 31
0.0
  0
LINE
  5
7D7
100
AcDbEntity
  8
BORDER
  6
CONTINUOUS
 62
     2
100
AcDbLine
 39
96.0
 10
36.322107
 20
31.76355
 30
0.0
 11
36.322107
 21
31.76355
 31
0.0
  0
LINE
  5
7D8
100
AcDbEntity
  8
BORDER
  6
CONTINUOUS
 62
     2
100
AcDbLine
 39
96.0
 10
37.962707
 20
32.23225
 30
0.0
 11
37.962707
 21
32.23225
 31
0.0
  0
LINE
  5
7D9
100
AcDbEntity
  8
BORDER
  6
CONTINUOUS
 62
     2
100
AcDbLine
 39
96.0
 10
37.493907
 20
32.23225
 30
0.0
 11
37.493907
 21
32.23225
 31
0.0
  0
LINE
  5
7DA
100
AcDbEntity
  8
BORDER
  6
CONTINUOUS
 62
     2
100
AcDbLine
 39
96.0
 10
37.025207
 20
32.23225
 30
0.0
 11
37.025207
 21
32.23225
 31
0.0
  0
LINE
  5
7DB
100
AcDbEntity
  8
BORDER
  6
CONTINUOUS
 62
     2
100
AcDbLine
 39
96.0
 10
36.556407
 20
32.23225
 30
0.0
 11
36.556407
 21
32.23225
 31
0.0
  0
LINE
  5
7DC
100
AcDbEntity
  8
BORDER
  6
CONTINUOUS
 62
     2
100
AcDbLine
 39
96.0
 10
37.728307
 20
32.70105
 30
0.0
 11
37.728307
 21
32.70105
 31
0.0
  0
LINE
  5
7DD
100
AcDbEntity
  8
BORDER
  6
CONTINUOUS
 62
     2
100
AcDbLine
 39
96.0
 10
37.259607
 20
32.70105
 30
0.0
 11
37.259607
 21
32.70105
 31
0.0
  0
LINE
  5
7DE
100
AcDbEntity
  8
BORDER
  6
CONTINUOUS
 62
     2
100
AcDbLine
 39
96.0
 10
36.790807
 20
32.70105
 30
0.0
 11
36.790807
 21
32.70105
 31
0.0
  0
LINE
  5
7DF
100
AcDbEntity
  8
BORDER
  6
CONTINUOUS
 62
     2
100
AcDbLine
 39
96.0
 10
36.322107
 20
32.70105
 30
0.0
 11
36.322107
 21
32.70105
 31
0.0
  0
LINE
  5
7E0
100
AcDbEntity
  8
BORDER
  6
CONTINUOUS
 62
     2
100
AcDbLine
 39
96.0
 10
37.962707
 20
33.16975
 30
0.0
 11
37.962707
 21
33.16975
 31
0.0
  0
LINE
  5
7E1
100
AcDbEntity
  8
BORDER
  6
CONTINUOUS
 62
     2
100
AcDbLine
 39
96.0
 10
37.493907
 20
33.16975
 30
0.0
 11
37.493907
 21
33.16975
 31
0.0
  0
LINE
  5
7E2
100
AcDbEntity
  8
BORDER
  6
CONTINUOUS
 62
     2
100
AcDbLine
 39
96.0
 10
37.025207
 20
33.16975
 30
0.0
 11
37.025207
 21
33.16975
 31
0.0
  0
LINE
  5
7E3
100
AcDbEntity
  8
BORDER
  6
CONTINUOUS
 62
     2
100
AcDbLine
 39
96.0
 10
36.556407
 20
33.16975
 30
0.0
 11
36.556407
 21
33.16975
 31
0.0
  0
LINE
  5
7E4
100
AcDbEntity
  8
BORDER
  6
CONTINUOUS
 62
     2
100
AcDbLine
 39
96.0
 10
37.728307
 20
33.63855
 30
0.0
 11
37.728307
 21
33.63855
 31
0.0
  0
LINE
  5
7E5
100
AcDbEntity
  8
BORDER
  6
CONTINUOUS
 62
     2
100
AcDbLine
 39
96.0
 10
37.259607
 20
33.63855
 30
0.0
 11
37.259607
 21
33.63855
 31
0.0
  0
LINE
  5
7E6
100
AcDbEntity
  8
BORDER
  6
CONTINUOUS
 62
     2
100
AcDbLine
 39
96.0
 10
36.790807
 20
33.63855
 30
0.0
 11
36.790807
 21
33.63855
 31
0.0
  0
LINE
  5
7E7
100
AcDbEntity
  8
BORDER
  6
CONTINUOUS
 62
     2
100
AcDbLine
 39
96.0
 10
36.322107
 20
33.63855
 30
0.0
 11
36.322107
 21
33.63855
 31
0.0
  0
LINE
  5
7E8
100
AcDbEntity
  8
BORDER
  6
CONTINUOUS
 62
     2
100
AcDbLine
 39
96.0
 10
37.962707
 20
34.10725
 30
0.0
 11
37.962707
 21
34.10725
 31
0.0
  0
LINE
  5
7E9
100
AcDbEntity
  8
BORDER
  6
CONTINUOUS
 62
     2
100
AcDbLine
 39
96.0
 10
37.493907
 20
34.10725
 30
0.0
 11
37.493907
 21
34.10725
 31
0.0
  0
LINE
  5
7EA
100
AcDbEntity
  8
BORDER
  6
CONTINUOUS
 62
     2
100
AcDbLine
 39
96.0
 10
37.025207
 20
34.10725
 30
0.0
 11
37.025207
 21
34.10725
 31
0.0
  0
LINE
  5
7EB
100
AcDbEntity
  8
BORDER
  6
CONTINUOUS
 62
     2
100
AcDbLine
 39
96.0
 10
36.556407
 20
34.10725
 30
0.0
 11
36.556407
 21
34.10725
 31
0.0
  0
LINE
  5
7EC
100
AcDbEntity
  8
BORDER
  6
CONTINUOUS
 62
     2
100
AcDbLine
 39
96.0
 10
37.728307
 20
34.57605
 30
0.0
 11
37.728307
 21
34.57605
 31
0.0
  0
LINE
  5
7ED
100
AcDbEntity
  8
BORDER
  6
CONTINUOUS
 62
     2
100
AcDbLine
 39
96.0
 10
37.259607
 20
34.57605
 30
0.0
 11
37.259607
 21
34.57605
 31
0.0
  0
LINE
  5
7EE
100
AcDbEntity
  8
BORDER
  6
CONTINUOUS
 62
     2
100
AcDbLine
 39
96.0
 10
36.790807
 20
34.57605
 30
0.0
 11
36.790807
 21
34.57605
 31
0.0
  0
LINE
  5
7EF
100
AcDbEntity
  8
BORDER
  6
CONTINUOUS
 62
     2
100
AcDbLine
 39
96.0
 10
36.322107
 20
34.57605
 30
0.0
 11
36.322107
 21
34.57605
 31
0.0
  0
LINE
  5
7F0
100
AcDbEntity
  8
BORDER
  6
CONTINUOUS
 62
     2
100
AcDbLine
 39
96.0
 10
37.962707
 20
35.04475
 30
0.0
 11
37.962707
 21
35.04475
 31
0.0
  0
LINE
  5
7F1
100
AcDbEntity
  8
BORDER
  6
CONTINUOUS
 62
     2
100
AcDbLine
 39
96.0
 10
37.493907
 20
35.04475
 30
0.0
 11
37.493907
 21
35.04475
 31
0.0
  0
LINE
  5
7F2
100
AcDbEntity
  8
BORDER
  6
CONTINUOUS
 62
     2
100
AcDbLine
 39
96.0
 10
37.025207
 20
35.04475
 30
0.0
 11
37.025207
 21
35.04475
 31
0.0
  0
LINE
  5
7F3
100
AcDbEntity
  8
BORDER
  6
CONTINUOUS
 62
     2
100
AcDbLine
 39
96.0
 10
36.556407
 20
35.04475
 30
0.0
 11
36.556407
 21
35.04475
 31
0.0
  0
LINE
  5
7F4
100
AcDbEntity
  8
BORDER
  6
CONTINUOUS
 62
     2
100
AcDbLine
 39
96.0
 10
37.728307
 20
35.51355
 30
0.0
 11
37.728307
 21
35.51355
 31
0.0
  0
LINE
  5
7F5
100
AcDbEntity
  8
BORDER
  6
CONTINUOUS
 62
     2
100
AcDbLine
 39
96.0
 10
37.259607
 20
35.51355
 30
0.0
 11
37.259607
 21
35.51355
 31
0.0
  0
LINE
  5
7F6
100
AcDbEntity
  8
BORDER
  6
CONTINUOUS
 62
     2
100
AcDbLine
 39
96.0
 10
36.790807
 20
35.51355
 30
0.0
 11
36.790807
 21
35.51355
 31
0.0
  0
LINE
  5
7F7
100
AcDbEntity
  8
BORDER
  6
CONTINUOUS
 62
     2
100
AcDbLine
 39
96.0
 10
36.322107
 20
35.51355
 30
0.0
 11
36.322107
 21
35.51355
 31
0.0
  0
LINE
  5
7F8
100
AcDbEntity
  8
BORDER
  6
CONTINUOUS
 62
     2
100
AcDbLine
 39
96.0
 10
37.962707
 20
35.98225
 30
0.0
 11
37.962707
 21
35.98225
 31
0.0
  0
LINE
  5
7F9
100
AcDbEntity
  8
BORDER
  6
CONTINUOUS
 62
     2
100
AcDbLine
 39
96.0
 10
37.493907
 20
35.98225
 30
0.0
 11
37.493907
 21
35.98225
 31
0.0
  0
LINE
  5
7FA
100
AcDbEntity
  8
BORDER
  6
CONTINUOUS
 62
     2
100
AcDbLine
 39
96.0
 10
37.025207
 20
35.98225
 30
0.0
 11
37.025207
 21
35.98225
 31
0.0
  0
LINE
  5
7FB
100
AcDbEntity
  8
BORDER
  6
CONTINUOUS
 62
     2
100
AcDbLine
 39
96.0
 10
36.556407
 20
35.98225
 30
0.0
 11
36.556407
 21
35.98225
 31
0.0
  0
LINE
  5
7FC
100
AcDbEntity
  8
BORDER
  6
CONTINUOUS
 62
     2
100
AcDbLine
 39
96.0
 10
37.728307
 20
36.45105
 30
0.0
 11
37.728307
 21
36.45105
 31
0.0
  0
LINE
  5
7FD
100
AcDbEntity
  8
BORDER
  6
CONTINUOUS
 62
     2
100
AcDbLine
 39
96.0
 10
37.259607
 20
36.45105
 30
0.0
 11
37.259607
 21
36.45105
 31
0.0
  0
LINE
  5
7FE
100
AcDbEntity
  8
BORDER
  6
CONTINUOUS
 62
     2
100
AcDbLine
 39
96.0
 10
36.790807
 20
36.45105
 30
0.0
 11
36.790807
 21
36.45105
 31
0.0
  0
LINE
  5
7FF
100
AcDbEntity
  8
BORDER
  6
CONTINUOUS
 62
     2
100
AcDbLine
 39
96.0
 10
36.322107
 20
36.45105
 30
0.0
 11
36.322107
 21
36.45105
 31
0.0
  0
LINE
  5
800
100
AcDbEntity
  8
BORDER
  6
CONTINUOUS
 62
     2
100
AcDbLine
 39
96.0
 10
37.962707
 20
36.91975
 30
0.0
 11
37.962707
 21
36.91975
 31
0.0
  0
LINE
  5
801
100
AcDbEntity
  8
BORDER
  6
CONTINUOUS
 62
     2
100
AcDbLine
 39
96.0
 10
37.493907
 20
36.91975
 30
0.0
 11
37.493907
 21
36.91975
 31
0.0
  0
LINE
  5
802
100
AcDbEntity
  8
BORDER
  6
CONTINUOUS
 62
     2
100
AcDbLine
 39
96.0
 10
37.025207
 20
36.91975
 30
0.0
 11
37.025207
 21
36.91975
 31
0.0
  0
LINE
  5
803
100
AcDbEntity
  8
BORDER
  6
CONTINUOUS
 62
     2
100
AcDbLine
 39
96.0
 10
36.556407
 20
36.91975
 30
0.0
 11
36.556407
 21
36.91975
 31
0.0
  0
LINE
  5
804
100
AcDbEntity
  8
BORDER
  6
CONTINUOUS
 62
     2
100
AcDbLine
 39
96.0
 10
37.728307
 20
37.38855
 30
0.0
 11
37.728307
 21
37.38855
 31
0.0
  0
LINE
  5
805
100
AcDbEntity
  8
BORDER
  6
CONTINUOUS
 62
     2
100
AcDbLine
 39
96.0
 10
37.259607
 20
37.38855
 30
0.0
 11
37.259607
 21
37.38855
 31
0.0
  0
LINE
  5
806
100
AcDbEntity
  8
BORDER
  6
CONTINUOUS
 62
     2
100
AcDbLine
 39
96.0
 10
36.790807
 20
37.38855
 30
0.0
 11
36.790807
 21
37.38855
 31
0.0
  0
LINE
  5
807
100
AcDbEntity
  8
BORDER
  6
CONTINUOUS
 62
     2
100
AcDbLine
 39
96.0
 10
36.322107
 20
37.38855
 30
0.0
 11
36.322107
 21
37.38855
 31
0.0
  0
LINE
  5
808
100
AcDbEntity
  8
BORDER
  6
CONTINUOUS
 62
     2
100
AcDbLine
 39
96.0
 10
37.962707
 20
37.85725
 30
0.0
 11
37.962707
 21
37.85725
 31
0.0
  0
LINE
  5
809
100
AcDbEntity
  8
BORDER
  6
CONTINUOUS
 62
     2
100
AcDbLine
 39
96.0
 10
37.493907
 20
37.85725
 30
0.0
 11
37.493907
 21
37.85725
 31
0.0
  0
LINE
  5
80A
100
AcDbEntity
  8
BORDER
  6
CONTINUOUS
 62
     2
100
AcDbLine
 39
96.0
 10
37.025207
 20
37.85725
 30
0.0
 11
37.025207
 21
37.85725
 31
0.0
  0
LINE
  5
80B
100
AcDbEntity
  8
BORDER
  6
CONTINUOUS
 62
     2
100
AcDbLine
 39
96.0
 10
36.556407
 20
37.85725
 30
0.0
 11
36.556407
 21
37.85725
 31
0.0
  0
LINE
  5
80C
100
AcDbEntity
  8
BORDER
  6
CONTINUOUS
 62
     2
100
AcDbLine
 39
96.0
 10
37.728307
 20
38.32605
 30
0.0
 11
37.728307
 21
38.32605
 31
0.0
  0
LINE
  5
80D
100
AcDbEntity
  8
BORDER
  6
CONTINUOUS
 62
     2
100
AcDbLine
 39
96.0
 10
37.259607
 20
38.32605
 30
0.0
 11
37.259607
 21
38.32605
 31
0.0
  0
LINE
  5
80E
100
AcDbEntity
  8
BORDER
  6
CONTINUOUS
 62
     2
100
AcDbLine
 39
96.0
 10
36.790807
 20
38.32605
 30
0.0
 11
36.790807
 21
38.32605
 31
0.0
  0
LINE
  5
80F
100
AcDbEntity
  8
BORDER
  6
CONTINUOUS
 62
     2
100
AcDbLine
 39
96.0
 10
36.322107
 20
38.32605
 30
0.0
 11
36.322107
 21
38.32605
 31
0.0
  0
LINE
  5
810
100
AcDbEntity
  8
BORDER
  6
CONTINUOUS
 62
     2
100
AcDbLine
 39
96.0
 10
37.962707
 20
38.79475
 30
0.0
 11
37.962707
 21
38.79475
 31
0.0
  0
LINE
  5
811
100
AcDbEntity
  8
BORDER
  6
CONTINUOUS
 62
     2
100
AcDbLine
 39
96.0
 10
37.493907
 20
38.79475
 30
0.0
 11
37.493907
 21
38.79475
 31
0.0
  0
LINE
  5
812
100
AcDbEntity
  8
BORDER
  6
CONTINUOUS
 62
     2
100
AcDbLine
 39
96.0
 10
37.025207
 20
38.79475
 30
0.0
 11
37.025207
 21
38.79475
 31
0.0
  0
LINE
  5
813
100
AcDbEntity
  8
BORDER
  6
CONTINUOUS
 62
     2
100
AcDbLine
 39
96.0
 10
36.556407
 20
38.79475
 30
0.0
 11
36.556407
 21
38.79475
 31
0.0
  0
LINE
  5
814
100
AcDbEntity
  8
BORDER
  6
CONTINUOUS
 62
     2
100
AcDbLine
 39
96.0
 10
37.728307
 20
39.26355
 30
0.0
 11
37.728307
 21
39.26355
 31
0.0
  0
LINE
  5
815
100
AcDbEntity
  8
BORDER
  6
CONTINUOUS
 62
     2
100
AcDbLine
 39
96.0
 10
37.259607
 20
39.26355
 30
0.0
 11
37.259607
 21
39.26355
 31
0.0
  0
LINE
  5
816
100
AcDbEntity
  8
BORDER
  6
CONTINUOUS
 62
     2
100
AcDbLine
 39
96.0
 10
36.790807
 20
39.26355
 30
0.0
 11
36.790807
 21
39.26355
 31
0.0
  0
LINE
  5
817
100
AcDbEntity
  8
BORDER
  6
CONTINUOUS
 62
     2
100
AcDbLine
 39
96.0
 10
36.322107
 20
39.26355
 30
0.0
 11
36.322107
 21
39.26355
 31
0.0
  0
LINE
  5
818
100
AcDbEntity
  8
BORDER
  6
CONTINUOUS
 62
     2
100
AcDbLine
 39
96.0
 10
37.962707
 20
39.73225
 30
0.0
 11
37.962707
 21
39.73225
 31
0.0
  0
LINE
  5
819
100
AcDbEntity
  8
BORDER
  6
CONTINUOUS
 62
     2
100
AcDbLine
 39
96.0
 10
37.493907
 20
39.73225
 30
0.0
 11
37.493907
 21
39.73225
 31
0.0
  0
LINE
  5
81A
100
AcDbEntity
  8
BORDER
  6
CONTINUOUS
 62
     2
100
AcDbLine
 39
96.0
 10
37.025207
 20
39.73225
 30
0.0
 11
37.025207
 21
39.73225
 31
0.0
  0
LINE
  5
81B
100
AcDbEntity
  8
BORDER
  6
CONTINUOUS
 62
     2
100
AcDbLine
 39
96.0
 10
36.556407
 20
39.73225
 30
0.0
 11
36.556407
 21
39.73225
 31
0.0
  0
LINE
  5
81C
100
AcDbEntity
  8
BORDER
  6
CONTINUOUS
 62
     2
100
AcDbLine
 39
96.0
 10
37.728307
 20
40.20105
 30
0.0
 11
37.728307
 21
40.20105
 31
0.0
  0
LINE
  5
81D
100
AcDbEntity
  8
BORDER
  6
CONTINUOUS
 62
     2
100
AcDbLine
 39
96.0
 10
37.259607
 20
40.20105
 30
0.0
 11
37.259607
 21
40.20105
 31
0.0
  0
LINE
  5
81E
100
AcDbEntity
  8
BORDER
  6
CONTINUOUS
 62
     2
100
AcDbLine
 39
96.0
 10
36.790807
 20
40.20105
 30
0.0
 11
36.790807
 21
40.20105
 31
0.0
  0
LINE
  5
81F
100
AcDbEntity
  8
BORDER
  6
CONTINUOUS
 62
     2
100
AcDbLine
 39
96.0
 10
36.322107
 20
40.20105
 30
0.0
 11
36.322107
 21
40.20105
 31
0.0
  0
LINE
  5
820
100
AcDbEntity
  8
BORDER
  6
CONTINUOUS
 62
     2
100
AcDbLine
 39
96.0
 10
37.962707
 20
40.66975
 30
0.0
 11
37.962707
 21
40.66975
 31
0.0
  0
LINE
  5
821
100
AcDbEntity
  8
BORDER
  6
CONTINUOUS
 62
     2
100
AcDbLine
 39
96.0
 10
37.493907
 20
40.66975
 30
0.0
 11
37.493907
 21
40.66975
 31
0.0
  0
LINE
  5
822
100
AcDbEntity
  8
BORDER
  6
CONTINUOUS
 62
     2
100
AcDbLine
 39
96.0
 10
37.025207
 20
40.66975
 30
0.0
 11
37.025207
 21
40.66975
 31
0.0
  0
LINE
  5
823
100
AcDbEntity
  8
BORDER
  6
CONTINUOUS
 62
     2
100
AcDbLine
 39
96.0
 10
36.556407
 20
40.66975
 30
0.0
 11
36.556407
 21
40.66975
 31
0.0
  0
LINE
  5
824
100
AcDbEntity
  8
BORDER
  6
CONTINUOUS
 62
     2
100
AcDbLine
 39
96.0
 10
37.728307
 20
41.13855
 30
0.0
 11
37.728307
 21
41.13855
 31
0.0
  0
LINE
  5
825
100
AcDbEntity
  8
BORDER
  6
CONTINUOUS
 62
     2
100
AcDbLine
 39
96.0
 10
37.259607
 20
41.13855
 30
0.0
 11
37.259607
 21
41.13855
 31
0.0
  0
LINE
  5
826
100
AcDbEntity
  8
BORDER
  6
CONTINUOUS
 62
     2
100
AcDbLine
 39
96.0
 10
36.790807
 20
41.13855
 30
0.0
 11
36.790807
 21
41.13855
 31
0.0
  0
LINE
  5
827
100
AcDbEntity
  8
BORDER
  6
CONTINUOUS
 62
     2
100
AcDbLine
 39
96.0
 10
36.322107
 20
41.13855
 30
0.0
 11
36.322107
 21
41.13855
 31
0.0
  0
LINE
  5
828
100
AcDbEntity
  8
BORDER
  6
CONTINUOUS
 62
     2
100
AcDbLine
 39
96.0
 10
37.962707
 20
41.60725
 30
0.0
 11
37.962707
 21
41.60725
 31
0.0
  0
LINE
  5
829
100
AcDbEntity
  8
BORDER
  6
CONTINUOUS
 62
     2
100
AcDbLine
 39
96.0
 10
37.493907
 20
41.60725
 30
0.0
 11
37.493907
 21
41.60725
 31
0.0
  0
LINE
  5
82A
100
AcDbEntity
  8
BORDER
  6
CONTINUOUS
 62
     2
100
AcDbLine
 39
96.0
 10
37.025207
 20
41.60725
 30
0.0
 11
37.025207
 21
41.60725
 31
0.0
  0
LINE
  5
82B
100
AcDbEntity
  8
BORDER
  6
CONTINUOUS
 62
     2
100
AcDbLine
 39
96.0
 10
36.556407
 20
41.60725
 30
0.0
 11
36.556407
 21
41.60725
 31
0.0
  0
LINE
  5
82C
100
AcDbEntity
  8
BORDER
  6
CONTINUOUS
 62
     2
100
AcDbLine
 39
96.0
 10
37.728307
 20
42.07605
 30
0.0
 11
37.728307
 21
42.07605
 31
0.0
  0
LINE
  5
82D
100
AcDbEntity
  8
BORDER
  6
CONTINUOUS
 62
     2
100
AcDbLine
 39
96.0
 10
37.259607
 20
42.07605
 30
0.0
 11
37.259607
 21
42.07605
 31
0.0
  0
LINE
  5
82E
100
AcDbEntity
  8
BORDER
  6
CONTINUOUS
 62
     2
100
AcDbLine
 39
96.0
 10
36.790807
 20
42.07605
 30
0.0
 11
36.790807
 21
42.07605
 31
0.0
  0
LINE
  5
82F
100
AcDbEntity
  8
BORDER
  6
CONTINUOUS
 62
     2
100
AcDbLine
 39
96.0
 10
36.322107
 20
42.07605
 30
0.0
 11
36.322107
 21
42.07605
 31
0.0
  0
LINE
  5
830
100
AcDbEntity
  8
BORDER
  6
CONTINUOUS
 62
     2
100
AcDbLine
 39
96.0
 10
37.962707
 20
42.54475
 30
0.0
 11
37.962707
 21
42.54475
 31
0.0
  0
LINE
  5
831
100
AcDbEntity
  8
BORDER
  6
CONTINUOUS
 62
     2
100
AcDbLine
 39
96.0
 10
37.493907
 20
42.54475
 30
0.0
 11
37.493907
 21
42.54475
 31
0.0
  0
LINE
  5
832
100
AcDbEntity
  8
BORDER
  6
CONTINUOUS
 62
     2
100
AcDbLine
 39
96.0
 10
37.025207
 20
42.54475
 30
0.0
 11
37.025207
 21
42.54475
 31
0.0
  0
LINE
  5
833
100
AcDbEntity
  8
BORDER
  6
CONTINUOUS
 62
     2
100
AcDbLine
 39
96.0
 10
36.556407
 20
42.54475
 30
0.0
 11
36.556407
 21
42.54475
 31
0.0
  0
LINE
  5
834
100
AcDbEntity
  8
BORDER
  6
CONTINUOUS
 62
     2
100
AcDbLine
 39
96.0
 10
37.728307
 20
43.01355
 30
0.0
 11
37.728307
 21
43.01355
 31
0.0
  0
LINE
  5
835
100
AcDbEntity
  8
BORDER
  6
CONTINUOUS
 62
     2
100
AcDbLine
 39
96.0
 10
37.259607
 20
43.01355
 30
0.0
 11
37.259607
 21
43.01355
 31
0.0
  0
LINE
  5
836
100
AcDbEntity
  8
BORDER
  6
CONTINUOUS
 62
     2
100
AcDbLine
 39
96.0
 10
36.790807
 20
43.01355
 30
0.0
 11
36.790807
 21
43.01355
 31
0.0
  0
LINE
  5
837
100
AcDbEntity
  8
BORDER
  6
CONTINUOUS
 62
     2
100
AcDbLine
 39
96.0
 10
36.322107
 20
43.01355
 30
0.0
 11
36.322107
 21
43.01355
 31
0.0
  0
LINE
  5
838
100
AcDbEntity
  8
BORDER
  6
CONTINUOUS
 62
     2
100
AcDbLine
 39
96.0
 10
37.962707
 20
43.48225
 30
0.0
 11
37.962707
 21
43.48225
 31
0.0
  0
LINE
  5
839
100
AcDbEntity
  8
BORDER
  6
CONTINUOUS
 62
     2
100
AcDbLine
 39
96.0
 10
37.493907
 20
43.48225
 30
0.0
 11
37.493907
 21
43.48225
 31
0.0
  0
LINE
  5
83A
100
AcDbEntity
  8
BORDER
  6
CONTINUOUS
 62
     2
100
AcDbLine
 39
96.0
 10
37.025207
 20
43.48225
 30
0.0
 11
37.025207
 21
43.48225
 31
0.0
  0
LINE
  5
83B
100
AcDbEntity
  8
BORDER
  6
CONTINUOUS
 62
     2
100
AcDbLine
 39
96.0
 10
36.556407
 20
43.48225
 30
0.0
 11
36.556407
 21
43.48225
 31
0.0
  0
LINE
  5
83C
100
AcDbEntity
  8
BORDER
  6
CONTINUOUS
 62
     2
100
AcDbLine
 39
96.0
 10
37.728307
 20
43.95105
 30
0.0
 11
37.728307
 21
43.95105
 31
0.0
  0
LINE
  5
83D
100
AcDbEntity
  8
BORDER
  6
CONTINUOUS
 62
     2
100
AcDbLine
 39
96.0
 10
37.259607
 20
43.95105
 30
0.0
 11
37.259607
 21
43.95105
 31
0.0
  0
LINE
  5
83E
100
AcDbEntity
  8
BORDER
  6
CONTINUOUS
 62
     2
100
AcDbLine
 39
96.0
 10
36.790807
 20
43.95105
 30
0.0
 11
36.790807
 21
43.95105
 31
0.0
  0
LINE
  5
83F
100
AcDbEntity
  8
BORDER
  6
CONTINUOUS
 62
     2
100
AcDbLine
 39
96.0
 10
36.322107
 20
43.95105
 30
0.0
 11
36.322107
 21
43.95105
 31
0.0
  0
LINE
  5
840
100
AcDbEntity
  8
BORDER
  6
CONTINUOUS
 62
     2
100
AcDbLine
 39
96.0
 10
37.962707
 20
44.41975
 30
0.0
 11
37.962707
 21
44.41975
 31
0.0
  0
LINE
  5
841
100
AcDbEntity
  8
BORDER
  6
CONTINUOUS
 62
     2
100
AcDbLine
 39
96.0
 10
37.493907
 20
44.41975
 30
0.0
 11
37.493907
 21
44.41975
 31
0.0
  0
LINE
  5
842
100
AcDbEntity
  8
BORDER
  6
CONTINUOUS
 62
     2
100
AcDbLine
 39
96.0
 10
37.025207
 20
44.41975
 30
0.0
 11
37.025207
 21
44.41975
 31
0.0
  0
LINE
  5
843
100
AcDbEntity
  8
BORDER
  6
CONTINUOUS
 62
     2
100
AcDbLine
 39
96.0
 10
36.556407
 20
44.41975
 30
0.0
 11
36.556407
 21
44.41975
 31
0.0
  0
LINE
  5
844
100
AcDbEntity
  8
BORDER
  6
CONTINUOUS
 62
     2
100
AcDbLine
 39
96.0
 10
37.728307
 20
44.88855
 30
0.0
 11
37.728307
 21
44.88855
 31
0.0
  0
LINE
  5
845
100
AcDbEntity
  8
BORDER
  6
CONTINUOUS
 62
     2
100
AcDbLine
 39
96.0
 10
37.259607
 20
44.88855
 30
0.0
 11
37.259607
 21
44.88855
 31
0.0
  0
LINE
  5
846
100
AcDbEntity
  8
BORDER
  6
CONTINUOUS
 62
     2
100
AcDbLine
 39
96.0
 10
36.790807
 20
44.88855
 30
0.0
 11
36.790807
 21
44.88855
 31
0.0
  0
LINE
  5
847
100
AcDbEntity
  8
BORDER
  6
CONTINUOUS
 62
     2
100
AcDbLine
 39
96.0
 10
36.322107
 20
44.88855
 30
0.0
 11
36.322107
 21
44.88855
 31
0.0
  0
LINE
  5
848
100
AcDbEntity
  8
BORDER
  6
CONTINUOUS
 62
     1
100
AcDbLine
 39
96.0
 10
44.176307
 20
34.33795
 30
0.0
 11
44.187107
 21
34.39945
 31
0.0
  0
LINE
  5
849
100
AcDbEntity
  8
BORDER
  6
CONTINUOUS
 62
     1
100
AcDbLine
 39
96.0
 10
43.742207
 20
31.87595
 30
0.0
 11
43.753007
 21
31.93745
 31
0.0
  0
LINE
  5
84A
100
AcDbEntity
  8
BORDER
  6
CONTINUOUS
 62
     1
100
AcDbLine
 39
96.0
 10
42.582607
 20
41.19615
 30
0.0
 11
42.593307
 21
41.25765
 31
0.0
  0
LINE
  5
84B
100
AcDbEntity
  8
BORDER
  6
CONTINUOUS
 62
     1
100
AcDbLine
 39
96.0
 10
42.148507
 20
38.73405
 30
0.0
 11
42.159207
 21
38.79565
 31
0.0
  0
LINE
  5
84C
100
AcDbEntity
  8
BORDER
  6
CONTINUOUS
 62
     1
100
AcDbLine
 39
96.0
 10
41.714407
 20
36.27205
 30
0.0
 11
41.725107
 21
36.33355
 31
0.0
  0
LINE
  5
84D
100
AcDbEntity
  8
BORDER
  6
CONTINUOUS
 62
     1
100
AcDbLine
 39
96.0
 10
40.120907
 20
40.13025
 30
0.0
 11
40.131607
 21
40.19175
 31
0.0
  0
LINE
  5
84E
100
AcDbEntity
  8
BORDER
  6
CONTINUOUS
 62
     1
100
AcDbLine
 39
96.0
 10
39.686807
 20
37.66815
 30
0.0
 11
39.697607
 21
37.72965
 31
0.0
  0
LINE
  5
84F
100
AcDbEntity
  8
BORDER
  6
CONTINUOUS
 62
     1
100
AcDbLine
 39
96.0
 10
39.252707
 20
35.20615
 30
0.0
 11
39.263507
 21
35.26765
 31
0.0
  0
LINE
  5
850
100
AcDbEntity
  8
BORDER
  6
CONTINUOUS
 62
     1
100
AcDbLine
 39
96.0
 10
38.818707
 20
32.74405
 30
0.0
 11
38.829407
 21
32.80565
 31
0.0
  0
LINE
  5
851
100
AcDbEntity
  8
BORDER
  6
CONTINUOUS
 62
     1
100
AcDbLine
 39
96.0
 10
38.093107
 20
43.02635
 30
0.0
 11
38.103807
 21
43.08785
 31
0.0
  0
LINE
  5
852
100
AcDbEntity
  8
BORDER
  6
CONTINUOUS
 62
     1
100
AcDbLine
 39
96.0
 10
44.098007
 20
32.73435
 30
0.0
 11
44.133807
 21
32.78555
 31
0.0
  0
LINE
  5
853
100
AcDbEntity
  8
BORDER
  6
CONTINUOUS
 62
     1
100
AcDbLine
 39
96.0
 10
43.484407
 20
36.21605
 30
0.0
 11
43.520307
 21
36.26715
 31
0.0
  0
LINE
  5
854
100
AcDbEntity
  8
BORDER
  6
CONTINUOUS
 62
     1
100
AcDbLine
 39
96.0
 10
42.050307
 20
35.66815
 30
0.0
 11
42.086207
 21
35.71935
 31
0.0
  0
LINE
  5
855
100
AcDbEntity
  8
BORDER
  6
CONTINUOUS
 62
     1
100
AcDbLine
 39
96.0
 10
42.870707
 20
41.19785
 30
0.0
 11
42.906507
 21
41.24895
 31
0.0
  0
LINE
  5
856
100
AcDbEntity
  8
BORDER
  6
CONTINUOUS
 62
     1
100
AcDbLine
 39
96.0
 10
41.436607
 20
39.14995
 30
0.0
 11
41.472507
 21
39.20115
 31
0.0
  0
LINE
  5
857
100
AcDbEntity
  8
BORDER
  6
CONTINUOUS
 62
     1
100
AcDbLine
 39
96.0
 10
40.002507
 20
35.60205
 30
0.0
 11
40.038407
 21
35.65325
 31
0.0
  0
LINE
  5
858
100
AcDbEntity
  8
BORDER
  6
CONTINUOUS
 62
     1
100
AcDbLine
 39
96.0
 10
38.568407
 20
33.55415
 30
0.0
 11
38.604307
 21
33.60535
 31
0.0
  0
LINE
  5
859
100
AcDbEntity
  8
BORDER
  6
CONTINUOUS
 62
     1
100
AcDbLine
 39
96.0
 10
39.388707
 20
39.08385
 30
0.0
 11
39.424607
 21
39.13495
 31
0.0
  0
LINE
  5
85A
100
AcDbEntity
  8
BORDER
  6
CONTINUOUS
 62
     1
100
AcDbLine
 39
96.0
 10
38.774707
 20
42.56565
 30
0.0
 11
38.810607
 21
42.61685
 31
0.0
  0
LINE
  5
85B
100
AcDbEntity
  8
BORDER
  6
CONTINUOUS
 62
     1
100
AcDbLine
 39
96.0
 10
43.432207
 20
32.31685
 30
0.0
 11
43.491007
 21
32.33825
 31
0.0
  0
LINE
  5
85C
100
AcDbEntity
  8
BORDER
  6
CONTINUOUS
 62
     1
100
AcDbLine
 39
96.0
 10
42.577407
 20
36.16605
 30
0.0
 11
42.636307
 21
36.18745
 31
0.0
  0
LINE
  5
85D
100
AcDbEntity
  8
BORDER
  6
CONTINUOUS
 62
     1
100
AcDbLine
 39
96.0
 10
40.228107
 20
33.81095
 30
0.0
 11
40.286907
 21
33.83235
 31
0.0
  0
LINE
  5
85E
100
AcDbEntity
  8
BORDER
  6
CONTINUOUS
 62
     1
100
AcDbLine
 39
96.0
 10
44.071807
 20
37.87035
 30
0.0
 11
44.130707
 21
37.89165
 31
0.0
  0
LINE
  5
85F
100
AcDbEntity
  8
BORDER
  6
CONTINUOUS
 62
     1
100
AcDbLine
 39
96.0
 10
41.722507
 20
38.51525
 30
0.0
 11
41.781307
 21
38.53665
 31
0.0
  0
LINE
  5
860
100
AcDbEntity
  8
BORDER
  6
CONTINUOUS
 62
     1
100
AcDbLine
 39
96.0
 10
39.373107
 20
36.16025
 30
0.0
 11
39.431907
 21
36.18155
 31
0.0
  0
LINE
  5
861
100
AcDbEntity
  8
BORDER
  6
CONTINUOUS
 62
     1
100
AcDbLine
 39
96.0
 10
40.867507
 20
40.86455
 30
0.0
 11
40.926307
 21
40.88585
 31
0.0
  0
LINE
  5
862
100
AcDbEntity
  8
BORDER
  6
CONTINUOUS
 62
     1
100
AcDbLine
 39
96.0
 10
38.518107
 20
38.50945
 30
0.0
 11
38.577007
 21
38.53085
 31
0.0
  0
LINE
  5
863
100
AcDbEntity
  8
BORDER
  6
CONTINUOUS
 62
     1
100
AcDbLine
 39
96.0
 10
40.012507
 20
41.71385
 30
0.0
 11
40.071307
 21
41.73515
 31
0.0
  0
LINE
  5
864
100
AcDbEntity
  8
BORDER
  6
CONTINUOUS
 62
     3
100
AcDbLine
 39
96.0
 10
44.234707
 20
30.02435
 30
0.0
 11
46.109707
 21
30.02435
 31
0.0
  0
LINE
  5
865
100
AcDbEntity
  8
BORDER
  6
CONTINUOUS
 62
     3
100
AcDbLine
 39
96.0
 10
44.234707
 20
45.02435
 30
0.0
 11
36.109707
 21
45.02435
 31
0.0
  0
ARC
  5
866
100
AcDbEntity
  8
BORDER
  6
CONTINUOUS
 62
     3
100
AcDbCircle
 39
96.0
 10
41.109707
 20
45.02435
 30
0.0
 40
3.0
100
AcDbArc
 50
180.0
 51
0.0
  0
ARC
  5
867
100
AcDbEntity
  8
BORDER
  6
CONTINUOUS
 62
     3
100
AcDbCircle
 39
96.0
 10
41.109707
 20
30.02435
 30
0.0
 40
3.0
100
AcDbArc
 50
0.0
 51
180.0
  0
LINE
  5
868
100
AcDbEntity
  8
BORDER
  6
CONTINUOUS
 62
     3
100
AcDbLine
 39
96.0
 10
44.234707
 20
30.02435
 30
0.0
 11
44.234707
 21
45.02435
 31
0.0
  0
LINE
  5
869
100
AcDbEntity
  8
BORDER
  6
CONTINUOUS
 62
     3
100
AcDbLine
 39
96.0
 10
37.984707
 20
45.02435
 30
0.0
 11
37.984707
 21
30.02435
 31
0.0
  0
LINE
  5
86A
100
AcDbEntity
  8
BORDER
  6
CONTINUOUS
 62
     3
100
AcDbLine
 39
96.0
 10
36.109707
 20
45.02435
 30
0.0
 11
36.109707
 21
30.02435
 31
0.0
  0
LINE
  5
86B
100
AcDbEntity
  8
BORDER
  6
CONTINUOUS
 62
     3
100
AcDbLine
 39
96.0
 10
46.109707
 20
45.02435
 30
0.0
 11
44.234707
 21
45.02435
 31
0.0
  0
LINE
  5
86C
100
AcDbEntity
  8
BORDER
  6
CONTINUOUS
 62
     3
100
AcDbLine
 39
96.0
 10
46.109707
 20
30.02435
 30
0.0
 11
46.109707
 21
45.02435
 31
0.0
  0
LINE
  5
86D
100
AcDbEntity
  8
BORDER
  6
CONTINUOUS
 62
     3
100
AcDbLine
 39
96.0
 10
36.109707
 20
30.02435
 30
0.0
 11
37.984707
 21
30.02435
 31
0.0
  0
LINE
  5
86E
100
AcDbEntity
  8
BORDER
  6
CONTINUOUS
 62
     3
100
AcDbLine
 39
96.0
 10
37.984707
 20
30.02435
 30
0.0
 11
36.109707
 21
30.02435
 31
0.0
  0
LINE
  5
86F
100
AcDbEntity
  8
BORDER
  6
CONTINUOUS
 62
     3
100
AcDbLine
 39
96.0
 10
46.109707
 20
30.02435
 30
0.0
 11
44.234707
 21
30.02435
 31
0.0
  0
LINE
  5
870
100
AcDbEntity
  8
DIM_TEXT
 62
     7
100
AcDbLine
 39
96.0
 10
41.675307
 20
48.48455
 30
0.0
 11
41.675307
 21
48.98455
 31
0.0
  0
LINE
  5
871
100
AcDbEntity
  8
DIM_TEXT
 62
     7
100
AcDbLine
 39
96.0
 10
41.175307
 20
48.98455
 30
0.0
 11
41.175307
 21
48.48455
 31
0.0
  0
ARC
  5
872
100
AcDbEntity
  8
DIM_TEXT
 62
     7
100
AcDbCircle
 39
96.0
 10
41.425307
 20
48.98455
 30
0.0
 40
0.25
100
AcDbArc
 50
0.0
 51
180.0
  0
ARC
  5
873
100
AcDbEntity
  8
DIM_TEXT
 62
     7
100
AcDbCircle
 39
96.0
 10
41.425307
 20
48.48455
 30
0.0
 40
0.25
100
AcDbArc
 50
180.0
 51
0.0
  0
LEADER
  5
874
100
AcDbEntity
  8
RF-SW
 62
     6
100
AcDbLeader
  3
ARCHITECTURAL
 76
     3
 10
40.926672
 20
37.930121
 30
0.0
 10
31.919476
 20
32.632684
 30
0.0
 10
30.130207
 20
32.632684
 30
0.0
 77
    13
1001
ACAD
1000
DSTYLE
1002
{
1070
    40
1040
12.0
1070
   173
1070
     1
1070
   176
1070
     6
1070
     7
1000
_CLOSEDBLANK
1070
     6
1000
_CLOSEDBLANK
1002
}
  0
LEADER
  5
875
100
AcDbEntity
  8
RF-SW
 62
     6
100
AcDbLeader
  3
ARCHITECTURAL
 76
     3
 10
40.161669
 20
29.902505
 30
0.0
 10
31.919476
 20
25.692868
 30
0.0
 10
30.130207
 20
25.692868
 30
0.0
 77
    13
1001
ACAD
1000
DSTYLE
1002
{
1070
    40
1040
12.0
1070
   173
1070
     1
1070
   176
1070
     6
1070
     7
1000
_CLOSEDBLANK
1070
     6
1000
_CLOSEDBLANK
1002
}
  0
TEXT
  5
876
100
AcDbEntity
  8
DIM_TEXT
100
AcDbText
 10
11.325264
 20
28.16901
 30
0.0
 40
1.124955
  1
REQUIRED, PER DESIGN)
 51
15.0
  7
INFO
100
AcDbText
  0
LINE
  5
877
100
AcDbEntity
  8
DIM_TEXT
100
AcDbLine
 10
5.809907
 20
39.01125
 30
0.0
 11
31.305207
 21
46.15025
 31
0.0
  0
TEXT
  5
878
100
AcDbEntity
  8
DIM_TEXT
100
AcDbText
 10
8.645307
 20
38.30305
 30
0.0
 40
1.125
  1
2 X 4 BLK'G @ 48" O.C.
 51
15.0
  7
INFO
100
AcDbText
  0
LINE
  5
879
100
AcDbEntity
  8
DIM_TEXT
100
AcDbLine
 10
22.997607
 20
68.24765
 30
0.0
 11
26.814007
 21
65.98625
 31
0.0
  0
LINE
  5
87A
100
AcDbEntity
  8
DIM_TEXT
100
AcDbLine
 10
5.810407
 20
39.01175
 30
0.0
 11
20.743507
 21
52.43475
 31
0.0
  0
LINE
  5
87B
100
AcDbEntity
  8
DIM_TEXT
100
AcDbLine
 10
5.810407
 20
39.01175
 30
0.0
 11
22.480807
 21
60.27495
 31
0.0
  0
TEXT
  5
87C
100
AcDbEntity
  8
DIM_TEXT
100
AcDbText
 10
9.350005
 20
21.085654
 30
0.0
 40
1.124955
  1
REQUIRED, PER DESIGN)
 51
15.0
  7
INFO
100
AcDbText
  0
TEXT
  5
87D
100
AcDbEntity
  8
DIM_TEXT
100
AcDbText
 10
11.325264
 20
30.298785
 30
0.0
 40
1.124955
  1
(MIN. #4 @ 30" O.C.
 51
15.0
  7
INFO
100
AcDbText
  0
TEXT
  5
87E
100
AcDbEntity
  8
DIM_TEXT
100
AcDbText
 10
10.812728
 20
23.08063
 30
0.0
 40
1.124955
  1
(MIN. #4 @ 30" O.C.)
 51
15.0
  7
INFO
100
AcDbText
  0
TEXT
  5
87F
100
AcDbEntity
  8
DIM_TEXT
100
AcDbText
 10
8.645307
 20
36.37445
 30
0.0
 40
1.125
  1
TYPICAL
  7
ROMAN
100
AcDbText
  0
TEXT
  5
880
100
AcDbEntity
  8
DIM_TEXT
100
AcDbText
 10
18.081628
 20
24.959663
 30
0.0
 40
1.124955
  1
HORIZ. REINF.
 51
15.0
  7
INFO
100
AcDbText
  0
TEXT
  5
881
100
AcDbEntity
  8
DIM_TEXT
100
AcDbText
 10
19.525838
 20
32.155591
 30
0.0
 40
1.124955
  1
VERT. REINF.
 51
15.0
  7
INFO
100
AcDbText
  0
LINE
  5
882
100
AcDbEntity
  8
DIM_TEXT
 62
     7
100
AcDbLine
 39
96.0
 10
14.109407
 20
61.02665
 30
0.0
 11
19.059107
 21
61.02665
 31
0.0
  0
LINE
  5
883
100
AcDbEntity
  8
DIM_TEXT
100
AcDbLine
 10
20.994207
 20
52.15585
 30
0.0
 11
20.492707
 21
52.71355
 31
0.0
  0
LINE
  5
884
100
AcDbEntity
  8
DIM_TEXT
100
AcDbLine
 10
21.580107
 20
53.18675
 30
0.0
 11
20.492707
 21
52.71355
 31
0.0
  0
LINE
  5
885
100
AcDbEntity
  8
DIM_TEXT
100
AcDbLine
 10
21.580107
 20
53.18675
 30
0.0
 11
20.994207
 21
52.15585
 31
0.0
  0
LINE
  5
886
100
AcDbEntity
  8
DIM_TEXT
100
AcDbLine
 10
23.174907
 20
61.16025
 30
0.0
 11
22.185607
 21
60.50635
 31
0.0
  0
LINE
  5
887
100
AcDbEntity
  8
DIM_TEXT
100
AcDbLine
 10
23.174907
 20
61.16025
 30
0.0
 11
22.775907
 21
60.04355
 31
0.0
  0
LINE
  5
888
100
AcDbEntity
  8
DIM_TEXT
100
AcDbLine
 10
22.775907
 20
60.04355
 30
0.0
 11
22.185607
 21
60.50635
 31
0.0
  0
LINE
  5
889
100
AcDbEntity
  8
DIM_TEXT
100
AcDbLine
 10
26.622907
 20
65.66355
 30
0.0
 11
27.005207
 21
66.30885
 31
0.0
  0
LINE
  5
88A
100
AcDbEntity
  8
DIM_TEXT
100
AcDbLine
 10
27.781807
 20
65.41275
 30
0.0
 11
26.622907
 21
65.66355
 31
0.0
  0
LINE
  5
88B
100
AcDbEntity
  8
DIM_TEXT
100
AcDbLine
 10
27.781807
 20
65.41275
 30
0.0
 11
27.005207
 21
66.30885
 31
0.0
  0
TEXT
  5
88C
100
AcDbEntity
  8
DIM_TEXT
100
AcDbText
 10
7.227807
 20
67.53895
 30
0.0
 40
1.125
  1
BOUND. NAILING
 51
15.0
  7
INFO
100
AcDbText
  0
LINE
  5
88D
100
AcDbEntity
  8
DIM_TEXT
100
AcDbLine
 10
21.048707
 20
68.24765
 30
0.0
 11
22.997607
 21
68.24765
 31
0.0
  0
LINE
  5
88E
100
AcDbEntity
  8
BORDER
  6
CONTINUOUS
 62
     1
100
AcDbLine
 39
47.9988
 10
41.765707
 20
47.36995
 30
0.0
 11
41.765707
 21
47.02615
 31
0.0
  0
LINE
  5
88F
100
AcDbEntity
  8
BORDER
  6
CONTINUOUS
 62
     1
100
AcDbLine
 39
47.9988
 10
40.953707
 20
47.36995
 30
0.0
 11
41.765707
 21
47.36995
 31
0.0
  0
LINE
  5
890
100
AcDbEntity
  8
BORDER
  6
CONTINUOUS
 62
     1
100
AcDbLine
 39
47.9988
 10
41.109707
 20
47.71585
 30
0.0
 11
41.109707
 21
47.36995
 31
0.0
  0
LINE
  5
891
100
AcDbEntity
  8
BORDER
  6
CONTINUOUS
 62
     1
100
AcDbLine
 39
47.9988
 10
41.609707
 20
47.71585
 30
0.0
 11
41.109707
 21
47.71585
 31
0.0
  0
LINE
  5
892
100
AcDbEntity
  8
BORDER
  6
CONTINUOUS
 62
     1
100
AcDbLine
 39
47.9988
 10
41.609707
 20
47.36995
 30
0.0
 11
41.609707
 21
47.71585
 31
0.0
  0
LINE
  5
893
100
AcDbEntity
  8
BORDER
  6
CONTINUOUS
 62
     1
100
AcDbLine
 39
47.9988
 10
41.596007
 20
47.27715
 30
0.0
 11
41.666607
 21
47.36995
 31
0.0
  0
LINE
  5
894
100
AcDbEntity
  8
BORDER
  6
CONTINUOUS
 62
     1
100
AcDbLine
 39
47.9988
 10
41.596007
 20
47.27715
 30
0.0
 11
41.525407
 21
47.36995
 31
0.0
  0
LINE
  5
895
100
AcDbEntity
  8
BORDER
  6
CONTINUOUS
 62
     1
100
AcDbLine
 39
47.9988
 10
41.116307
 20
47.27715
 30
0.0
 11
41.186607
 21
47.36995
 31
0.0
  0
LINE
  5
896
100
AcDbEntity
  8
BORDER
  6
CONTINUOUS
 62
     1
100
AcDbLine
 39
47.9988
 10
41.116307
 20
47.27715
 30
0.0
 11
41.045507
 21
47.36995
 31
0.0
  0
LINE
  5
897
100
AcDbEntity
  8
BORDER
  6
CONTINUOUS
 62
     1
100
AcDbLine
 39
47.9988
 10
41.596007
 20
47.02615
 30
0.0
 11
41.596007
 21
47.27715
 31
0.0
  0
LINE
  5
898
100
AcDbEntity
  8
BORDER
  6
CONTINUOUS
 62
     1
100
AcDbLine
 39
47.9988
 10
41.116307
 20
47.02615
 30
0.0
 11
41.116307
 21
47.27715
 31
0.0
  0
LINE
  5
899
100
AcDbEntity
  8
BORDER
  6
CONTINUOUS
 62
     1
100
AcDbLine
 39
47.9988
 10
40.953707
 20
47.02615
 30
0.0
 11
40.953707
 21
47.36995
 31
0.0
  0
LINE
  5
89A
100
AcDbEntity
  8
DIM_TEXT
100
AcDbLine
 10
51.890907
 20
69.15165
 30
0.0
 11
49.739607
 21
66.18685
 31
0.0
  0
TEXT
  5
89B
100
AcDbEntity
  8
DIM_TEXT
100
AcDbText
 10
53.390585
 20
37.449611
 30
0.0
 40
1.125
  1
2 X 6 PL. WITH ANCHOR BOLTS
 51
15.0
  7
INFO
100
AcDbText
  0
TEXT
  5
89C
100
AcDbEntity
  8
DIM_TEXT
100
AcDbText
 10
53.390585
 20
35.741092
 30
0.0
 40
1.125
  1
(MIN.-1/2"%%C A.B. @ 45" O.C.)
 51
15.0
  7
INFO
100
AcDbText
  0
LINE
  5
89D
100
AcDbEntity
  8
DIM_TEXT
100
AcDbLine
 10
55.600107
 20
49.11145
 30
0.0
 11
56.770307
 21
48.91885
 31
0.0
  0
LINE
  5
89E
100
AcDbEntity
  8
DIM_TEXT
100
AcDbLine
 10
55.600107
 20
49.11145
 30
0.0
 11
56.651707
 21
49.65955
 31
0.0
  0
TEXT
  5
89F
100
AcDbEntity
  8
DIM_TEXT
100
AcDbText
 10
52.233407
 20
41.49245
 30
0.0
 40
1.125
  1
WALL/MEMBER ANCHORAGE
 51
15.0
  7
INFO
100
AcDbText
  0
TEXT
  5
8A0
100
AcDbEntity
  8
DIM_TEXT
100
AcDbText
 10
51.879007
 20
31.21555
 30
0.0
 40
1.125
  1
RASTRA WALL
 51
15.0
  7
INFO
100
AcDbText
  0
LEADER
  5
8A1
100
AcDbEntity
  8
DIM_TEXT
100
AcDbLeader
  3
STANDARD
 76
     3
 10
42.098463
 20
45.072114
 30
0.0
 10
51.497984
 20
37.791483
 30
0.0
 10
52.877136
 20
37.791483
 30
0.0
 77
   256
211
-1.0
221
0.0
231
0.0
1001
ACAD
1000
DSTYLE
1002
{
1070
    78
1070
     1
1070
   140
1040
6.0
1070
    73
1070
     0
1070
    77
1070
     1
1070
   173
1070
     1
1070
    42
1040
6.0
1070
    44
1040
0.0
1070
    43
1040
24.0
1070
   141
1040
3.0
1070
     7
1000
_CLOSEDBLANK
1070
     6
1000
_CLOSEDBLANK
1070
    41
1040
1.5
1002
}
  0
LINE
  5
8A2
100
AcDbEntity
  8
DIM_TEXT
100
AcDbLine
 10
50.107207
 20
31.74715
 30
0.0
 11
47.011307
 21
33.49705
 31
0.0
  0
LINE
  5
8A3
100
AcDbEntity
  8
DIM_TEXT
100
AcDbLine
 10
46.031807
 20
34.05055
 30
0.0
 11
46.826707
 21
33.17055
 31
0.0
  0
LINE
  5
8A4
100
AcDbEntity
  8
DIM_TEXT
100
AcDbLine
 10
46.031807
 20
34.05055
 30
0.0
 11
47.195907
 21
33.82355
 31
0.0
  0
LINE
  5
8A5
100
AcDbEntity
  8
DIM_TEXT
100
AcDbLine
 10
47.195907
 20
33.82355
 30
0.0
 11
46.826707
 21
33.17055
 31
0.0
  0
LINE
  5
8A6
100
AcDbEntity
  8
DIM_TEXT
100
AcDbLine
 10
51.524707
 20
31.74715
 30
0.0
 11
50.107207
 21
31.74715
 31
0.0
  0
LINE
  5
8A7
100
AcDbEntity
  8
DIM_TEXT
100
AcDbLine
 10
42.754007
 20
48.78665
 30
0.0
 11
43.333507
 21
47.75205
 31
0.0
  0
LINE
  5
8A8
100
AcDbEntity
  8
DIM_TEXT
100
AcDbLine
 10
42.754007
 20
48.78665
 30
0.0
 11
43.838407
 21
48.30675
 31
0.0
  0
LINE
  5
8A9
100
AcDbEntity
  8
DIM_TEXT
100
AcDbLine
 10
31.406307
 20
45.78915
 30
0.0
 11
31.204207
 21
46.51135
 31
0.0
  0
LINE
  5
8AA
100
AcDbEntity
  8
DIM_TEXT
100
AcDbLine
 10
32.388507
 20
46.45365
 30
0.0
 11
31.204207
 21
46.51135
 31
0.0
  0
LINE
  5
8AB
100
AcDbEntity
  8
DIM_TEXT
100
AcDbLine
 10
32.388507
 20
46.45365
 30
0.0
 11
31.406307
 21
45.78915
 31
0.0
  0
LINE
  5
8AC
100
AcDbEntity
  8
DIM_TEXT
 62
     7
100
AcDbLine
 39
96.0
 10
42.859707
 20
50.02665
 30
0.0
 11
39.859707
 21
50.02665
 31
0.0
  0
LINE
  5
8AD
100
AcDbEntity
  8
DIM_TEXT
100
AcDbLine
 10
50.314007
 20
41.90585
 30
0.0
 11
43.586007
 21
48.02945
 31
0.0
  0
LINE
  5
8AE
100
AcDbEntity
  8
DIM_TEXT
100
AcDbLine
 10
43.838407
 20
48.30675
 30
0.0
 11
43.333507
 21
47.75205
 31
0.0
  0
LINE
  5
8AF
100
AcDbEntity
  8
DIM_TEXT
100
AcDbLine
 10
51.672407
 20
42.08305
 30
0.0
 11
50.314007
 21
41.90585
 31
0.0
  0
LINE
  5
8B0
100
AcDbEntity
  8
DIM_TEXT
100
AcDbLine
 10
49.435807
 20
66.40755
 30
0.0
 11
50.043307
 21
65.96615
 31
0.0
  0
LINE
  5
8B1
100
AcDbEntity
  8
DIM_TEXT
100
AcDbLine
 10
49.078407
 20
65.27665
 30
0.0
 11
50.043307
 21
65.96615
 31
0.0
  0
LINE
  5
8B2
100
AcDbEntity
  8
DIM_TEXT
100
AcDbLine
 10
49.078407
 20
65.27665
 30
0.0
 11
49.435807
 21
66.40755
 31
0.0
  0
TEXT
  5
8B3
100
AcDbEntity
  8
DIM_TEXT
100
AcDbText
 10
64.991007
 20
53.00955
 30
0.0
 40
1.125
  1
4 - 16d
 51
15.0
  7
INFO
100
AcDbText
  0
TEXT
  5
8B4
100
AcDbEntity
  8
DIM_TEXT
100
AcDbText
 10
61.092807
 20
48.93425
 30
0.0
 40
1.125
  1
FRAMING CLIP
 51
15.0
  7
INFO
100
AcDbText
  0
LINE
  5
8B5
100
AcDbEntity
  8
DIM_TEXT
100
AcDbLine
 10
63.396307
 20
53.54115
 30
0.0
 11
67.943907
 21
60.91155
 31
0.0
  0
LINE
  5
8B6
100
AcDbEntity
  8
DIM_TEXT
100
AcDbLine
 10
60.029807
 20
49.82025
 30
0.0
 11
56.711007
 21
49.28915
 31
0.0
  0
LINE
  5
8B7
100
AcDbEntity
  8
DIM_TEXT
100
AcDbLine
 10
56.651707
 20
49.65955
 30
0.0
 11
56.770307
 21
48.91885
 31
0.0
  0
LINE
  5
8B8
100
AcDbEntity
  8
DIM_TEXT
100
AcDbLine
 10
60.915607
 20
49.82025
 30
0.0
 11
60.029807
 21
49.82025
 31
0.0
  0
TEXT
  5
8B9
100
AcDbEntity
  8
DIM_TEXT
100
AcDbText
 10
64.991007
 20
51.08105
 30
0.0
 40
1.125
  1
TYP.
 51
15.0
  7
INFO
100
AcDbText
  0
LINE
  5
8BA
100
AcDbEntity
  8
DIM_TEXT
100
AcDbLine
 10
64.636507
 20
53.54115
 30
0.0
 11
63.396307
 21
53.54115
 31
0.0
  0
LINE
  5
8BB
100
AcDbEntity
  8
DIM_TEXT
100
AcDbLine
 10
68.263007
 20
60.71465
 30
0.0
 11
67.624807
 21
61.10845
 31
0.0
  0
LINE
  5
8BC
100
AcDbEntity
  8
DIM_TEXT
100
AcDbLine
 10
68.534707
 20
61.86895
 30
0.0
 11
68.263007
 21
60.71465
 31
0.0
  0
LINE
  5
8BD
100
AcDbEntity
  8
DIM_TEXT
 62
     7
100
AcDbLine
 39
96.0
 10
63.964407
 20
61.02665
 30
0.0
 11
68.914107
 21
61.02665
 31
0.0
  0
LINE
  5
8BE
100
AcDbEntity
  8
DIM_TEXT
100
AcDbLine
 10
68.534707
 20
61.86895
 30
0.0
 11
67.624807
 21
61.10845
 31
0.0
  0
TEXT
  5
8BF
100
AcDbEntity
  8
DIM_TEXT
100
AcDbText
 10
52.859707
 20
68.52665
 30
0.0
 40
1.125
  1
SHEATHING
 51
15.0
  7
INFO
100
AcDbText
  0
LINE
  5
8C0
100
AcDbEntity
  8
DIM_TEXT
100
AcDbLine
 10
52.453407
 20
69.15165
 30
0.0
 11
51.890907
 21
69.15165
 31
0.0
  0
ENDSEC
  0
SECTION
  2
OBJECTS
  0
DICTIONARY
  5
C
100
AcDbDictionary
  3
ACAD_GROUP
350
D
  3
ACAD_MLINESTYLE
350
1A
  3
ACDBVARIABLEDICTIONARY
350
29
  0
DICTIONARY
  5
D
102
{ACAD_REACTORS
330
C
102
}
100
AcDbDictionary
  0
DICTIONARY
  5
1A
102
{ACAD_REACTORS
330
C
102
}
100
AcDbDictionary
  3
STANDARD
350
1B
  0
DICTIONARY
  5
29
102
{ACAD_REACTORS
330
C
102
}
100
AcDbDictionary
  3
DIMADEC
350
2A
  0
MLINESTYLE
  5
1B
102
{ACAD_REACTORS
330
1A
102
}
100
AcDbMlineStyle
  2
STANDARD
 70
     0
  3

 62
   256
 51
90.0
 52
90.0
 71
     2
 49
0.5
 62
   256
  6
BYLAYER
 49
-0.5
 62
   256
  6
BYLAYER
  0
DICTIONARYVAR
  5
2A
102
{ACAD_REACTORS
330
29
102
}
100
DictionaryVariables
280
     0
  1
0
  0
ENDSEC
  0
EOF
