  0
SECTION
  2
HEADER
  9
$ACADVER
  1
AC1014
  9
$ACADMAINTVER
 70
     8
  9
$DWGCODEPAGE
  3
ANSI_1252
  9
$INSBASE
 10
0.0
 20
0.0
 30
0.0
  9
$EXTMIN
 10
4.010126
 20
4.961431
 30
0.0
  9
$EXTMAX
 10
90.072973
 20
74.199658
 30
96.0
  9
$LIMMIN
 10
0.0
 20
0.0
  9
$LIMMAX
 10
85.0
 20
110.0
  9
$ORTHOMODE
 70
     1
  9
$REGENMODE
 70
     1
  9
$FILLMODE
 70
     1
  9
$QTEXTMODE
 70
     0
  9
$MIRRTEXT
 70
     1
  9
$DRAGMODE
 70
     2
  9
$LTSCALE
 40
3.0
  9
$OSMODE
 70
    37
  9
$ATTMODE
 70
     1
  9
$TEXTSIZE
 40
0.2
  9
$TRACEWID
 40
0.05
  9
$TEXTSTYLE
  7
STANDARD
  9
$CLAYER
  8
0
  9
$CELTYPE
  6
BYLAYER
  9
$CECOLOR
 62
   256
  9
$CELTSCALE
 40
1.0
  9
$DELOBJ
 70
     1
  9
$DISPSILH
 70
     0
  9
$DIMSCALE
 40
1.0
  9
$DIMASZ
 40
0.18
  9
$DIMEXO
 40
0.0625
  9
$DIMDLI
 40
0.38
  9
$DIMRND
 40
0.0
  9
$DIMDLE
 40
0.0
  9
$DIMEXE
 40
0.18
  9
$DIMTP
 40
0.0
  9
$DIMTM
 40
0.0
  9
$DIMTXT
 40
0.18
  9
$DIMCEN
 40
0.09
  9
$DIMTSZ
 40
0.0
  9
$DIMTOL
 70
     0
  9
$DIMLIM
 70
     0
  9
$DIMTIH
 70
     1
  9
$DIMTOH
 70
     1
  9
$DIMSE1
 70
     0
  9
$DIMSE2
 70
     0
  9
$DIMTAD
 70
     0
  9
$DIMZIN
 70
     0
  9
$DIMBLK
  1

  9
$DIMASO
 70
     1
  9
$DIMSHO
 70
     1
  9
$DIMPOST
  1

  9
$DIMAPOST
  1

  9
$DIMALT
 70
     0
  9
$DIMALTD
 70
     2
  9
$DIMALTF
 40
25.4
  9
$DIMLFAC
 40
1.0
  9
$DIMTOFL
 70
     0
  9
$DIMTVP
 40
0.0
  9
$DIMTIX
 70
     0
  9
$DIMSOXD
 70
     0
  9
$DIMSAH
 70
     0
  9
$DIMBLK1
  1

  9
$DIMBLK2
  1

  9
$DIMSTYLE
  2
STANDARD
  9
$DIMCLRD
 70
     0
  9
$DIMCLRE
 70
     0
  9
$DIMCLRT
 70
     0
  9
$DIMTFAC
 40
1.0
  9
$DIMGAP
 40
0.09
  9
$DIMJUST
 70
     0
  9
$DIMSD1
 70
     0
  9
$DIMSD2
 70
     0
  9
$DIMTOLJ
 70
     1
  9
$DIMTZIN
 70
     0
  9
$DIMALTZ
 70
     0
  9
$DIMALTTZ
 70
     0
  9
$DIMFIT
 70
     5
  9
$DIMUPT
 70
     0
  9
$DIMUNIT
 70
     4
  9
$DIMDEC
 70
     4
  9
$DIMTDEC
 70
     4
  9
$DIMALTU
 70
     4
  9
$DIMALTTD
 70
     2
  9
$DIMTXSTY
  7
STANDARD
  9
$DIMAUNIT
 70
     2
  9
$LUNITS
 70
     4
  9
$LUPREC
 70
     4
  9
$SKETCHINC
 40
0.1
  9
$FILLETRAD
 40
0.0
  9
$AUNITS
 70
     2
  9
$AUPREC
 70
     0
  9
$MENU
  1
acad
  9
$ELEVATION
 40
0.0
  9
$PELEVATION
 40
0.0
  9
$THICKNESS
 40
0.0
  9
$LIMCHECK
 70
     0
  9
$BLIPMODE
 70
     1
  9
$CHAMFERA
 40
0.0
  9
$CHAMFERB
 40
0.0
  9
$CHAMFERC
 40
0.0
  9
$CHAMFERD
 40
0.0
  9
$SKPOLY
 70
     0
  9
$TDCREATE
 40
2451166.381541435
  9
$TDUPDATE
 40
2452248.602346990
  9
$TDINDWG
 40
0.0932093750
  9
$TDUSRTIMER
 40
0.0932093750
  9
$USRTIMER
 70
     1
  9
$ANGBASE
 50
0.0
  9
$ANGDIR
 70
     0
  9
$PDMODE
 70
     0
  9
$PDSIZE
 40
0.0
  9
$PLINEWID
 40
0.0
  9
$COORDS
 70
     1
  9
$SPLFRAME
 70
     0
  9
$SPLINETYPE
 70
     6
  9
$SPLINESEGS
 70
     8
  9
$ATTDIA
 70
     0
  9
$ATTREQ
 70
     1
  9
$HANDLING
 70
     1
  9
$HANDSEED
  5
B57
  9
$SURFTAB1
 70
     6
  9
$SURFTAB2
 70
     6
  9
$SURFTYPE
 70
     6
  9
$SURFU
 70
     6
  9
$SURFV
 70
     6
  9
$UCSNAME
  2

  9
$UCSORG
 10
0.0
 20
0.0
 30
0.0
  9
$UCSXDIR
 10
1.0
 20
0.0
 30
0.0
  9
$UCSYDIR
 10
0.0
 20
1.0
 30
0.0
  9
$PUCSNAME
  2

  9
$PUCSORG
 10
0.0
 20
0.0
 30
0.0
  9
$PUCSXDIR
 10
1.0
 20
0.0
 30
0.0
  9
$PUCSYDIR
 10
0.0
 20
1.0
 30
0.0
  9
$USERI1
 70
     0
  9
$USERI2
 70
     0
  9
$USERI3
 70
     0
  9
$USERI4
 70
     0
  9
$USERI5
 70
     0
  9
$USERR1
 40
0.0
  9
$USERR2
 40
0.0
  9
$USERR3
 40
0.0
  9
$USERR4
 40
0.0
  9
$USERR5
 40
0.0
  9
$WORLDVIEW
 70
     1
  9
$SHADEDGE
 70
     3
  9
$SHADEDIF
 70
    70
  9
$TILEMODE
 70
     1
  9
$MAXACTVP
 70
    16
  9
$PINSBASE
 10
0.0
 20
0.0
 30
0.0
  9
$PLIMCHECK
 70
     0
  9
$PEXTMIN
 10
1.000000E+20
 20
1.000000E+20
 30
1.000000E+20
  9
$PEXTMAX
 10
-1.000000E+20
 20
-1.000000E+20
 30
-1.000000E+20
  9
$PLIMMIN
 10
0.0
 20
0.0
  9
$PLIMMAX
 10
12.0
 20
9.0
  9
$UNITMODE
 70
     0
  9
$VISRETAIN
 70
     0
  9
$PLINEGEN
 70
     0
  9
$PSLTSCALE
 70
     1
  9
$TREEDEPTH
 70
  3020
  9
$PICKSTYLE
 70
     1
  9
$CMLSTYLE
  2
STANDARD
  9
$CMLJUST
 70
     0
  9
$CMLSCALE
 40
1.0
  9
$PROXYGRAPHICS
 70
     1
  9
$MEASUREMENT
 70
     0
  0
ENDSEC
  0
SECTION
  2
CLASSES
  0
CLASS
  1
DICTIONARYVAR
  2
AcDbDictionaryVar
  3
"AutoCAD"
 90
        0
280
     0
281
     0
  0
ENDSEC
  0
SECTION
  2
TABLES
  0
TABLE
  2
VPORT
  5
8
100
AcDbSymbolTable
 70
     1
  0
VPORT
  5
B50
100
AcDbSymbolTableRecord
100
AcDbViewportTableRecord
  2
*ACTIVE
 70
     0
 10
0.0
 20
0.0
 11
1.0
 21
1.0
 12
46.519756
 22
39.90224
 13
0.0
 23
0.0
 14
1.0
 24
1.0
 15
1.0
 25
1.0
 16
0.0
 26
0.0
 36
1.0
 17
0.0
 27
0.0
 37
0.0
 40
76.175816
 41
1.474388
 42
50.0
 43
0.0
 44
0.0
 50
0.0
 51
0.0
 71
     0
 72
   100
 73
     1
 74
     1
 75
     0
 76
     0
 77
     0
 78
     0
  0
ENDTAB
  0
TABLE
  2
LTYPE
  5
5
100
AcDbSymbolTable
 70
     2
  0
LTYPE
  5
11
100
AcDbSymbolTableRecord
100
AcDbLinetypeTableRecord
  2
BYBLOCK
 70
     0
  3

 72
    65
 73
     0
 40
0.0
  0
LTYPE
  5
12
100
AcDbSymbolTableRecord
100
AcDbLinetypeTableRecord
  2
BYLAYER
 70
     0
  3

 72
    65
 73
     0
 40
0.0
  0
LTYPE
  5
13
100
AcDbSymbolTableRecord
100
AcDbLinetypeTableRecord
  2
CONTINUOUS
 70
     0
  3
Solid line
 72
    65
 73
     0
 40
0.0
  0
LTYPE
  5
1E
100
AcDbSymbolTableRecord
100
AcDbLinetypeTableRecord
  2
HIDDEN
 70
     0
  3
__ __ __ __ __ __ __ __ __ __ __ __ __ __ __ __
 72
    65
 73
     2
 40
0.375
 49
0.25
 74
     0
 49
-0.125
 74
     0
  0
ENDTAB
  0
TABLE
  2
LAYER
  5
2
100
AcDbSymbolTable
 70
     7
  0
LAYER
  5
E
100
AcDbSymbolTableRecord
100
AcDbLayerTableRecord
  2
0
 70
     0
 62
     7
  6
CONTINUOUS
  0
LAYER
  5
23
100
AcDbSymbolTableRecord
100
AcDbLayerTableRecord
  2
DRAWING
 70
     0
 62
     7
  6
CONTINUOUS
  0
LAYER
  5
24
100
AcDbSymbolTableRecord
100
AcDbLayerTableRecord
  2
HATCH
 70
     0
 62
     3
  6
CONTINUOUS
  0
LAYER
  5
25
100
AcDbSymbolTableRecord
100
AcDbLayerTableRecord
  2
DIM_TEXT
 70
     0
 62
     6
  6
CONTINUOUS
  0
LAYER
  5
26
100
AcDbSymbolTableRecord
100
AcDbLayerTableRecord
  2
HIDDEN
 70
     0
 62
     4
  6
HIDDEN
  0
LAYER
  5
3ED
100
AcDbSymbolTableRecord
100
AcDbLayerTableRecord
  2
BORDER
 70
     0
 62
    14
  6
CONTINUOUS
  0
LAYER
  5
3EE
100
AcDbSymbolTableRecord
100
AcDbLayerTableRecord
  2
RF-SW
 70
     0
 62
     9
  6
CONTINUOUS
  0
ENDTAB
  0
TABLE
  2
STYLE
  5
3
100
AcDbSymbolTable
 70
     5
  0
STYLE
  5
F
100
AcDbSymbolTableRecord
100
AcDbTextStyleTableRecord
  2
STANDARD
 70
     0
 40
0.0
 41
1.0
 50
0.0
 71
     0
 42
0.2
  3
txt
  4

  0
STYLE
  5
1C
100
AcDbSymbolTableRecord
100
AcDbTextStyleTableRecord
  2
INFO
 70
     0
 40
0.0
 41
1.0
 50
15.0
 71
     0
 42
1.08
  3
C:\ACADWIN\FONTS\ROMANS.SHX
  4

  0
STYLE
  5
1D
100
AcDbSymbolTableRecord
100
AcDbTextStyleTableRecord
  2
TITLE
 70
     0
 40
0.0
 41
1.0
 50
0.0
 71
     0
 42
2.8
  3
C:\ACADWIN\FONTS\ROMANC.SHX
  4

  0
STYLE
  5
3EF
100
AcDbSymbolTableRecord
100
AcDbTextStyleTableRecord
  2
ROMAN
 70
     0
 40
0.0
 41
1.0
 50
0.0
 71
     0
 42
2.25
  3
romans.shx
  4

  0
STYLE
  5
3F0
100
AcDbSymbolTableRecord
100
AcDbTextStyleTableRecord
  2
ROMANS
 70
     0
 40
0.0
 41
1.0
 50
0.0
 71
     0
 42
2.25
  3
romans
  4

  0
ENDTAB
  0
TABLE
  2
VIEW
  5
6
100
AcDbSymbolTable
 70
     0
  0
ENDTAB
  0
TABLE
  2
UCS
  5
7
100
AcDbSymbolTable
 70
     0
  0
ENDTAB
  0
TABLE
  2
APPID
  5
9
100
AcDbSymbolTable
 70
     2
  0
APPID
  5
10
100
AcDbSymbolTableRecord
100
AcDbRegAppTableRecord
  2
ACAD
 70
     0
  0
APPID
  5
22
100
AcDbSymbolTableRecord
100
AcDbRegAppTableRecord
  2
ZIMM
 70
     0
  0
ENDTAB
  0
TABLE
  2
DIMSTYLE
  5
A
100
AcDbSymbolTable
 70
     2
  0
DIMSTYLE
105
3E4
100
AcDbSymbolTableRecord
100
AcDbDimStyleTableRecord
  2
STANDARD
 70
     0
  3

  4

  5

  6

  7

 40
1.0
 41
0.18
 42
0.0625
 43
0.38
 44
0.18
 45
0.0
 46
0.0
 47
0.0
 48
0.0
140
0.18
141
0.09
142
0.0
143
25.4
144
1.0
145
0.0
146
1.0
147
0.09
 71
     0
 72
     0
 73
     1
 74
     1
 75
     0
 76
     0
 77
     0
 78
     0
170
     0
171
     2
172
     0
173
     0
174
     0
175
     0
176
     0
177
     0
178
     0
270
     2
271
     4
272
     4
273
     2
274
     2
340
F
275
     0
280
     0
281
     0
282
     0
283
     1
284
     0
285
     0
286
     0
287
     3
288
     0
  0
DIMSTYLE
105
3F1
100
AcDbSymbolTableRecord
100
AcDbDimStyleTableRecord
  2
ARCHITECTURAL
 70
     0
  3

  4

  5

  6

  7

 40
1.0
 41
0.125
 42
0.0
 43
0.375
 44
0.0
 45
0.0
 46
0.0
 47
0.0
 48
0.0
140
0.09375
141
0.0625
142
0.0
143
25.4
144
1.0
145
0.0
146
1.0
147
0.0
 71
     0
 72
     0
 73
     0
 74
     0
 75
     0
 76
     0
 77
     1
 78
    13
170
     0
171
     2
172
     0
173
     0
174
     0
175
     0
176
    13
177
    13
178
     7
270
     6
271
     4
272
     4
273
     2
274
     2
340
3F0
275
     1
280
     0
281
     0
282
     0
283
     1
284
    13
285
     0
286
     0
287
     3
288
     0
  0
ENDTAB
  0
TABLE
  2
BLOCK_RECORD
  5
1
100
AcDbSymbolTable
 70
     2
  0
BLOCK_RECORD
  5
17
100
AcDbSymbolTableRecord
100
AcDbBlockTableRecord
  2
*MODEL_SPACE
  0
BLOCK_RECORD
  5
14
100
AcDbSymbolTableRecord
100
AcDbBlockTableRecord
  2
*PAPER_SPACE
  0
BLOCK_RECORD
  5
3E7
100
AcDbSymbolTableRecord
100
AcDbBlockTableRecord
  2
_CLOSEDBLANK
  0
BLOCK_RECORD
  5
3F2
100
AcDbSymbolTableRecord
100
AcDbBlockTableRecord
  2
A$C0EE671F6
  0
ENDTAB
  0
ENDSEC
  0
SECTION
  2
BLOCKS
  0
BLOCK
  5
29
100
AcDbEntity
  8
0
100
AcDbBlockBegin
  2
*MODEL_SPACE
 70
     0
 10
0.0
 20
0.0
 30
0.0
  3
*MODEL_SPACE
  1

  0
ENDBLK
  5
2A
100
AcDbEntity
  8
0
100
AcDbBlockEnd
  0
BLOCK
  5
27
100
AcDbEntity
 67
     1
  8
0
100
AcDbBlockBegin
  2
*PAPER_SPACE
 70
     0
 10
0.0
 20
0.0
 30
0.0
  3
*PAPER_SPACE
  1

  0
ENDBLK
  5
28
100
AcDbEntity
 67
     1
  8
0
100
AcDbBlockEnd
  0
BLOCK
  5
3EB
100
AcDbEntity
  8
0
100
AcDbBlockBegin
  2
_CLOSEDBLANK
 70
     0
 10
0.0
 20
0.0
 30
0.0
  3
_CLOSEDBLANK
  1

  0
LINE
  5
3E8
100
AcDbEntity
  8
0
  6
BYBLOCK
 62
     0
100
AcDbLine
 10
-1.0
 20
0.166667
 30
0.0
 11
0.0
 21
0.0
 31
0.0
  0
LINE
  5
3E9
100
AcDbEntity
  8
0
  6
BYBLOCK
 62
     0
100
AcDbLine
 10
0.0
 20
0.0
 30
0.0
 11
-1.0
 21
-0.166667
 31
0.0
  0
LINE
  5
3EA
100
AcDbEntity
  8
0
  6
BYBLOCK
 62
     0
100
AcDbLine
 10
-1.0
 20
0.166667
 30
0.0
 11
-1.0
 21
-0.166667
 31
0.0
  0
ENDBLK
  5
3EC
100
AcDbEntity
  8
0
100
AcDbBlockEnd
  0
BLOCK
  5
79E
100
AcDbEntity
  8
0
100
AcDbBlockBegin
  2
A$C0EE671F6
 70
     0
 10
0.0
 20
0.0
 30
0.0
  3
A$C0EE671F6
  1

  0
LINE
  5
3F3
100
AcDbEntity
  8
BORDER
  6
CONTINUOUS
 62
    14
100
AcDbLine
 39
96.0
 10
54.859697
 20
42.425626
 30
0.0
 11
54.935603
 21
42.425626
 31
0.0
  0
LINE
  5
3F4
100
AcDbEntity
  8
BORDER
  6
CONTINUOUS
 62
    14
100
AcDbLine
 39
96.0
 10
57.951807
 20
33.43443
 30
0.0
 11
68.217224
 21
33.43443
 31
0.0
  0
LINE
  5
3F5
100
AcDbEntity
  8
0
  6
CONTINUOUS
100
AcDbLine
 39
96.0
 10
58.040517
 20
33.345774
 30
0.0
 11
56.511509
 21
33.345774
 31
0.0
  0
LINE
  5
3F6
100
AcDbEntity
  8
0
  6
CONTINUOUS
100
AcDbLine
 39
96.0
 10
57.25417
 20
34.13164
 30
0.0
 11
58.040517
 21
33.345774
 31
0.0
  0
LINE
  5
3F7
100
AcDbEntity
  8
0
  6
CONTINUOUS
100
AcDbLine
 39
96.0
 10
56.511509
 20
44.042285
 30
0.0
 11
55.725161
 21
44.042285
 31
0.0
  0
LINE
  5
3F8
100
AcDbEntity
  8
0
  6
CONTINUOUS
100
AcDbLine
 39
96.0
 10
56.511509
 20
33.345774
 30
0.0
 11
56.511509
 21
44.042285
 31
0.0
  0
LINE
  5
3F9
100
AcDbEntity
  8
0
  6
CONTINUOUS
100
AcDbLine
 39
96.0
 10
56.511509
 20
43.847376
 30
0.0
 11
57.25417
 21
43.081782
 31
0.0
  0
LINE
  5
3FA
100
AcDbEntity
  8
0
  6
CONTINUOUS
100
AcDbLine
 39
96.0
 10
57.25417
 20
43.081782
 30
0.0
 11
57.25417
 21
34.13164
 31
0.0
  0
LINE
  5
3FB
100
AcDbEntity
  8
0
  6
CONTINUOUS
100
AcDbLine
 39
96.0
 10
54.859697
 20
44.042285
 30
0.0
 11
55.646044
 21
44.042285
 31
0.0
  0
LINE
  5
3FC
100
AcDbEntity
  8
0
  6
CONTINUOUS
100
AcDbLine
 39
96.0
 10
54.859697
 20
33.345774
 30
0.0
 11
54.859697
 21
44.042285
 31
0.0
  0
LINE
  5
3FD
100
AcDbEntity
  8
0
  6
CONTINUOUS
100
AcDbLine
 39
96.0
 10
53.330688
 20
33.345774
 30
0.0
 11
54.859697
 21
33.345774
 31
0.0
  0
LINE
  5
3FE
100
AcDbEntity
  8
0
  6
CONTINUOUS
100
AcDbLine
 39
96.0
 10
54.117035
 20
34.13164
 30
0.0
 11
53.330688
 21
33.345774
 31
0.0
  0
LINE
  5
3FF
100
AcDbEntity
  8
0
  6
CONTINUOUS
100
AcDbLine
 39
96.0
 10
54.117035
 20
43.081782
 30
0.0
 11
54.117035
 21
34.13164
 31
0.0
  0
LINE
  5
400
100
AcDbEntity
  8
0
  6
CONTINUOUS
100
AcDbLine
 39
96.0
 10
54.859697
 20
43.847376
 30
0.0
 11
54.117035
 21
43.081782
 31
0.0
  0
ARC
  5
401
100
AcDbEntity
  8
BORDER
  6
CONTINUOUS
 62
     3
100
AcDbCircle
 39
96.0
 10
34.372724
 20
39.58873
 30
0.0
 40
3.0
100
AcDbArc
 50
180.0
 51
0.0
  0
ARC
  5
402
100
AcDbEntity
  8
BORDER
  6
CONTINUOUS
 62
     3
100
AcDbCircle
 39
96.0
 10
34.372724
 20
24.68439
 30
0.0
 40
3.0
100
AcDbArc
 50
0.0
 51
180.0
  0
LINE
  5
403
100
AcDbEntity
  8
0
  6
CONTINUOUS
 62
    13
100
AcDbLine
 39
96.0
 10
33.001764
 20
33.889685
 30
0.0
 11
36.421663
 21
33.889685
 31
0.0
  0
CIRCLE
  5
404
100
AcDbEntity
  8
BORDER
  6
CONTINUOUS
 62
    15
100
AcDbCircle
 39
96.0
 10
35.630926
 20
33.87523
 30
0.0
 40
0.375
  0
LINE
  5
405
100
AcDbEntity
  8
BORDER
  6
CONTINUOUS
 62
    14
100
AcDbLine
 39
96.0
 10
40.416509
 20
34.160377
 30
0.0
 11
39.372724
 21
33.43443
 31
0.0
  0
LINE
  5
406
100
AcDbEntity
  8
BORDER
  6
CONTINUOUS
 62
     3
100
AcDbLine
 39
96.0
 10
37.497724
 20
34.43798
 30
0.0
 11
37.497724
 21
39.68443
 31
0.0
  0
LINE
  5
407
100
AcDbEntity
  8
BORDER
  6
CONTINUOUS
 62
     3
100
AcDbLine
 39
96.0
 10
37.497724
 20
31.426042
 30
0.0
 11
39.372724
 21
31.426042
 31
0.0
  0
LINE
  5
408
100
AcDbEntity
  8
BORDER
  6
CONTINUOUS
 62
     3
100
AcDbLine
 39
96.0
 10
37.497724
 20
34.43798
 30
0.0
 11
39.372724
 21
34.43798
 31
0.0
  0
LINE
  5
409
100
AcDbEntity
  8
BORDER
  6
CONTINUOUS
 62
    14
100
AcDbLine
 39
96.0
 10
40.724856
 20
33.43443
 30
0.0
 11
53.419398
 21
33.43443
 31
0.0
  0
LINE
  5
40A
100
AcDbEntity
  8
BORDER
  6
CONTINUOUS
 62
    11
100
AcDbLine
 39
96.0
 10
33.095023
 20
42.387826
 30
0.0
 11
36.595023
 21
43.887826
 31
0.0
  0
LINE
  5
40B
100
AcDbEntity
  8
BORDER
  6
CONTINUOUS
 62
    11
100
AcDbLine
 39
96.0
 10
33.095023
 20
42.387826
 30
0.0
 11
36.595023
 21
42.387826
 31
0.0
  0
LINE
  5
40C
100
AcDbEntity
  8
BORDER
  6
CONTINUOUS
 62
    11
100
AcDbLine
 39
96.0
 10
33.095023
 20
43.887826
 30
0.0
 11
33.095023
 21
42.387826
 31
0.0
  0
LINE
  5
40D
100
AcDbEntity
  8
BORDER
  6
CONTINUOUS
 62
    11
100
AcDbLine
 39
96.0
 10
36.595023
 20
43.887826
 30
0.0
 11
33.095023
 21
43.887826
 31
0.0
  0
LINE
  5
40E
100
AcDbEntity
  8
BORDER
  6
CONTINUOUS
 62
    11
100
AcDbLine
 39
96.0
 10
36.595023
 20
42.387826
 30
0.0
 11
36.595023
 21
43.887826
 31
0.0
  0
CIRCLE
  5
40F
100
AcDbEntity
  8
BORDER
  6
CONTINUOUS
 62
    15
100
AcDbCircle
 39
96.0
 10
33.501534
 20
33.87523
 30
0.0
 40
0.375
  0
CIRCLE
  5
410
100
AcDbEntity
  8
BORDER
  6
CONTINUOUS
 62
    15
100
AcDbCircle
 39
96.0
 10
33.974034
 20
22.61993
 30
0.0
 40
0.375
  0
CIRCLE
  5
411
100
AcDbEntity
  8
BORDER
  6
CONTINUOUS
 62
    15
100
AcDbCircle
 39
96.0
 10
33.974034
 20
7.61993
 30
0.0
 40
0.375
  0
LINE
  5
412
100
AcDbEntity
  8
BORDER
  6
CONTINUOUS
 62
    15
100
AcDbLine
 39
96.0
 10
34.585124
 20
38.99393
 30
0.0
 11
34.585124
 21
1.40655
 31
0.0
  0
LINE
  5
413
100
AcDbEntity
  8
BORDER
  6
CONTINUOUS
 62
     3
100
AcDbLine
 39
96.0
 10
34.657723
 20
32.392126
 30
0.0
 11
36.108653
 21
32.392126
 31
0.0
  0
LINE
  5
414
100
AcDbEntity
  8
BORDER
  6
CONTINUOUS
 62
     3
100
AcDbLine
 39
96.0
 10
32.762124
 20
33.13283
 30
0.0
 11
32.762124
 21
34.47763
 31
0.0
  0
LINE
  5
415
100
AcDbEntity
  8
BORDER
  6
CONTINUOUS
 62
    15
100
AcDbLine
 39
96.0
 10
35.426184
 20
0.0
 30
0.0
 11
36.076084
 21
1.65375
 31
0.0
  0
LINE
  5
416
100
AcDbEntity
  8
BORDER
  6
CONTINUOUS
 62
    15
100
AcDbLine
 39
96.0
 10
33.477214
 20
3.30749
 30
0.0
 11
35.426184
 21
0.0
 31
0.0
  0
LINE
  5
417
100
AcDbEntity
  8
BORDER
  6
CONTINUOUS
 62
    15
100
AcDbLine
 39
96.0
 10
32.650304
 20
1.65375
 30
0.0
 11
33.477214
 21
3.30749
 31
0.0
  0
LINE
  5
418
100
AcDbEntity
  8
BORDER
  6
CONTINUOUS
 62
    15
100
AcDbLine
 39
96.0
 10
32.650304
 20
1.65375
 30
0.0
 11
28.220624
 21
1.65375
 31
0.0
  0
LINE
  5
419
100
AcDbEntity
  8
BORDER
  6
CONTINUOUS
 62
    15
100
AcDbLine
 39
96.0
 10
40.505774
 20
1.65375
 30
0.0
 11
36.076084
 21
1.65375
 31
0.0
  0
LINE
  5
41A
100
AcDbEntity
  8
BORDER
  6
CONTINUOUS
 62
    10
100
AcDbLine
 39
96.0
 10
33.477944
 20
7.42377
 30
0.0
 11
33.464274
 21
7.3468
 31
0.0
  0
LINE
  5
41B
100
AcDbEntity
  8
BORDER
  6
CONTINUOUS
 62
    10
100
AcDbLine
 39
96.0
 10
34.623204
 20
8.39654
 30
0.0
 11
34.578284
 21
8.33252
 31
0.0
  0
LINE
  5
41C
100
AcDbEntity
  8
BORDER
  6
CONTINUOUS
 62
    10
100
AcDbLine
 39
96.0
 10
34.892004
 20
7.56378
 30
0.0
 11
34.818524
 21
7.53705
 31
0.0
  0
LINE
  5
41D
100
AcDbEntity
  8
BORDER
  6
CONTINUOUS
 62
     3
100
AcDbLine
 39
96.0
 10
37.497724
 20
9.68439
 30
0.0
 11
39.372724
 21
9.68439
 31
0.0
  0
LINE
  5
41E
100
AcDbEntity
  8
BORDER
  6
CONTINUOUS
 62
     3
100
AcDbLine
 39
96.0
 10
29.372724
 20
9.68439
 30
0.0
 11
31.247724
 21
9.68439
 31
0.0
  0
LINE
  5
41F
100
AcDbEntity
  8
BORDER
  6
CONTINUOUS
 62
     2
100
AcDbLine
 39
96.0
 10
38.960124
 20
2.04864
 30
0.0
 11
38.960124
 21
2.04864
 31
0.0
  0
LINE
  5
420
100
AcDbEntity
  8
BORDER
  6
CONTINUOUS
 62
     2
100
AcDbLine
 39
96.0
 10
38.491374
 20
2.04864
 30
0.0
 11
38.491374
 21
2.04864
 31
0.0
  0
LINE
  5
421
100
AcDbEntity
  8
BORDER
  6
CONTINUOUS
 62
     2
100
AcDbLine
 39
96.0
 10
38.022624
 20
2.04864
 30
0.0
 11
38.022624
 21
2.04864
 31
0.0
  0
LINE
  5
422
100
AcDbEntity
  8
BORDER
  6
CONTINUOUS
 62
     2
100
AcDbLine
 39
96.0
 10
37.553874
 20
2.04864
 30
0.0
 11
37.553874
 21
2.04864
 31
0.0
  0
LINE
  5
423
100
AcDbEntity
  8
BORDER
  6
CONTINUOUS
 62
     2
100
AcDbLine
 39
96.0
 10
39.194494
 20
2.51739
 30
0.0
 11
39.194494
 21
2.51739
 31
0.0
  0
LINE
  5
424
100
AcDbEntity
  8
BORDER
  6
CONTINUOUS
 62
     2
100
AcDbLine
 39
96.0
 10
38.725744
 20
2.51739
 30
0.0
 11
38.725744
 21
2.51739
 31
0.0
  0
LINE
  5
425
100
AcDbEntity
  8
BORDER
  6
CONTINUOUS
 62
     2
100
AcDbLine
 39
96.0
 10
38.256994
 20
2.51739
 30
0.0
 11
38.256994
 21
2.51739
 31
0.0
  0
LINE
  5
426
100
AcDbEntity
  8
BORDER
  6
CONTINUOUS
 62
     2
100
AcDbLine
 39
96.0
 10
37.788244
 20
2.51739
 30
0.0
 11
37.788244
 21
2.51739
 31
0.0
  0
LINE
  5
427
100
AcDbEntity
  8
BORDER
  6
CONTINUOUS
 62
     2
100
AcDbLine
 39
96.0
 10
38.960124
 20
2.98614
 30
0.0
 11
38.960124
 21
2.98614
 31
0.0
  0
LINE
  5
428
100
AcDbEntity
  8
BORDER
  6
CONTINUOUS
 62
     2
100
AcDbLine
 39
96.0
 10
38.491374
 20
2.98614
 30
0.0
 11
38.491374
 21
2.98614
 31
0.0
  0
LINE
  5
429
100
AcDbEntity
  8
BORDER
  6
CONTINUOUS
 62
     2
100
AcDbLine
 39
96.0
 10
38.022624
 20
2.98614
 30
0.0
 11
38.022624
 21
2.98614
 31
0.0
  0
LINE
  5
42A
100
AcDbEntity
  8
BORDER
  6
CONTINUOUS
 62
     2
100
AcDbLine
 39
96.0
 10
37.553874
 20
2.98614
 30
0.0
 11
37.553874
 21
2.98614
 31
0.0
  0
LINE
  5
42B
100
AcDbEntity
  8
BORDER
  6
CONTINUOUS
 62
     2
100
AcDbLine
 39
96.0
 10
39.194494
 20
3.45489
 30
0.0
 11
39.194494
 21
3.45489
 31
0.0
  0
LINE
  5
42C
100
AcDbEntity
  8
BORDER
  6
CONTINUOUS
 62
     2
100
AcDbLine
 39
96.0
 10
38.725744
 20
3.45489
 30
0.0
 11
38.725744
 21
3.45489
 31
0.0
  0
LINE
  5
42D
100
AcDbEntity
  8
BORDER
  6
CONTINUOUS
 62
     2
100
AcDbLine
 39
96.0
 10
38.256994
 20
3.45489
 30
0.0
 11
38.256994
 21
3.45489
 31
0.0
  0
LINE
  5
42E
100
AcDbEntity
  8
BORDER
  6
CONTINUOUS
 62
     2
100
AcDbLine
 39
96.0
 10
37.788244
 20
3.45489
 30
0.0
 11
37.788244
 21
3.45489
 31
0.0
  0
LINE
  5
42F
100
AcDbEntity
  8
BORDER
  6
CONTINUOUS
 62
     2
100
AcDbLine
 39
96.0
 10
38.960124
 20
3.92364
 30
0.0
 11
38.960124
 21
3.92364
 31
0.0
  0
LINE
  5
430
100
AcDbEntity
  8
BORDER
  6
CONTINUOUS
 62
     2
100
AcDbLine
 39
96.0
 10
38.491374
 20
3.92364
 30
0.0
 11
38.491374
 21
3.92364
 31
0.0
  0
LINE
  5
431
100
AcDbEntity
  8
BORDER
  6
CONTINUOUS
 62
     2
100
AcDbLine
 39
96.0
 10
38.022624
 20
3.92364
 30
0.0
 11
38.022624
 21
3.92364
 31
0.0
  0
LINE
  5
432
100
AcDbEntity
  8
BORDER
  6
CONTINUOUS
 62
     2
100
AcDbLine
 39
96.0
 10
37.553874
 20
3.92364
 30
0.0
 11
37.553874
 21
3.92364
 31
0.0
  0
LINE
  5
433
100
AcDbEntity
  8
BORDER
  6
CONTINUOUS
 62
     2
100
AcDbLine
 39
96.0
 10
39.194494
 20
4.39239
 30
0.0
 11
39.194494
 21
4.39239
 31
0.0
  0
LINE
  5
434
100
AcDbEntity
  8
BORDER
  6
CONTINUOUS
 62
     2
100
AcDbLine
 39
96.0
 10
38.725744
 20
4.39239
 30
0.0
 11
38.725744
 21
4.39239
 31
0.0
  0
LINE
  5
435
100
AcDbEntity
  8
BORDER
  6
CONTINUOUS
 62
     2
100
AcDbLine
 39
96.0
 10
38.256994
 20
4.39239
 30
0.0
 11
38.256994
 21
4.39239
 31
0.0
  0
LINE
  5
436
100
AcDbEntity
  8
BORDER
  6
CONTINUOUS
 62
     2
100
AcDbLine
 39
96.0
 10
37.788244
 20
4.39239
 30
0.0
 11
37.788244
 21
4.39239
 31
0.0
  0
LINE
  5
437
100
AcDbEntity
  8
BORDER
  6
CONTINUOUS
 62
     2
100
AcDbLine
 39
96.0
 10
38.960124
 20
4.86114
 30
0.0
 11
38.960124
 21
4.86114
 31
0.0
  0
LINE
  5
438
100
AcDbEntity
  8
BORDER
  6
CONTINUOUS
 62
     2
100
AcDbLine
 39
96.0
 10
38.491374
 20
4.86114
 30
0.0
 11
38.491374
 21
4.86114
 31
0.0
  0
LINE
  5
439
100
AcDbEntity
  8
BORDER
  6
CONTINUOUS
 62
     2
100
AcDbLine
 39
96.0
 10
38.022624
 20
4.86114
 30
0.0
 11
38.022624
 21
4.86114
 31
0.0
  0
LINE
  5
43A
100
AcDbEntity
  8
BORDER
  6
CONTINUOUS
 62
     2
100
AcDbLine
 39
96.0
 10
37.553874
 20
4.86114
 30
0.0
 11
37.553874
 21
4.86114
 31
0.0
  0
LINE
  5
43B
100
AcDbEntity
  8
BORDER
  6
CONTINUOUS
 62
     2
100
AcDbLine
 39
96.0
 10
39.194494
 20
5.32989
 30
0.0
 11
39.194494
 21
5.32989
 31
0.0
  0
LINE
  5
43C
100
AcDbEntity
  8
BORDER
  6
CONTINUOUS
 62
     2
100
AcDbLine
 39
96.0
 10
38.725744
 20
5.32989
 30
0.0
 11
38.725744
 21
5.32989
 31
0.0
  0
LINE
  5
43D
100
AcDbEntity
  8
BORDER
  6
CONTINUOUS
 62
     2
100
AcDbLine
 39
96.0
 10
38.256994
 20
5.32989
 30
0.0
 11
38.256994
 21
5.32989
 31
0.0
  0
LINE
  5
43E
100
AcDbEntity
  8
BORDER
  6
CONTINUOUS
 62
     2
100
AcDbLine
 39
96.0
 10
37.788244
 20
5.32989
 30
0.0
 11
37.788244
 21
5.32989
 31
0.0
  0
LINE
  5
43F
100
AcDbEntity
  8
BORDER
  6
CONTINUOUS
 62
     2
100
AcDbLine
 39
96.0
 10
38.960124
 20
5.79864
 30
0.0
 11
38.960124
 21
5.79864
 31
0.0
  0
LINE
  5
440
100
AcDbEntity
  8
BORDER
  6
CONTINUOUS
 62
     2
100
AcDbLine
 39
96.0
 10
38.491374
 20
5.79864
 30
0.0
 11
38.491374
 21
5.79864
 31
0.0
  0
LINE
  5
441
100
AcDbEntity
  8
BORDER
  6
CONTINUOUS
 62
     2
100
AcDbLine
 39
96.0
 10
38.022624
 20
5.79864
 30
0.0
 11
38.022624
 21
5.79864
 31
0.0
  0
LINE
  5
442
100
AcDbEntity
  8
BORDER
  6
CONTINUOUS
 62
     2
100
AcDbLine
 39
96.0
 10
37.553874
 20
5.79864
 30
0.0
 11
37.553874
 21
5.79864
 31
0.0
  0
LINE
  5
443
100
AcDbEntity
  8
BORDER
  6
CONTINUOUS
 62
     2
100
AcDbLine
 39
96.0
 10
39.194494
 20
6.26739
 30
0.0
 11
39.194494
 21
6.26739
 31
0.0
  0
LINE
  5
444
100
AcDbEntity
  8
BORDER
  6
CONTINUOUS
 62
     2
100
AcDbLine
 39
96.0
 10
38.725744
 20
6.26739
 30
0.0
 11
38.725744
 21
6.26739
 31
0.0
  0
LINE
  5
445
100
AcDbEntity
  8
BORDER
  6
CONTINUOUS
 62
     2
100
AcDbLine
 39
96.0
 10
38.256994
 20
6.26739
 30
0.0
 11
38.256994
 21
6.26739
 31
0.0
  0
LINE
  5
446
100
AcDbEntity
  8
BORDER
  6
CONTINUOUS
 62
     2
100
AcDbLine
 39
96.0
 10
37.788244
 20
6.26739
 30
0.0
 11
37.788244
 21
6.26739
 31
0.0
  0
LINE
  5
447
100
AcDbEntity
  8
BORDER
  6
CONTINUOUS
 62
     2
100
AcDbLine
 39
96.0
 10
38.960124
 20
6.73614
 30
0.0
 11
38.960124
 21
6.73614
 31
0.0
  0
LINE
  5
448
100
AcDbEntity
  8
BORDER
  6
CONTINUOUS
 62
     2
100
AcDbLine
 39
96.0
 10
38.491374
 20
6.73614
 30
0.0
 11
38.491374
 21
6.73614
 31
0.0
  0
LINE
  5
449
100
AcDbEntity
  8
BORDER
  6
CONTINUOUS
 62
     2
100
AcDbLine
 39
96.0
 10
38.022624
 20
6.73614
 30
0.0
 11
38.022624
 21
6.73614
 31
0.0
  0
LINE
  5
44A
100
AcDbEntity
  8
BORDER
  6
CONTINUOUS
 62
     2
100
AcDbLine
 39
96.0
 10
37.553874
 20
6.73614
 30
0.0
 11
37.553874
 21
6.73614
 31
0.0
  0
LINE
  5
44B
100
AcDbEntity
  8
BORDER
  6
CONTINUOUS
 62
     2
100
AcDbLine
 39
96.0
 10
39.194494
 20
7.20489
 30
0.0
 11
39.194494
 21
7.20489
 31
0.0
  0
LINE
  5
44C
100
AcDbEntity
  8
BORDER
  6
CONTINUOUS
 62
     2
100
AcDbLine
 39
96.0
 10
38.725744
 20
7.20489
 30
0.0
 11
38.725744
 21
7.20489
 31
0.0
  0
LINE
  5
44D
100
AcDbEntity
  8
BORDER
  6
CONTINUOUS
 62
     2
100
AcDbLine
 39
96.0
 10
38.256994
 20
7.20489
 30
0.0
 11
38.256994
 21
7.20489
 31
0.0
  0
LINE
  5
44E
100
AcDbEntity
  8
BORDER
  6
CONTINUOUS
 62
     2
100
AcDbLine
 39
96.0
 10
37.788244
 20
7.20489
 30
0.0
 11
37.788244
 21
7.20489
 31
0.0
  0
LINE
  5
44F
100
AcDbEntity
  8
BORDER
  6
CONTINUOUS
 62
     2
100
AcDbLine
 39
96.0
 10
38.960124
 20
7.67364
 30
0.0
 11
38.960124
 21
7.67364
 31
0.0
  0
LINE
  5
450
100
AcDbEntity
  8
BORDER
  6
CONTINUOUS
 62
     2
100
AcDbLine
 39
96.0
 10
38.491374
 20
7.67364
 30
0.0
 11
38.491374
 21
7.67364
 31
0.0
  0
LINE
  5
451
100
AcDbEntity
  8
BORDER
  6
CONTINUOUS
 62
     2
100
AcDbLine
 39
96.0
 10
38.022624
 20
7.67364
 30
0.0
 11
38.022624
 21
7.67364
 31
0.0
  0
LINE
  5
452
100
AcDbEntity
  8
BORDER
  6
CONTINUOUS
 62
     2
100
AcDbLine
 39
96.0
 10
37.553874
 20
7.67364
 30
0.0
 11
37.553874
 21
7.67364
 31
0.0
  0
LINE
  5
453
100
AcDbEntity
  8
BORDER
  6
CONTINUOUS
 62
     2
100
AcDbLine
 39
96.0
 10
39.194494
 20
8.14239
 30
0.0
 11
39.194494
 21
8.14239
 31
0.0
  0
LINE
  5
454
100
AcDbEntity
  8
BORDER
  6
CONTINUOUS
 62
     2
100
AcDbLine
 39
96.0
 10
38.725744
 20
8.14239
 30
0.0
 11
38.725744
 21
8.14239
 31
0.0
  0
LINE
  5
455
100
AcDbEntity
  8
BORDER
  6
CONTINUOUS
 62
     2
100
AcDbLine
 39
96.0
 10
38.256994
 20
8.14239
 30
0.0
 11
38.256994
 21
8.14239
 31
0.0
  0
LINE
  5
456
100
AcDbEntity
  8
BORDER
  6
CONTINUOUS
 62
     2
100
AcDbLine
 39
96.0
 10
37.788244
 20
8.14239
 30
0.0
 11
37.788244
 21
8.14239
 31
0.0
  0
LINE
  5
457
100
AcDbEntity
  8
BORDER
  6
CONTINUOUS
 62
     2
100
AcDbLine
 39
96.0
 10
38.960124
 20
8.61114
 30
0.0
 11
38.960124
 21
8.61114
 31
0.0
  0
LINE
  5
458
100
AcDbEntity
  8
BORDER
  6
CONTINUOUS
 62
     2
100
AcDbLine
 39
96.0
 10
38.491374
 20
8.61114
 30
0.0
 11
38.491374
 21
8.61114
 31
0.0
  0
LINE
  5
459
100
AcDbEntity
  8
BORDER
  6
CONTINUOUS
 62
     2
100
AcDbLine
 39
96.0
 10
38.022624
 20
8.61114
 30
0.0
 11
38.022624
 21
8.61114
 31
0.0
  0
LINE
  5
45A
100
AcDbEntity
  8
BORDER
  6
CONTINUOUS
 62
     2
100
AcDbLine
 39
96.0
 10
37.553874
 20
8.61114
 30
0.0
 11
37.553874
 21
8.61114
 31
0.0
  0
LINE
  5
45B
100
AcDbEntity
  8
BORDER
  6
CONTINUOUS
 62
     2
100
AcDbLine
 39
96.0
 10
39.194494
 20
9.07989
 30
0.0
 11
39.194494
 21
9.07989
 31
0.0
  0
LINE
  5
45C
100
AcDbEntity
  8
BORDER
  6
CONTINUOUS
 62
     2
100
AcDbLine
 39
96.0
 10
38.725744
 20
9.07989
 30
0.0
 11
38.725744
 21
9.07989
 31
0.0
  0
LINE
  5
45D
100
AcDbEntity
  8
BORDER
  6
CONTINUOUS
 62
     2
100
AcDbLine
 39
96.0
 10
38.256994
 20
9.07989
 30
0.0
 11
38.256994
 21
9.07989
 31
0.0
  0
LINE
  5
45E
100
AcDbEntity
  8
BORDER
  6
CONTINUOUS
 62
     2
100
AcDbLine
 39
96.0
 10
37.788244
 20
9.07989
 30
0.0
 11
37.788244
 21
9.07989
 31
0.0
  0
LINE
  5
45F
100
AcDbEntity
  8
BORDER
  6
CONTINUOUS
 62
     2
100
AcDbLine
 39
96.0
 10
38.960124
 20
9.54864
 30
0.0
 11
38.960124
 21
9.54864
 31
0.0
  0
LINE
  5
460
100
AcDbEntity
  8
BORDER
  6
CONTINUOUS
 62
     2
100
AcDbLine
 39
96.0
 10
38.491374
 20
9.54864
 30
0.0
 11
38.491374
 21
9.54864
 31
0.0
  0
LINE
  5
461
100
AcDbEntity
  8
BORDER
  6
CONTINUOUS
 62
     2
100
AcDbLine
 39
96.0
 10
38.022624
 20
9.54864
 30
0.0
 11
38.022624
 21
9.54864
 31
0.0
  0
LINE
  5
462
100
AcDbEntity
  8
BORDER
  6
CONTINUOUS
 62
     2
100
AcDbLine
 39
96.0
 10
37.553874
 20
9.54864
 30
0.0
 11
37.553874
 21
9.54864
 31
0.0
  0
LINE
  5
463
100
AcDbEntity
  8
BORDER
  6
CONTINUOUS
 62
     2
100
AcDbLine
 39
96.0
 10
30.991374
 20
2.04864
 30
0.0
 11
30.991374
 21
2.04864
 31
0.0
  0
LINE
  5
464
100
AcDbEntity
  8
BORDER
  6
CONTINUOUS
 62
     2
100
AcDbLine
 39
96.0
 10
30.522624
 20
2.04864
 30
0.0
 11
30.522624
 21
2.04864
 31
0.0
  0
LINE
  5
465
100
AcDbEntity
  8
BORDER
  6
CONTINUOUS
 62
     2
100
AcDbLine
 39
96.0
 10
30.053874
 20
2.04864
 30
0.0
 11
30.053874
 21
2.04864
 31
0.0
  0
LINE
  5
466
100
AcDbEntity
  8
BORDER
  6
CONTINUOUS
 62
     2
100
AcDbLine
 39
96.0
 10
29.585124
 20
2.04864
 30
0.0
 11
29.585124
 21
2.04864
 31
0.0
  0
LINE
  5
467
100
AcDbEntity
  8
BORDER
  6
CONTINUOUS
 62
     2
100
AcDbLine
 39
96.0
 10
31.225744
 20
2.51739
 30
0.0
 11
31.225744
 21
2.51739
 31
0.0
  0
LINE
  5
468
100
AcDbEntity
  8
BORDER
  6
CONTINUOUS
 62
     2
100
AcDbLine
 39
96.0
 10
30.756994
 20
2.51739
 30
0.0
 11
30.756994
 21
2.51739
 31
0.0
  0
LINE
  5
469
100
AcDbEntity
  8
BORDER
  6
CONTINUOUS
 62
     2
100
AcDbLine
 39
96.0
 10
30.288244
 20
2.51739
 30
0.0
 11
30.288244
 21
2.51739
 31
0.0
  0
LINE
  5
46A
100
AcDbEntity
  8
BORDER
  6
CONTINUOUS
 62
     2
100
AcDbLine
 39
96.0
 10
29.819494
 20
2.51739
 30
0.0
 11
29.819494
 21
2.51739
 31
0.0
  0
LINE
  5
46B
100
AcDbEntity
  8
BORDER
  6
CONTINUOUS
 62
     2
100
AcDbLine
 39
96.0
 10
30.991374
 20
2.98614
 30
0.0
 11
30.991374
 21
2.98614
 31
0.0
  0
LINE
  5
46C
100
AcDbEntity
  8
BORDER
  6
CONTINUOUS
 62
     2
100
AcDbLine
 39
96.0
 10
30.522624
 20
2.98614
 30
0.0
 11
30.522624
 21
2.98614
 31
0.0
  0
LINE
  5
46D
100
AcDbEntity
  8
BORDER
  6
CONTINUOUS
 62
     2
100
AcDbLine
 39
96.0
 10
30.053874
 20
2.98614
 30
0.0
 11
30.053874
 21
2.98614
 31
0.0
  0
LINE
  5
46E
100
AcDbEntity
  8
BORDER
  6
CONTINUOUS
 62
     2
100
AcDbLine
 39
96.0
 10
29.585124
 20
2.98614
 30
0.0
 11
29.585124
 21
2.98614
 31
0.0
  0
LINE
  5
46F
100
AcDbEntity
  8
BORDER
  6
CONTINUOUS
 62
     2
100
AcDbLine
 39
96.0
 10
31.225744
 20
3.45489
 30
0.0
 11
31.225744
 21
3.45489
 31
0.0
  0
LINE
  5
470
100
AcDbEntity
  8
BORDER
  6
CONTINUOUS
 62
     2
100
AcDbLine
 39
96.0
 10
30.756994
 20
3.45489
 30
0.0
 11
30.756994
 21
3.45489
 31
0.0
  0
LINE
  5
471
100
AcDbEntity
  8
BORDER
  6
CONTINUOUS
 62
     2
100
AcDbLine
 39
96.0
 10
30.288244
 20
3.45489
 30
0.0
 11
30.288244
 21
3.45489
 31
0.0
  0
LINE
  5
472
100
AcDbEntity
  8
BORDER
  6
CONTINUOUS
 62
     2
100
AcDbLine
 39
96.0
 10
29.819494
 20
3.45489
 30
0.0
 11
29.819494
 21
3.45489
 31
0.0
  0
LINE
  5
473
100
AcDbEntity
  8
BORDER
  6
CONTINUOUS
 62
     2
100
AcDbLine
 39
96.0
 10
30.991374
 20
3.92364
 30
0.0
 11
30.991374
 21
3.92364
 31
0.0
  0
LINE
  5
474
100
AcDbEntity
  8
BORDER
  6
CONTINUOUS
 62
     2
100
AcDbLine
 39
96.0
 10
30.522624
 20
3.92364
 30
0.0
 11
30.522624
 21
3.92364
 31
0.0
  0
LINE
  5
475
100
AcDbEntity
  8
BORDER
  6
CONTINUOUS
 62
     2
100
AcDbLine
 39
96.0
 10
30.053874
 20
3.92364
 30
0.0
 11
30.053874
 21
3.92364
 31
0.0
  0
LINE
  5
476
100
AcDbEntity
  8
BORDER
  6
CONTINUOUS
 62
     2
100
AcDbLine
 39
96.0
 10
29.585124
 20
3.92364
 30
0.0
 11
29.585124
 21
3.92364
 31
0.0
  0
LINE
  5
477
100
AcDbEntity
  8
BORDER
  6
CONTINUOUS
 62
     2
100
AcDbLine
 39
96.0
 10
31.225744
 20
4.39239
 30
0.0
 11
31.225744
 21
4.39239
 31
0.0
  0
LINE
  5
478
100
AcDbEntity
  8
BORDER
  6
CONTINUOUS
 62
     2
100
AcDbLine
 39
96.0
 10
30.756994
 20
4.39239
 30
0.0
 11
30.756994
 21
4.39239
 31
0.0
  0
LINE
  5
479
100
AcDbEntity
  8
BORDER
  6
CONTINUOUS
 62
     2
100
AcDbLine
 39
96.0
 10
30.288244
 20
4.39239
 30
0.0
 11
30.288244
 21
4.39239
 31
0.0
  0
LINE
  5
47A
100
AcDbEntity
  8
BORDER
  6
CONTINUOUS
 62
     2
100
AcDbLine
 39
96.0
 10
29.819494
 20
4.39239
 30
0.0
 11
29.819494
 21
4.39239
 31
0.0
  0
LINE
  5
47B
100
AcDbEntity
  8
BORDER
  6
CONTINUOUS
 62
     2
100
AcDbLine
 39
96.0
 10
30.991374
 20
4.86114
 30
0.0
 11
30.991374
 21
4.86114
 31
0.0
  0
LINE
  5
47C
100
AcDbEntity
  8
BORDER
  6
CONTINUOUS
 62
     2
100
AcDbLine
 39
96.0
 10
30.522624
 20
4.86114
 30
0.0
 11
30.522624
 21
4.86114
 31
0.0
  0
LINE
  5
47D
100
AcDbEntity
  8
BORDER
  6
CONTINUOUS
 62
     2
100
AcDbLine
 39
96.0
 10
30.053874
 20
4.86114
 30
0.0
 11
30.053874
 21
4.86114
 31
0.0
  0
LINE
  5
47E
100
AcDbEntity
  8
BORDER
  6
CONTINUOUS
 62
     2
100
AcDbLine
 39
96.0
 10
29.585124
 20
4.86114
 30
0.0
 11
29.585124
 21
4.86114
 31
0.0
  0
LINE
  5
47F
100
AcDbEntity
  8
BORDER
  6
CONTINUOUS
 62
     2
100
AcDbLine
 39
96.0
 10
31.225744
 20
5.32989
 30
0.0
 11
31.225744
 21
5.32989
 31
0.0
  0
LINE
  5
480
100
AcDbEntity
  8
BORDER
  6
CONTINUOUS
 62
     2
100
AcDbLine
 39
96.0
 10
30.756994
 20
5.32989
 30
0.0
 11
30.756994
 21
5.32989
 31
0.0
  0
LINE
  5
481
100
AcDbEntity
  8
BORDER
  6
CONTINUOUS
 62
     2
100
AcDbLine
 39
96.0
 10
30.288244
 20
5.32989
 30
0.0
 11
30.288244
 21
5.32989
 31
0.0
  0
LINE
  5
482
100
AcDbEntity
  8
BORDER
  6
CONTINUOUS
 62
     2
100
AcDbLine
 39
96.0
 10
29.819494
 20
5.32989
 30
0.0
 11
29.819494
 21
5.32989
 31
0.0
  0
LINE
  5
483
100
AcDbEntity
  8
BORDER
  6
CONTINUOUS
 62
     2
100
AcDbLine
 39
96.0
 10
30.991374
 20
5.79864
 30
0.0
 11
30.991374
 21
5.79864
 31
0.0
  0
LINE
  5
484
100
AcDbEntity
  8
BORDER
  6
CONTINUOUS
 62
     2
100
AcDbLine
 39
96.0
 10
30.522624
 20
5.79864
 30
0.0
 11
30.522624
 21
5.79864
 31
0.0
  0
LINE
  5
485
100
AcDbEntity
  8
BORDER
  6
CONTINUOUS
 62
     2
100
AcDbLine
 39
96.0
 10
30.053874
 20
5.79864
 30
0.0
 11
30.053874
 21
5.79864
 31
0.0
  0
LINE
  5
486
100
AcDbEntity
  8
BORDER
  6
CONTINUOUS
 62
     2
100
AcDbLine
 39
96.0
 10
29.585124
 20
5.79864
 30
0.0
 11
29.585124
 21
5.79864
 31
0.0
  0
LINE
  5
487
100
AcDbEntity
  8
BORDER
  6
CONTINUOUS
 62
     2
100
AcDbLine
 39
96.0
 10
31.225744
 20
6.26739
 30
0.0
 11
31.225744
 21
6.26739
 31
0.0
  0
LINE
  5
488
100
AcDbEntity
  8
BORDER
  6
CONTINUOUS
 62
     2
100
AcDbLine
 39
96.0
 10
30.756994
 20
6.26739
 30
0.0
 11
30.756994
 21
6.26739
 31
0.0
  0
LINE
  5
489
100
AcDbEntity
  8
BORDER
  6
CONTINUOUS
 62
     2
100
AcDbLine
 39
96.0
 10
30.288244
 20
6.26739
 30
0.0
 11
30.288244
 21
6.26739
 31
0.0
  0
LINE
  5
48A
100
AcDbEntity
  8
BORDER
  6
CONTINUOUS
 62
     2
100
AcDbLine
 39
96.0
 10
29.819494
 20
6.26739
 30
0.0
 11
29.819494
 21
6.26739
 31
0.0
  0
LINE
  5
48B
100
AcDbEntity
  8
BORDER
  6
CONTINUOUS
 62
     2
100
AcDbLine
 39
96.0
 10
30.991374
 20
6.73614
 30
0.0
 11
30.991374
 21
6.73614
 31
0.0
  0
LINE
  5
48C
100
AcDbEntity
  8
BORDER
  6
CONTINUOUS
 62
     2
100
AcDbLine
 39
96.0
 10
30.522624
 20
6.73614
 30
0.0
 11
30.522624
 21
6.73614
 31
0.0
  0
LINE
  5
48D
100
AcDbEntity
  8
BORDER
  6
CONTINUOUS
 62
     2
100
AcDbLine
 39
96.0
 10
30.053874
 20
6.73614
 30
0.0
 11
30.053874
 21
6.73614
 31
0.0
  0
LINE
  5
48E
100
AcDbEntity
  8
BORDER
  6
CONTINUOUS
 62
     2
100
AcDbLine
 39
96.0
 10
29.585124
 20
6.73614
 30
0.0
 11
29.585124
 21
6.73614
 31
0.0
  0
LINE
  5
48F
100
AcDbEntity
  8
BORDER
  6
CONTINUOUS
 62
     2
100
AcDbLine
 39
96.0
 10
31.225744
 20
7.20489
 30
0.0
 11
31.225744
 21
7.20489
 31
0.0
  0
LINE
  5
490
100
AcDbEntity
  8
BORDER
  6
CONTINUOUS
 62
     2
100
AcDbLine
 39
96.0
 10
30.756994
 20
7.20489
 30
0.0
 11
30.756994
 21
7.20489
 31
0.0
  0
LINE
  5
491
100
AcDbEntity
  8
BORDER
  6
CONTINUOUS
 62
     2
100
AcDbLine
 39
96.0
 10
30.288244
 20
7.20489
 30
0.0
 11
30.288244
 21
7.20489
 31
0.0
  0
LINE
  5
492
100
AcDbEntity
  8
BORDER
  6
CONTINUOUS
 62
     2
100
AcDbLine
 39
96.0
 10
29.819494
 20
7.20489
 30
0.0
 11
29.819494
 21
7.20489
 31
0.0
  0
LINE
  5
493
100
AcDbEntity
  8
BORDER
  6
CONTINUOUS
 62
     2
100
AcDbLine
 39
96.0
 10
30.991374
 20
7.67364
 30
0.0
 11
30.991374
 21
7.67364
 31
0.0
  0
LINE
  5
494
100
AcDbEntity
  8
BORDER
  6
CONTINUOUS
 62
     2
100
AcDbLine
 39
96.0
 10
30.522624
 20
7.67364
 30
0.0
 11
30.522624
 21
7.67364
 31
0.0
  0
LINE
  5
495
100
AcDbEntity
  8
BORDER
  6
CONTINUOUS
 62
     2
100
AcDbLine
 39
96.0
 10
30.053874
 20
7.67364
 30
0.0
 11
30.053874
 21
7.67364
 31
0.0
  0
LINE
  5
496
100
AcDbEntity
  8
BORDER
  6
CONTINUOUS
 62
     2
100
AcDbLine
 39
96.0
 10
29.585124
 20
7.67364
 30
0.0
 11
29.585124
 21
7.67364
 31
0.0
  0
LINE
  5
497
100
AcDbEntity
  8
BORDER
  6
CONTINUOUS
 62
     2
100
AcDbLine
 39
96.0
 10
31.225744
 20
8.14239
 30
0.0
 11
31.225744
 21
8.14239
 31
0.0
  0
LINE
  5
498
100
AcDbEntity
  8
BORDER
  6
CONTINUOUS
 62
     2
100
AcDbLine
 39
96.0
 10
30.756994
 20
8.14239
 30
0.0
 11
30.756994
 21
8.14239
 31
0.0
  0
LINE
  5
499
100
AcDbEntity
  8
BORDER
  6
CONTINUOUS
 62
     2
100
AcDbLine
 39
96.0
 10
30.288244
 20
8.14239
 30
0.0
 11
30.288244
 21
8.14239
 31
0.0
  0
LINE
  5
49A
100
AcDbEntity
  8
BORDER
  6
CONTINUOUS
 62
     2
100
AcDbLine
 39
96.0
 10
29.819494
 20
8.14239
 30
0.0
 11
29.819494
 21
8.14239
 31
0.0
  0
LINE
  5
49B
100
AcDbEntity
  8
BORDER
  6
CONTINUOUS
 62
     2
100
AcDbLine
 39
96.0
 10
30.991374
 20
8.61114
 30
0.0
 11
30.991374
 21
8.61114
 31
0.0
  0
LINE
  5
49C
100
AcDbEntity
  8
BORDER
  6
CONTINUOUS
 62
     2
100
AcDbLine
 39
96.0
 10
30.522624
 20
8.61114
 30
0.0
 11
30.522624
 21
8.61114
 31
0.0
  0
LINE
  5
49D
100
AcDbEntity
  8
BORDER
  6
CONTINUOUS
 62
     2
100
AcDbLine
 39
96.0
 10
30.053874
 20
8.61114
 30
0.0
 11
30.053874
 21
8.61114
 31
0.0
  0
LINE
  5
49E
100
AcDbEntity
  8
BORDER
  6
CONTINUOUS
 62
     2
100
AcDbLine
 39
96.0
 10
29.585124
 20
8.61114
 30
0.0
 11
29.585124
 21
8.61114
 31
0.0
  0
LINE
  5
49F
100
AcDbEntity
  8
BORDER
  6
CONTINUOUS
 62
     2
100
AcDbLine
 39
96.0
 10
31.225744
 20
9.07989
 30
0.0
 11
31.225744
 21
9.07989
 31
0.0
  0
LINE
  5
4A0
100
AcDbEntity
  8
BORDER
  6
CONTINUOUS
 62
     2
100
AcDbLine
 39
96.0
 10
30.756994
 20
9.07989
 30
0.0
 11
30.756994
 21
9.07989
 31
0.0
  0
LINE
  5
4A1
100
AcDbEntity
  8
BORDER
  6
CONTINUOUS
 62
     2
100
AcDbLine
 39
96.0
 10
30.288244
 20
9.07989
 30
0.0
 11
30.288244
 21
9.07989
 31
0.0
  0
LINE
  5
4A2
100
AcDbEntity
  8
BORDER
  6
CONTINUOUS
 62
     2
100
AcDbLine
 39
96.0
 10
29.819494
 20
9.07989
 30
0.0
 11
29.819494
 21
9.07989
 31
0.0
  0
LINE
  5
4A3
100
AcDbEntity
  8
BORDER
  6
CONTINUOUS
 62
     2
100
AcDbLine
 39
96.0
 10
30.991374
 20
9.54864
 30
0.0
 11
30.991374
 21
9.54864
 31
0.0
  0
LINE
  5
4A4
100
AcDbEntity
  8
BORDER
  6
CONTINUOUS
 62
     2
100
AcDbLine
 39
96.0
 10
30.522624
 20
9.54864
 30
0.0
 11
30.522624
 21
9.54864
 31
0.0
  0
LINE
  5
4A5
100
AcDbEntity
  8
BORDER
  6
CONTINUOUS
 62
     2
100
AcDbLine
 39
96.0
 10
30.053874
 20
9.54864
 30
0.0
 11
30.053874
 21
9.54864
 31
0.0
  0
LINE
  5
4A6
100
AcDbEntity
  8
BORDER
  6
CONTINUOUS
 62
     2
100
AcDbLine
 39
96.0
 10
29.585124
 20
9.54864
 30
0.0
 11
29.585124
 21
9.54864
 31
0.0
  0
LINE
  5
4A7
100
AcDbEntity
  8
BORDER
  6
CONTINUOUS
 62
     1
100
AcDbLine
 39
96.0
 10
36.279704
 20
6.81824
 30
0.0
 11
36.290444
 21
6.87982
 31
0.0
  0
LINE
  5
4A8
100
AcDbEntity
  8
BORDER
  6
CONTINUOUS
 62
     1
100
AcDbLine
 39
96.0
 10
35.845624
 20
4.3562
 30
0.0
 11
35.856364
 21
4.41778
 31
0.0
  0
LINE
  5
4A9
100
AcDbEntity
  8
BORDER
  6
CONTINUOUS
 62
     1
100
AcDbLine
 39
96.0
 10
35.411534
 20
1.89416
 30
0.0
 11
35.422284
 21
1.95575
 31
0.0
  0
LINE
  5
4AA
100
AcDbEntity
  8
BORDER
  6
CONTINUOUS
 62
     1
100
AcDbLine
 39
96.0
 10
33.383954
 20
4.79028
 30
0.0
 11
33.394694
 21
4.85187
 31
0.0
  0
LINE
  5
4AB
100
AcDbEntity
  8
BORDER
  6
CONTINUOUS
 62
     1
100
AcDbLine
 39
96.0
 10
32.949864
 20
2.32825
 30
0.0
 11
32.960614
 21
2.38983
 31
0.0
  0
LINE
  5
4AC
100
AcDbEntity
  8
BORDER
  6
CONTINUOUS
 62
     1
100
AcDbLine
 39
96.0
 10
31.356114
 20
7.68634
 30
0.0
 11
31.366864
 21
7.74792
 31
0.0
  0
LINE
  5
4AD
100
AcDbEntity
  8
BORDER
  6
CONTINUOUS
 62
     1
100
AcDbLine
 39
96.0
 10
36.133704
 20
4.35785
 30
0.0
 11
36.169594
 21
4.40912
 31
0.0
  0
LINE
  5
4AE
100
AcDbEntity
  8
BORDER
  6
CONTINUOUS
 62
     1
100
AcDbLine
 39
96.0
 10
34.699624
 20
2.31
 30
0.0
 11
34.735514
 21
2.3612
 31
0.0
  0
LINE
  5
4AF
100
AcDbEntity
  8
BORDER
  6
CONTINUOUS
 62
     1
100
AcDbLine
 39
96.0
 10
34.085854
 20
5.79175
 30
0.0
 11
34.121744
 21
5.84295
 31
0.0
  0
LINE
  5
4B0
100
AcDbEntity
  8
BORDER
  6
CONTINUOUS
 62
     1
100
AcDbLine
 39
96.0
 10
32.651774
 20
3.74383
 30
0.0
 11
32.687664
 21
3.7951
 31
0.0
  0
LINE
  5
4B1
100
AcDbEntity
  8
BORDER
  6
CONTINUOUS
 62
     1
100
AcDbLine
 39
96.0
 10
32.037754
 20
7.22571
 30
0.0
 11
32.073644
 21
7.27691
 31
0.0
  0
LINE
  5
4B2
100
AcDbEntity
  8
BORDER
  6
CONTINUOUS
 62
     1
100
AcDbLine
 39
96.0
 10
37.334874
 20
2.53039
 30
0.0
 11
37.393714
 21
2.55176
 31
0.0
  0
LINE
  5
4B3
100
AcDbEntity
  8
BORDER
  6
CONTINUOUS
 62
     1
100
AcDbLine
 39
96.0
 10
34.985514
 20
1.67535
 30
0.0
 11
35.044354
 21
1.69671
 31
0.0
  0
LINE
  5
4B4
100
AcDbEntity
  8
BORDER
  6
CONTINUOUS
 62
     1
100
AcDbLine
 39
96.0
 10
36.479894
 20
4.87964
 30
0.0
 11
36.538734
 21
4.901
 31
0.0
  0
LINE
  5
4B5
100
AcDbEntity
  8
BORDER
  6
CONTINUOUS
 62
     1
100
AcDbLine
 39
96.0
 10
34.130534
 20
4.0246
 30
0.0
 11
34.189374
 21
4.04596
 31
0.0
  0
LINE
  5
4B6
100
AcDbEntity
  8
BORDER
  6
CONTINUOUS
 62
     1
100
AcDbLine
 39
96.0
 10
31.781164
 20
3.16955
 30
0.0
 11
31.840004
 21
3.19092
 31
0.0
  0
LINE
  5
4B7
100
AcDbEntity
  8
BORDER
  6
CONTINUOUS
 62
     1
100
AcDbLine
 39
96.0
 10
33.275554
 20
6.37384
 30
0.0
 11
33.334394
 21
6.3952
 31
0.0
  0
LINE
  5
4B8
100
AcDbEntity
  8
BORDER
  6
CONTINUOUS
 62
     3
100
AcDbLine
 39
96.0
 10
31.247724
 20
9.68439
 30
0.0
 11
29.372724
 21
9.68439
 31
0.0
  0
ARC
  5
4B9
100
AcDbEntity
  8
BORDER
  6
CONTINUOUS
 62
     3
100
AcDbCircle
 39
96.0
 10
34.372724
 20
9.68439
 30
0.0
 40
3.0
100
AcDbArc
 50
180.0
 51
0.0
  0
LINE
  5
4BA
100
AcDbEntity
  8
BORDER
  6
CONTINUOUS
 62
     3
100
AcDbLine
 39
96.0
 10
37.497724
 20
1.65375
 30
0.0
 11
37.497724
 21
9.68439
 31
0.0
  0
LINE
  5
4BB
100
AcDbEntity
  8
BORDER
  6
CONTINUOUS
 62
     3
100
AcDbLine
 39
96.0
 10
31.247724
 20
9.68439
 30
0.0
 11
31.247724
 21
1.65375
 31
0.0
  0
LINE
  5
4BC
100
AcDbEntity
  8
BORDER
  6
CONTINUOUS
 62
     3
100
AcDbLine
 39
96.0
 10
29.372724
 20
9.68439
 30
0.0
 11
29.372724
 21
1.65375
 31
0.0
  0
LINE
  5
4BD
100
AcDbEntity
  8
BORDER
  6
CONTINUOUS
 62
     3
100
AcDbLine
 39
96.0
 10
39.372724
 20
9.68439
 30
0.0
 11
37.497724
 21
9.68439
 31
0.0
  0
LINE
  5
4BE
100
AcDbEntity
  8
BORDER
  6
CONTINUOUS
 62
     3
100
AcDbLine
 39
96.0
 10
39.372724
 20
1.65375
 30
0.0
 11
39.372724
 21
9.68439
 31
0.0
  0
LINE
  5
4BF
100
AcDbEntity
  8
BORDER
  6
CONTINUOUS
 62
     1
100
AcDbLine
 39
96.0
 10
34.699624
 20
10.63592
 30
0.0
 11
34.735514
 21
10.68713
 31
0.0
  0
LINE
  5
4C0
100
AcDbEntity
  8
BORDER
  6
CONTINUOUS
 62
     1
100
AcDbLine
 39
96.0
 10
35.411534
 20
10.22009
 30
0.0
 11
35.422284
 21
10.28161
 31
0.0
  0
LINE
  5
4C1
100
AcDbEntity
  8
BORDER
  6
CONTINUOUS
 62
     1
100
AcDbLine
 39
96.0
 10
34.985514
 20
10.00128
 30
0.0
 11
35.044354
 21
10.02264
 31
0.0
  0
LINE
  5
4C2
100
AcDbEntity
  8
BORDER
  6
CONTINUOUS
 62
    10
100
AcDbLine
 39
96.0
 10
33.477944
 20
22.4237
 30
0.0
 11
33.464274
 21
22.3468
 31
0.0
  0
LINE
  5
4C3
100
AcDbEntity
  8
BORDER
  6
CONTINUOUS
 62
    10
100
AcDbLine
 39
96.0
 10
34.623204
 20
23.39648
 30
0.0
 11
34.578284
 21
23.33252
 31
0.0
  0
LINE
  5
4C4
100
AcDbEntity
  8
BORDER
  6
CONTINUOUS
 62
    10
100
AcDbLine
 39
96.0
 10
34.892004
 20
22.56384
 30
0.0
 11
34.818524
 21
22.53711
 31
0.0
  0
LINE
  5
4C5
100
AcDbEntity
  8
BORDER
  6
CONTINUOUS
 62
    10
100
AcDbLine
 39
96.0
 10
34.924724
 20
12.63318
 30
0.0
 11
34.913734
 21
12.57165
 31
0.0
  0
LINE
  5
4C6
100
AcDbEntity
  8
BORDER
  6
CONTINUOUS
 62
    10
100
AcDbLine
 39
96.0
 10
32.573154
 20
9.57214
 30
0.0
 11
32.528234
 21
9.50818
 31
0.0
  0
LINE
  5
4C7
100
AcDbEntity
  8
BORDER
  6
CONTINUOUS
 62
    10
100
AcDbLine
 39
96.0
 10
34.365644
 20
12.13202
 30
0.0
 11
34.320714
 21
12.06799
 31
0.0
  0
LINE
  5
4C8
100
AcDbEntity
  8
BORDER
  6
CONTINUOUS
 62
    10
100
AcDbLine
 39
96.0
 10
32.225504
 20
11.61651
 30
0.0
 11
32.152014
 21
11.58978
 31
0.0
  0
LINE
  5
4C9
100
AcDbEntity
  8
BORDER
  6
CONTINUOUS
 62
     3
100
AcDbLine
 39
96.0
 10
37.497724
 20
24.68439
 30
0.0
 11
39.372724
 21
24.68439
 31
0.0
  0
LINE
  5
4CA
100
AcDbEntity
  8
BORDER
  6
CONTINUOUS
 62
     3
100
AcDbLine
 39
96.0
 10
29.372724
 20
24.68439
 30
0.0
 11
31.247724
 21
24.68439
 31
0.0
  0
LINE
  5
4CB
100
AcDbEntity
  8
BORDER
  6
CONTINUOUS
 62
     2
100
AcDbLine
 39
96.0
 10
39.194494
 20
10.01733
 30
0.0
 11
39.194494
 21
10.01733
 31
0.0
  0
LINE
  5
4CC
100
AcDbEntity
  8
BORDER
  6
CONTINUOUS
 62
     2
100
AcDbLine
 39
96.0
 10
38.725744
 20
10.01733
 30
0.0
 11
38.725744
 21
10.01733
 31
0.0
  0
LINE
  5
4CD
100
AcDbEntity
  8
BORDER
  6
CONTINUOUS
 62
     2
100
AcDbLine
 39
96.0
 10
38.256994
 20
10.01733
 30
0.0
 11
38.256994
 21
10.01733
 31
0.0
  0
LINE
  5
4CE
100
AcDbEntity
  8
BORDER
  6
CONTINUOUS
 62
     2
100
AcDbLine
 39
96.0
 10
37.788244
 20
10.01733
 30
0.0
 11
37.788244
 21
10.01733
 31
0.0
  0
LINE
  5
4CF
100
AcDbEntity
  8
BORDER
  6
CONTINUOUS
 62
     2
100
AcDbLine
 39
96.0
 10
38.960124
 20
10.48608
 30
0.0
 11
38.960124
 21
10.48608
 31
0.0
  0
LINE
  5
4D0
100
AcDbEntity
  8
BORDER
  6
CONTINUOUS
 62
     2
100
AcDbLine
 39
96.0
 10
38.491374
 20
10.48608
 30
0.0
 11
38.491374
 21
10.48608
 31
0.0
  0
LINE
  5
4D1
100
AcDbEntity
  8
BORDER
  6
CONTINUOUS
 62
     2
100
AcDbLine
 39
96.0
 10
38.022624
 20
10.48608
 30
0.0
 11
38.022624
 21
10.48608
 31
0.0
  0
LINE
  5
4D2
100
AcDbEntity
  8
BORDER
  6
CONTINUOUS
 62
     2
100
AcDbLine
 39
96.0
 10
37.553874
 20
10.48608
 30
0.0
 11
37.553874
 21
10.48608
 31
0.0
  0
LINE
  5
4D3
100
AcDbEntity
  8
BORDER
  6
CONTINUOUS
 62
     2
100
AcDbLine
 39
96.0
 10
39.194494
 20
10.95483
 30
0.0
 11
39.194494
 21
10.95483
 31
0.0
  0
LINE
  5
4D4
100
AcDbEntity
  8
BORDER
  6
CONTINUOUS
 62
     2
100
AcDbLine
 39
96.0
 10
38.725744
 20
10.95483
 30
0.0
 11
38.725744
 21
10.95483
 31
0.0
  0
LINE
  5
4D5
100
AcDbEntity
  8
BORDER
  6
CONTINUOUS
 62
     2
100
AcDbLine
 39
96.0
 10
38.256994
 20
10.95483
 30
0.0
 11
38.256994
 21
10.95483
 31
0.0
  0
LINE
  5
4D6
100
AcDbEntity
  8
BORDER
  6
CONTINUOUS
 62
     2
100
AcDbLine
 39
96.0
 10
37.788244
 20
10.95483
 30
0.0
 11
37.788244
 21
10.95483
 31
0.0
  0
LINE
  5
4D7
100
AcDbEntity
  8
BORDER
  6
CONTINUOUS
 62
     2
100
AcDbLine
 39
96.0
 10
38.960124
 20
11.42358
 30
0.0
 11
38.960124
 21
11.42358
 31
0.0
  0
LINE
  5
4D8
100
AcDbEntity
  8
BORDER
  6
CONTINUOUS
 62
     2
100
AcDbLine
 39
96.0
 10
38.491374
 20
11.42358
 30
0.0
 11
38.491374
 21
11.42358
 31
0.0
  0
LINE
  5
4D9
100
AcDbEntity
  8
BORDER
  6
CONTINUOUS
 62
     2
100
AcDbLine
 39
96.0
 10
38.022624
 20
11.42358
 30
0.0
 11
38.022624
 21
11.42358
 31
0.0
  0
LINE
  5
4DA
100
AcDbEntity
  8
BORDER
  6
CONTINUOUS
 62
     2
100
AcDbLine
 39
96.0
 10
37.553874
 20
11.42358
 30
0.0
 11
37.553874
 21
11.42358
 31
0.0
  0
LINE
  5
4DB
100
AcDbEntity
  8
BORDER
  6
CONTINUOUS
 62
     2
100
AcDbLine
 39
96.0
 10
39.194494
 20
11.89233
 30
0.0
 11
39.194494
 21
11.89233
 31
0.0
  0
LINE
  5
4DC
100
AcDbEntity
  8
BORDER
  6
CONTINUOUS
 62
     2
100
AcDbLine
 39
96.0
 10
38.725744
 20
11.89233
 30
0.0
 11
38.725744
 21
11.89233
 31
0.0
  0
LINE
  5
4DD
100
AcDbEntity
  8
BORDER
  6
CONTINUOUS
 62
     2
100
AcDbLine
 39
96.0
 10
38.256994
 20
11.89233
 30
0.0
 11
38.256994
 21
11.89233
 31
0.0
  0
LINE
  5
4DE
100
AcDbEntity
  8
BORDER
  6
CONTINUOUS
 62
     2
100
AcDbLine
 39
96.0
 10
37.788244
 20
11.89233
 30
0.0
 11
37.788244
 21
11.89233
 31
0.0
  0
LINE
  5
4DF
100
AcDbEntity
  8
BORDER
  6
CONTINUOUS
 62
     2
100
AcDbLine
 39
96.0
 10
38.960124
 20
12.36108
 30
0.0
 11
38.960124
 21
12.36108
 31
0.0
  0
LINE
  5
4E0
100
AcDbEntity
  8
BORDER
  6
CONTINUOUS
 62
     2
100
AcDbLine
 39
96.0
 10
38.491374
 20
12.36108
 30
0.0
 11
38.491374
 21
12.36108
 31
0.0
  0
LINE
  5
4E1
100
AcDbEntity
  8
BORDER
  6
CONTINUOUS
 62
     2
100
AcDbLine
 39
96.0
 10
38.022624
 20
12.36108
 30
0.0
 11
38.022624
 21
12.36108
 31
0.0
  0
LINE
  5
4E2
100
AcDbEntity
  8
BORDER
  6
CONTINUOUS
 62
     2
100
AcDbLine
 39
96.0
 10
37.553874
 20
12.36108
 30
0.0
 11
37.553874
 21
12.36108
 31
0.0
  0
LINE
  5
4E3
100
AcDbEntity
  8
BORDER
  6
CONTINUOUS
 62
     2
100
AcDbLine
 39
96.0
 10
39.194494
 20
12.82983
 30
0.0
 11
39.194494
 21
12.82983
 31
0.0
  0
LINE
  5
4E4
100
AcDbEntity
  8
BORDER
  6
CONTINUOUS
 62
     2
100
AcDbLine
 39
96.0
 10
38.725744
 20
12.82983
 30
0.0
 11
38.725744
 21
12.82983
 31
0.0
  0
LINE
  5
4E5
100
AcDbEntity
  8
BORDER
  6
CONTINUOUS
 62
     2
100
AcDbLine
 39
96.0
 10
38.256994
 20
12.82983
 30
0.0
 11
38.256994
 21
12.82983
 31
0.0
  0
LINE
  5
4E6
100
AcDbEntity
  8
BORDER
  6
CONTINUOUS
 62
     2
100
AcDbLine
 39
96.0
 10
37.788244
 20
12.82983
 30
0.0
 11
37.788244
 21
12.82983
 31
0.0
  0
LINE
  5
4E7
100
AcDbEntity
  8
BORDER
  6
CONTINUOUS
 62
     2
100
AcDbLine
 39
96.0
 10
38.960124
 20
13.29858
 30
0.0
 11
38.960124
 21
13.29858
 31
0.0
  0
LINE
  5
4E8
100
AcDbEntity
  8
BORDER
  6
CONTINUOUS
 62
     2
100
AcDbLine
 39
96.0
 10
38.491374
 20
13.29858
 30
0.0
 11
38.491374
 21
13.29858
 31
0.0
  0
LINE
  5
4E9
100
AcDbEntity
  8
BORDER
  6
CONTINUOUS
 62
     2
100
AcDbLine
 39
96.0
 10
38.022624
 20
13.29858
 30
0.0
 11
38.022624
 21
13.29858
 31
0.0
  0
LINE
  5
4EA
100
AcDbEntity
  8
BORDER
  6
CONTINUOUS
 62
     2
100
AcDbLine
 39
96.0
 10
37.553874
 20
13.29858
 30
0.0
 11
37.553874
 21
13.29858
 31
0.0
  0
LINE
  5
4EB
100
AcDbEntity
  8
BORDER
  6
CONTINUOUS
 62
     2
100
AcDbLine
 39
96.0
 10
39.194494
 20
13.76733
 30
0.0
 11
39.194494
 21
13.76733
 31
0.0
  0
LINE
  5
4EC
100
AcDbEntity
  8
BORDER
  6
CONTINUOUS
 62
     2
100
AcDbLine
 39
96.0
 10
38.725744
 20
13.76733
 30
0.0
 11
38.725744
 21
13.76733
 31
0.0
  0
LINE
  5
4ED
100
AcDbEntity
  8
BORDER
  6
CONTINUOUS
 62
     2
100
AcDbLine
 39
96.0
 10
38.256994
 20
13.76733
 30
0.0
 11
38.256994
 21
13.76733
 31
0.0
  0
LINE
  5
4EE
100
AcDbEntity
  8
BORDER
  6
CONTINUOUS
 62
     2
100
AcDbLine
 39
96.0
 10
37.788244
 20
13.76733
 30
0.0
 11
37.788244
 21
13.76733
 31
0.0
  0
LINE
  5
4EF
100
AcDbEntity
  8
BORDER
  6
CONTINUOUS
 62
     2
100
AcDbLine
 39
96.0
 10
38.960124
 20
14.23608
 30
0.0
 11
38.960124
 21
14.23608
 31
0.0
  0
LINE
  5
4F0
100
AcDbEntity
  8
BORDER
  6
CONTINUOUS
 62
     2
100
AcDbLine
 39
96.0
 10
38.491374
 20
14.23608
 30
0.0
 11
38.491374
 21
14.23608
 31
0.0
  0
LINE
  5
4F1
100
AcDbEntity
  8
BORDER
  6
CONTINUOUS
 62
     2
100
AcDbLine
 39
96.0
 10
38.022624
 20
14.23608
 30
0.0
 11
38.022624
 21
14.23608
 31
0.0
  0
LINE
  5
4F2
100
AcDbEntity
  8
BORDER
  6
CONTINUOUS
 62
     2
100
AcDbLine
 39
96.0
 10
37.553874
 20
14.23608
 30
0.0
 11
37.553874
 21
14.23608
 31
0.0
  0
LINE
  5
4F3
100
AcDbEntity
  8
BORDER
  6
CONTINUOUS
 62
     2
100
AcDbLine
 39
96.0
 10
39.194494
 20
14.70483
 30
0.0
 11
39.194494
 21
14.70483
 31
0.0
  0
LINE
  5
4F4
100
AcDbEntity
  8
BORDER
  6
CONTINUOUS
 62
     2
100
AcDbLine
 39
96.0
 10
38.725744
 20
14.70483
 30
0.0
 11
38.725744
 21
14.70483
 31
0.0
  0
LINE
  5
4F5
100
AcDbEntity
  8
BORDER
  6
CONTINUOUS
 62
     2
100
AcDbLine
 39
96.0
 10
38.256994
 20
14.70483
 30
0.0
 11
38.256994
 21
14.70483
 31
0.0
  0
LINE
  5
4F6
100
AcDbEntity
  8
BORDER
  6
CONTINUOUS
 62
     2
100
AcDbLine
 39
96.0
 10
37.788244
 20
14.70483
 30
0.0
 11
37.788244
 21
14.70483
 31
0.0
  0
LINE
  5
4F7
100
AcDbEntity
  8
BORDER
  6
CONTINUOUS
 62
     2
100
AcDbLine
 39
96.0
 10
38.960124
 20
15.17358
 30
0.0
 11
38.960124
 21
15.17358
 31
0.0
  0
LINE
  5
4F8
100
AcDbEntity
  8
BORDER
  6
CONTINUOUS
 62
     2
100
AcDbLine
 39
96.0
 10
38.491374
 20
15.17358
 30
0.0
 11
38.491374
 21
15.17358
 31
0.0
  0
LINE
  5
4F9
100
AcDbEntity
  8
BORDER
  6
CONTINUOUS
 62
     2
100
AcDbLine
 39
96.0
 10
38.022624
 20
15.17358
 30
0.0
 11
38.022624
 21
15.17358
 31
0.0
  0
LINE
  5
4FA
100
AcDbEntity
  8
BORDER
  6
CONTINUOUS
 62
     2
100
AcDbLine
 39
96.0
 10
37.553874
 20
15.17358
 30
0.0
 11
37.553874
 21
15.17358
 31
0.0
  0
LINE
  5
4FB
100
AcDbEntity
  8
BORDER
  6
CONTINUOUS
 62
     2
100
AcDbLine
 39
96.0
 10
39.194494
 20
15.64233
 30
0.0
 11
39.194494
 21
15.64233
 31
0.0
  0
LINE
  5
4FC
100
AcDbEntity
  8
BORDER
  6
CONTINUOUS
 62
     2
100
AcDbLine
 39
96.0
 10
38.725744
 20
15.64233
 30
0.0
 11
38.725744
 21
15.64233
 31
0.0
  0
LINE
  5
4FD
100
AcDbEntity
  8
BORDER
  6
CONTINUOUS
 62
     2
100
AcDbLine
 39
96.0
 10
38.256994
 20
15.64233
 30
0.0
 11
38.256994
 21
15.64233
 31
0.0
  0
LINE
  5
4FE
100
AcDbEntity
  8
BORDER
  6
CONTINUOUS
 62
     2
100
AcDbLine
 39
96.0
 10
37.788244
 20
15.64233
 30
0.0
 11
37.788244
 21
15.64233
 31
0.0
  0
LINE
  5
4FF
100
AcDbEntity
  8
BORDER
  6
CONTINUOUS
 62
     2
100
AcDbLine
 39
96.0
 10
38.960124
 20
16.11108
 30
0.0
 11
38.960124
 21
16.11108
 31
0.0
  0
LINE
  5
500
100
AcDbEntity
  8
BORDER
  6
CONTINUOUS
 62
     2
100
AcDbLine
 39
96.0
 10
38.491374
 20
16.11108
 30
0.0
 11
38.491374
 21
16.11108
 31
0.0
  0
LINE
  5
501
100
AcDbEntity
  8
BORDER
  6
CONTINUOUS
 62
     2
100
AcDbLine
 39
96.0
 10
38.022624
 20
16.11108
 30
0.0
 11
38.022624
 21
16.11108
 31
0.0
  0
LINE
  5
502
100
AcDbEntity
  8
BORDER
  6
CONTINUOUS
 62
     2
100
AcDbLine
 39
96.0
 10
37.553874
 20
16.11108
 30
0.0
 11
37.553874
 21
16.11108
 31
0.0
  0
LINE
  5
503
100
AcDbEntity
  8
BORDER
  6
CONTINUOUS
 62
     2
100
AcDbLine
 39
96.0
 10
39.194494
 20
16.57983
 30
0.0
 11
39.194494
 21
16.57983
 31
0.0
  0
LINE
  5
504
100
AcDbEntity
  8
BORDER
  6
CONTINUOUS
 62
     2
100
AcDbLine
 39
96.0
 10
38.725744
 20
16.57983
 30
0.0
 11
38.725744
 21
16.57983
 31
0.0
  0
LINE
  5
505
100
AcDbEntity
  8
BORDER
  6
CONTINUOUS
 62
     2
100
AcDbLine
 39
96.0
 10
38.256994
 20
16.57983
 30
0.0
 11
38.256994
 21
16.57983
 31
0.0
  0
LINE
  5
506
100
AcDbEntity
  8
BORDER
  6
CONTINUOUS
 62
     2
100
AcDbLine
 39
96.0
 10
37.788244
 20
16.57983
 30
0.0
 11
37.788244
 21
16.57983
 31
0.0
  0
LINE
  5
507
100
AcDbEntity
  8
BORDER
  6
CONTINUOUS
 62
     2
100
AcDbLine
 39
96.0
 10
38.960124
 20
17.04858
 30
0.0
 11
38.960124
 21
17.04858
 31
0.0
  0
LINE
  5
508
100
AcDbEntity
  8
BORDER
  6
CONTINUOUS
 62
     2
100
AcDbLine
 39
96.0
 10
38.491374
 20
17.04858
 30
0.0
 11
38.491374
 21
17.04858
 31
0.0
  0
LINE
  5
509
100
AcDbEntity
  8
BORDER
  6
CONTINUOUS
 62
     2
100
AcDbLine
 39
96.0
 10
38.022624
 20
17.04858
 30
0.0
 11
38.022624
 21
17.04858
 31
0.0
  0
LINE
  5
50A
100
AcDbEntity
  8
BORDER
  6
CONTINUOUS
 62
     2
100
AcDbLine
 39
96.0
 10
37.553874
 20
17.04858
 30
0.0
 11
37.553874
 21
17.04858
 31
0.0
  0
LINE
  5
50B
100
AcDbEntity
  8
BORDER
  6
CONTINUOUS
 62
     2
100
AcDbLine
 39
96.0
 10
39.194494
 20
17.51733
 30
0.0
 11
39.194494
 21
17.51733
 31
0.0
  0
LINE
  5
50C
100
AcDbEntity
  8
BORDER
  6
CONTINUOUS
 62
     2
100
AcDbLine
 39
96.0
 10
38.725744
 20
17.51733
 30
0.0
 11
38.725744
 21
17.51733
 31
0.0
  0
LINE
  5
50D
100
AcDbEntity
  8
BORDER
  6
CONTINUOUS
 62
     2
100
AcDbLine
 39
96.0
 10
38.256994
 20
17.51733
 30
0.0
 11
38.256994
 21
17.51733
 31
0.0
  0
LINE
  5
50E
100
AcDbEntity
  8
BORDER
  6
CONTINUOUS
 62
     2
100
AcDbLine
 39
96.0
 10
37.788244
 20
17.51733
 30
0.0
 11
37.788244
 21
17.51733
 31
0.0
  0
LINE
  5
50F
100
AcDbEntity
  8
BORDER
  6
CONTINUOUS
 62
     2
100
AcDbLine
 39
96.0
 10
38.960124
 20
17.98608
 30
0.0
 11
38.960124
 21
17.98608
 31
0.0
  0
LINE
  5
510
100
AcDbEntity
  8
BORDER
  6
CONTINUOUS
 62
     2
100
AcDbLine
 39
96.0
 10
38.491374
 20
17.98608
 30
0.0
 11
38.491374
 21
17.98608
 31
0.0
  0
LINE
  5
511
100
AcDbEntity
  8
BORDER
  6
CONTINUOUS
 62
     2
100
AcDbLine
 39
96.0
 10
38.022624
 20
17.98608
 30
0.0
 11
38.022624
 21
17.98608
 31
0.0
  0
LINE
  5
512
100
AcDbEntity
  8
BORDER
  6
CONTINUOUS
 62
     2
100
AcDbLine
 39
96.0
 10
37.553874
 20
17.98608
 30
0.0
 11
37.553874
 21
17.98608
 31
0.0
  0
LINE
  5
513
100
AcDbEntity
  8
BORDER
  6
CONTINUOUS
 62
     2
100
AcDbLine
 39
96.0
 10
39.194494
 20
18.45483
 30
0.0
 11
39.194494
 21
18.45483
 31
0.0
  0
LINE
  5
514
100
AcDbEntity
  8
BORDER
  6
CONTINUOUS
 62
     2
100
AcDbLine
 39
96.0
 10
38.725744
 20
18.45483
 30
0.0
 11
38.725744
 21
18.45483
 31
0.0
  0
LINE
  5
515
100
AcDbEntity
  8
BORDER
  6
CONTINUOUS
 62
     2
100
AcDbLine
 39
96.0
 10
38.256994
 20
18.45483
 30
0.0
 11
38.256994
 21
18.45483
 31
0.0
  0
LINE
  5
516
100
AcDbEntity
  8
BORDER
  6
CONTINUOUS
 62
     2
100
AcDbLine
 39
96.0
 10
37.788244
 20
18.45483
 30
0.0
 11
37.788244
 21
18.45483
 31
0.0
  0
LINE
  5
517
100
AcDbEntity
  8
BORDER
  6
CONTINUOUS
 62
     2
100
AcDbLine
 39
96.0
 10
38.960124
 20
18.92358
 30
0.0
 11
38.960124
 21
18.92358
 31
0.0
  0
LINE
  5
518
100
AcDbEntity
  8
BORDER
  6
CONTINUOUS
 62
     2
100
AcDbLine
 39
96.0
 10
38.491374
 20
18.92358
 30
0.0
 11
38.491374
 21
18.92358
 31
0.0
  0
LINE
  5
519
100
AcDbEntity
  8
BORDER
  6
CONTINUOUS
 62
     2
100
AcDbLine
 39
96.0
 10
38.022624
 20
18.92358
 30
0.0
 11
38.022624
 21
18.92358
 31
0.0
  0
LINE
  5
51A
100
AcDbEntity
  8
BORDER
  6
CONTINUOUS
 62
     2
100
AcDbLine
 39
96.0
 10
37.553874
 20
18.92358
 30
0.0
 11
37.553874
 21
18.92358
 31
0.0
  0
LINE
  5
51B
100
AcDbEntity
  8
BORDER
  6
CONTINUOUS
 62
     2
100
AcDbLine
 39
96.0
 10
39.194494
 20
19.39233
 30
0.0
 11
39.194494
 21
19.39233
 31
0.0
  0
LINE
  5
51C
100
AcDbEntity
  8
BORDER
  6
CONTINUOUS
 62
     2
100
AcDbLine
 39
96.0
 10
38.725744
 20
19.39233
 30
0.0
 11
38.725744
 21
19.39233
 31
0.0
  0
LINE
  5
51D
100
AcDbEntity
  8
BORDER
  6
CONTINUOUS
 62
     2
100
AcDbLine
 39
96.0
 10
38.256994
 20
19.39233
 30
0.0
 11
38.256994
 21
19.39233
 31
0.0
  0
LINE
  5
51E
100
AcDbEntity
  8
BORDER
  6
CONTINUOUS
 62
     2
100
AcDbLine
 39
96.0
 10
37.788244
 20
19.39233
 30
0.0
 11
37.788244
 21
19.39233
 31
0.0
  0
LINE
  5
51F
100
AcDbEntity
  8
BORDER
  6
CONTINUOUS
 62
     2
100
AcDbLine
 39
96.0
 10
38.960124
 20
19.86108
 30
0.0
 11
38.960124
 21
19.86108
 31
0.0
  0
LINE
  5
520
100
AcDbEntity
  8
BORDER
  6
CONTINUOUS
 62
     2
100
AcDbLine
 39
96.0
 10
38.491374
 20
19.86108
 30
0.0
 11
38.491374
 21
19.86108
 31
0.0
  0
LINE
  5
521
100
AcDbEntity
  8
BORDER
  6
CONTINUOUS
 62
     2
100
AcDbLine
 39
96.0
 10
38.022624
 20
19.86108
 30
0.0
 11
38.022624
 21
19.86108
 31
0.0
  0
LINE
  5
522
100
AcDbEntity
  8
BORDER
  6
CONTINUOUS
 62
     2
100
AcDbLine
 39
96.0
 10
37.553874
 20
19.86108
 30
0.0
 11
37.553874
 21
19.86108
 31
0.0
  0
LINE
  5
523
100
AcDbEntity
  8
BORDER
  6
CONTINUOUS
 62
     2
100
AcDbLine
 39
96.0
 10
39.194494
 20
20.32983
 30
0.0
 11
39.194494
 21
20.32983
 31
0.0
  0
LINE
  5
524
100
AcDbEntity
  8
BORDER
  6
CONTINUOUS
 62
     2
100
AcDbLine
 39
96.0
 10
38.725744
 20
20.32983
 30
0.0
 11
38.725744
 21
20.32983
 31
0.0
  0
LINE
  5
525
100
AcDbEntity
  8
BORDER
  6
CONTINUOUS
 62
     2
100
AcDbLine
 39
96.0
 10
38.256994
 20
20.32983
 30
0.0
 11
38.256994
 21
20.32983
 31
0.0
  0
LINE
  5
526
100
AcDbEntity
  8
BORDER
  6
CONTINUOUS
 62
     2
100
AcDbLine
 39
96.0
 10
37.788244
 20
20.32983
 30
0.0
 11
37.788244
 21
20.32983
 31
0.0
  0
LINE
  5
527
100
AcDbEntity
  8
BORDER
  6
CONTINUOUS
 62
     2
100
AcDbLine
 39
96.0
 10
38.960124
 20
20.79858
 30
0.0
 11
38.960124
 21
20.79858
 31
0.0
  0
LINE
  5
528
100
AcDbEntity
  8
BORDER
  6
CONTINUOUS
 62
     2
100
AcDbLine
 39
96.0
 10
38.491374
 20
20.79858
 30
0.0
 11
38.491374
 21
20.79858
 31
0.0
  0
LINE
  5
529
100
AcDbEntity
  8
BORDER
  6
CONTINUOUS
 62
     2
100
AcDbLine
 39
96.0
 10
38.022624
 20
20.79858
 30
0.0
 11
38.022624
 21
20.79858
 31
0.0
  0
LINE
  5
52A
100
AcDbEntity
  8
BORDER
  6
CONTINUOUS
 62
     2
100
AcDbLine
 39
96.0
 10
37.553874
 20
20.79858
 30
0.0
 11
37.553874
 21
20.79858
 31
0.0
  0
LINE
  5
52B
100
AcDbEntity
  8
BORDER
  6
CONTINUOUS
 62
     2
100
AcDbLine
 39
96.0
 10
39.194494
 20
21.26733
 30
0.0
 11
39.194494
 21
21.26733
 31
0.0
  0
LINE
  5
52C
100
AcDbEntity
  8
BORDER
  6
CONTINUOUS
 62
     2
100
AcDbLine
 39
96.0
 10
38.725744
 20
21.26733
 30
0.0
 11
38.725744
 21
21.26733
 31
0.0
  0
LINE
  5
52D
100
AcDbEntity
  8
BORDER
  6
CONTINUOUS
 62
     2
100
AcDbLine
 39
96.0
 10
38.256994
 20
21.26733
 30
0.0
 11
38.256994
 21
21.26733
 31
0.0
  0
LINE
  5
52E
100
AcDbEntity
  8
BORDER
  6
CONTINUOUS
 62
     2
100
AcDbLine
 39
96.0
 10
37.788244
 20
21.26733
 30
0.0
 11
37.788244
 21
21.26733
 31
0.0
  0
LINE
  5
52F
100
AcDbEntity
  8
BORDER
  6
CONTINUOUS
 62
     2
100
AcDbLine
 39
96.0
 10
38.960124
 20
21.73608
 30
0.0
 11
38.960124
 21
21.73608
 31
0.0
  0
LINE
  5
530
100
AcDbEntity
  8
BORDER
  6
CONTINUOUS
 62
     2
100
AcDbLine
 39
96.0
 10
38.491374
 20
21.73608
 30
0.0
 11
38.491374
 21
21.73608
 31
0.0
  0
LINE
  5
531
100
AcDbEntity
  8
BORDER
  6
CONTINUOUS
 62
     2
100
AcDbLine
 39
96.0
 10
38.022624
 20
21.73608
 30
0.0
 11
38.022624
 21
21.73608
 31
0.0
  0
LINE
  5
532
100
AcDbEntity
  8
BORDER
  6
CONTINUOUS
 62
     2
100
AcDbLine
 39
96.0
 10
37.553874
 20
21.73608
 30
0.0
 11
37.553874
 21
21.73608
 31
0.0
  0
LINE
  5
533
100
AcDbEntity
  8
BORDER
  6
CONTINUOUS
 62
     2
100
AcDbLine
 39
96.0
 10
39.194494
 20
22.20483
 30
0.0
 11
39.194494
 21
22.20483
 31
0.0
  0
LINE
  5
534
100
AcDbEntity
  8
BORDER
  6
CONTINUOUS
 62
     2
100
AcDbLine
 39
96.0
 10
38.725744
 20
22.20483
 30
0.0
 11
38.725744
 21
22.20483
 31
0.0
  0
LINE
  5
535
100
AcDbEntity
  8
BORDER
  6
CONTINUOUS
 62
     2
100
AcDbLine
 39
96.0
 10
38.256994
 20
22.20483
 30
0.0
 11
38.256994
 21
22.20483
 31
0.0
  0
LINE
  5
536
100
AcDbEntity
  8
BORDER
  6
CONTINUOUS
 62
     2
100
AcDbLine
 39
96.0
 10
37.788244
 20
22.20483
 30
0.0
 11
37.788244
 21
22.20483
 31
0.0
  0
LINE
  5
537
100
AcDbEntity
  8
BORDER
  6
CONTINUOUS
 62
     2
100
AcDbLine
 39
96.0
 10
38.960124
 20
22.67358
 30
0.0
 11
38.960124
 21
22.67358
 31
0.0
  0
LINE
  5
538
100
AcDbEntity
  8
BORDER
  6
CONTINUOUS
 62
     2
100
AcDbLine
 39
96.0
 10
38.491374
 20
22.67358
 30
0.0
 11
38.491374
 21
22.67358
 31
0.0
  0
LINE
  5
539
100
AcDbEntity
  8
BORDER
  6
CONTINUOUS
 62
     2
100
AcDbLine
 39
96.0
 10
38.022624
 20
22.67358
 30
0.0
 11
38.022624
 21
22.67358
 31
0.0
  0
LINE
  5
53A
100
AcDbEntity
  8
BORDER
  6
CONTINUOUS
 62
     2
100
AcDbLine
 39
96.0
 10
37.553874
 20
22.67358
 30
0.0
 11
37.553874
 21
22.67358
 31
0.0
  0
LINE
  5
53B
100
AcDbEntity
  8
BORDER
  6
CONTINUOUS
 62
     2
100
AcDbLine
 39
96.0
 10
39.194494
 20
23.14233
 30
0.0
 11
39.194494
 21
23.14233
 31
0.0
  0
LINE
  5
53C
100
AcDbEntity
  8
BORDER
  6
CONTINUOUS
 62
     2
100
AcDbLine
 39
96.0
 10
38.725744
 20
23.14233
 30
0.0
 11
38.725744
 21
23.14233
 31
0.0
  0
LINE
  5
53D
100
AcDbEntity
  8
BORDER
  6
CONTINUOUS
 62
     2
100
AcDbLine
 39
96.0
 10
38.256994
 20
23.14233
 30
0.0
 11
38.256994
 21
23.14233
 31
0.0
  0
LINE
  5
53E
100
AcDbEntity
  8
BORDER
  6
CONTINUOUS
 62
     2
100
AcDbLine
 39
96.0
 10
37.788244
 20
23.14233
 30
0.0
 11
37.788244
 21
23.14233
 31
0.0
  0
LINE
  5
53F
100
AcDbEntity
  8
BORDER
  6
CONTINUOUS
 62
     2
100
AcDbLine
 39
96.0
 10
38.960124
 20
23.61108
 30
0.0
 11
38.960124
 21
23.61108
 31
0.0
  0
LINE
  5
540
100
AcDbEntity
  8
BORDER
  6
CONTINUOUS
 62
     2
100
AcDbLine
 39
96.0
 10
38.491374
 20
23.61108
 30
0.0
 11
38.491374
 21
23.61108
 31
0.0
  0
LINE
  5
541
100
AcDbEntity
  8
BORDER
  6
CONTINUOUS
 62
     2
100
AcDbLine
 39
96.0
 10
38.022624
 20
23.61108
 30
0.0
 11
38.022624
 21
23.61108
 31
0.0
  0
LINE
  5
542
100
AcDbEntity
  8
BORDER
  6
CONTINUOUS
 62
     2
100
AcDbLine
 39
96.0
 10
37.553874
 20
23.61108
 30
0.0
 11
37.553874
 21
23.61108
 31
0.0
  0
LINE
  5
543
100
AcDbEntity
  8
BORDER
  6
CONTINUOUS
 62
     2
100
AcDbLine
 39
96.0
 10
39.194494
 20
24.07983
 30
0.0
 11
39.194494
 21
24.07983
 31
0.0
  0
LINE
  5
544
100
AcDbEntity
  8
BORDER
  6
CONTINUOUS
 62
     2
100
AcDbLine
 39
96.0
 10
38.725744
 20
24.07983
 30
0.0
 11
38.725744
 21
24.07983
 31
0.0
  0
LINE
  5
545
100
AcDbEntity
  8
BORDER
  6
CONTINUOUS
 62
     2
100
AcDbLine
 39
96.0
 10
38.256994
 20
24.07983
 30
0.0
 11
38.256994
 21
24.07983
 31
0.0
  0
LINE
  5
546
100
AcDbEntity
  8
BORDER
  6
CONTINUOUS
 62
     2
100
AcDbLine
 39
96.0
 10
37.788244
 20
24.07983
 30
0.0
 11
37.788244
 21
24.07983
 31
0.0
  0
LINE
  5
547
100
AcDbEntity
  8
BORDER
  6
CONTINUOUS
 62
     2
100
AcDbLine
 39
96.0
 10
38.960124
 20
24.54858
 30
0.0
 11
38.960124
 21
24.54858
 31
0.0
  0
LINE
  5
548
100
AcDbEntity
  8
BORDER
  6
CONTINUOUS
 62
     2
100
AcDbLine
 39
96.0
 10
38.491374
 20
24.54858
 30
0.0
 11
38.491374
 21
24.54858
 31
0.0
  0
LINE
  5
549
100
AcDbEntity
  8
BORDER
  6
CONTINUOUS
 62
     2
100
AcDbLine
 39
96.0
 10
38.022624
 20
24.54858
 30
0.0
 11
38.022624
 21
24.54858
 31
0.0
  0
LINE
  5
54A
100
AcDbEntity
  8
BORDER
  6
CONTINUOUS
 62
     2
100
AcDbLine
 39
96.0
 10
37.553874
 20
24.54858
 30
0.0
 11
37.553874
 21
24.54858
 31
0.0
  0
LINE
  5
54B
100
AcDbEntity
  8
BORDER
  6
CONTINUOUS
 62
     2
100
AcDbLine
 39
96.0
 10
31.225744
 20
10.01733
 30
0.0
 11
31.225744
 21
10.01733
 31
0.0
  0
LINE
  5
54C
100
AcDbEntity
  8
BORDER
  6
CONTINUOUS
 62
     2
100
AcDbLine
 39
96.0
 10
30.756994
 20
10.01733
 30
0.0
 11
30.756994
 21
10.01733
 31
0.0
  0
LINE
  5
54D
100
AcDbEntity
  8
BORDER
  6
CONTINUOUS
 62
     2
100
AcDbLine
 39
96.0
 10
30.288244
 20
10.01733
 30
0.0
 11
30.288244
 21
10.01733
 31
0.0
  0
LINE
  5
54E
100
AcDbEntity
  8
BORDER
  6
CONTINUOUS
 62
     2
100
AcDbLine
 39
96.0
 10
29.819494
 20
10.01733
 30
0.0
 11
29.819494
 21
10.01733
 31
0.0
  0
LINE
  5
54F
100
AcDbEntity
  8
BORDER
  6
CONTINUOUS
 62
     2
100
AcDbLine
 39
96.0
 10
30.991374
 20
10.48608
 30
0.0
 11
30.991374
 21
10.48608
 31
0.0
  0
LINE
  5
550
100
AcDbEntity
  8
BORDER
  6
CONTINUOUS
 62
     2
100
AcDbLine
 39
96.0
 10
30.522624
 20
10.48608
 30
0.0
 11
30.522624
 21
10.48608
 31
0.0
  0
LINE
  5
551
100
AcDbEntity
  8
BORDER
  6
CONTINUOUS
 62
     2
100
AcDbLine
 39
96.0
 10
30.053874
 20
10.48608
 30
0.0
 11
30.053874
 21
10.48608
 31
0.0
  0
LINE
  5
552
100
AcDbEntity
  8
BORDER
  6
CONTINUOUS
 62
     2
100
AcDbLine
 39
96.0
 10
29.585124
 20
10.48608
 30
0.0
 11
29.585124
 21
10.48608
 31
0.0
  0
LINE
  5
553
100
AcDbEntity
  8
BORDER
  6
CONTINUOUS
 62
     2
100
AcDbLine
 39
96.0
 10
31.225744
 20
10.95483
 30
0.0
 11
31.225744
 21
10.95483
 31
0.0
  0
LINE
  5
554
100
AcDbEntity
  8
BORDER
  6
CONTINUOUS
 62
     2
100
AcDbLine
 39
96.0
 10
30.756994
 20
10.95483
 30
0.0
 11
30.756994
 21
10.95483
 31
0.0
  0
LINE
  5
555
100
AcDbEntity
  8
BORDER
  6
CONTINUOUS
 62
     2
100
AcDbLine
 39
96.0
 10
30.288244
 20
10.95483
 30
0.0
 11
30.288244
 21
10.95483
 31
0.0
  0
LINE
  5
556
100
AcDbEntity
  8
BORDER
  6
CONTINUOUS
 62
     2
100
AcDbLine
 39
96.0
 10
29.819494
 20
10.95483
 30
0.0
 11
29.819494
 21
10.95483
 31
0.0
  0
LINE
  5
557
100
AcDbEntity
  8
BORDER
  6
CONTINUOUS
 62
     2
100
AcDbLine
 39
96.0
 10
30.991374
 20
11.42358
 30
0.0
 11
30.991374
 21
11.42358
 31
0.0
  0
LINE
  5
558
100
AcDbEntity
  8
BORDER
  6
CONTINUOUS
 62
     2
100
AcDbLine
 39
96.0
 10
30.522624
 20
11.42358
 30
0.0
 11
30.522624
 21
11.42358
 31
0.0
  0
LINE
  5
559
100
AcDbEntity
  8
BORDER
  6
CONTINUOUS
 62
     2
100
AcDbLine
 39
96.0
 10
30.053874
 20
11.42358
 30
0.0
 11
30.053874
 21
11.42358
 31
0.0
  0
LINE
  5
55A
100
AcDbEntity
  8
BORDER
  6
CONTINUOUS
 62
     2
100
AcDbLine
 39
96.0
 10
29.585124
 20
11.42358
 30
0.0
 11
29.585124
 21
11.42358
 31
0.0
  0
LINE
  5
55B
100
AcDbEntity
  8
BORDER
  6
CONTINUOUS
 62
     2
100
AcDbLine
 39
96.0
 10
31.225744
 20
11.89233
 30
0.0
 11
31.225744
 21
11.89233
 31
0.0
  0
LINE
  5
55C
100
AcDbEntity
  8
BORDER
  6
CONTINUOUS
 62
     2
100
AcDbLine
 39
96.0
 10
30.756994
 20
11.89233
 30
0.0
 11
30.756994
 21
11.89233
 31
0.0
  0
LINE
  5
55D
100
AcDbEntity
  8
BORDER
  6
CONTINUOUS
 62
     2
100
AcDbLine
 39
96.0
 10
30.288244
 20
11.89233
 30
0.0
 11
30.288244
 21
11.89233
 31
0.0
  0
LINE
  5
55E
100
AcDbEntity
  8
BORDER
  6
CONTINUOUS
 62
     2
100
AcDbLine
 39
96.0
 10
29.819494
 20
11.89233
 30
0.0
 11
29.819494
 21
11.89233
 31
0.0
  0
LINE
  5
55F
100
AcDbEntity
  8
BORDER
  6
CONTINUOUS
 62
     2
100
AcDbLine
 39
96.0
 10
30.991374
 20
12.36108
 30
0.0
 11
30.991374
 21
12.36108
 31
0.0
  0
LINE
  5
560
100
AcDbEntity
  8
BORDER
  6
CONTINUOUS
 62
     2
100
AcDbLine
 39
96.0
 10
30.522624
 20
12.36108
 30
0.0
 11
30.522624
 21
12.36108
 31
0.0
  0
LINE
  5
561
100
AcDbEntity
  8
BORDER
  6
CONTINUOUS
 62
     2
100
AcDbLine
 39
96.0
 10
30.053874
 20
12.36108
 30
0.0
 11
30.053874
 21
12.36108
 31
0.0
  0
LINE
  5
562
100
AcDbEntity
  8
BORDER
  6
CONTINUOUS
 62
     2
100
AcDbLine
 39
96.0
 10
29.585124
 20
12.36108
 30
0.0
 11
29.585124
 21
12.36108
 31
0.0
  0
LINE
  5
563
100
AcDbEntity
  8
BORDER
  6
CONTINUOUS
 62
     2
100
AcDbLine
 39
96.0
 10
31.225744
 20
12.82983
 30
0.0
 11
31.225744
 21
12.82983
 31
0.0
  0
LINE
  5
564
100
AcDbEntity
  8
BORDER
  6
CONTINUOUS
 62
     2
100
AcDbLine
 39
96.0
 10
30.756994
 20
12.82983
 30
0.0
 11
30.756994
 21
12.82983
 31
0.0
  0
LINE
  5
565
100
AcDbEntity
  8
BORDER
  6
CONTINUOUS
 62
     2
100
AcDbLine
 39
96.0
 10
30.288244
 20
12.82983
 30
0.0
 11
30.288244
 21
12.82983
 31
0.0
  0
LINE
  5
566
100
AcDbEntity
  8
BORDER
  6
CONTINUOUS
 62
     2
100
AcDbLine
 39
96.0
 10
29.819494
 20
12.82983
 30
0.0
 11
29.819494
 21
12.82983
 31
0.0
  0
LINE
  5
567
100
AcDbEntity
  8
BORDER
  6
CONTINUOUS
 62
     2
100
AcDbLine
 39
96.0
 10
30.991374
 20
13.29858
 30
0.0
 11
30.991374
 21
13.29858
 31
0.0
  0
LINE
  5
568
100
AcDbEntity
  8
BORDER
  6
CONTINUOUS
 62
     2
100
AcDbLine
 39
96.0
 10
30.522624
 20
13.29858
 30
0.0
 11
30.522624
 21
13.29858
 31
0.0
  0
LINE
  5
569
100
AcDbEntity
  8
BORDER
  6
CONTINUOUS
 62
     2
100
AcDbLine
 39
96.0
 10
30.053874
 20
13.29858
 30
0.0
 11
30.053874
 21
13.29858
 31
0.0
  0
LINE
  5
56A
100
AcDbEntity
  8
BORDER
  6
CONTINUOUS
 62
     2
100
AcDbLine
 39
96.0
 10
29.585124
 20
13.29858
 30
0.0
 11
29.585124
 21
13.29858
 31
0.0
  0
LINE
  5
56B
100
AcDbEntity
  8
BORDER
  6
CONTINUOUS
 62
     2
100
AcDbLine
 39
96.0
 10
31.225744
 20
13.76733
 30
0.0
 11
31.225744
 21
13.76733
 31
0.0
  0
LINE
  5
56C
100
AcDbEntity
  8
BORDER
  6
CONTINUOUS
 62
     2
100
AcDbLine
 39
96.0
 10
30.756994
 20
13.76733
 30
0.0
 11
30.756994
 21
13.76733
 31
0.0
  0
LINE
  5
56D
100
AcDbEntity
  8
BORDER
  6
CONTINUOUS
 62
     2
100
AcDbLine
 39
96.0
 10
30.288244
 20
13.76733
 30
0.0
 11
30.288244
 21
13.76733
 31
0.0
  0
LINE
  5
56E
100
AcDbEntity
  8
BORDER
  6
CONTINUOUS
 62
     2
100
AcDbLine
 39
96.0
 10
29.819494
 20
13.76733
 30
0.0
 11
29.819494
 21
13.76733
 31
0.0
  0
LINE
  5
56F
100
AcDbEntity
  8
BORDER
  6
CONTINUOUS
 62
     2
100
AcDbLine
 39
96.0
 10
30.991374
 20
14.23608
 30
0.0
 11
30.991374
 21
14.23608
 31
0.0
  0
LINE
  5
570
100
AcDbEntity
  8
BORDER
  6
CONTINUOUS
 62
     2
100
AcDbLine
 39
96.0
 10
30.522624
 20
14.23608
 30
0.0
 11
30.522624
 21
14.23608
 31
0.0
  0
LINE
  5
571
100
AcDbEntity
  8
BORDER
  6
CONTINUOUS
 62
     2
100
AcDbLine
 39
96.0
 10
30.053874
 20
14.23608
 30
0.0
 11
30.053874
 21
14.23608
 31
0.0
  0
LINE
  5
572
100
AcDbEntity
  8
BORDER
  6
CONTINUOUS
 62
     2
100
AcDbLine
 39
96.0
 10
29.585124
 20
14.23608
 30
0.0
 11
29.585124
 21
14.23608
 31
0.0
  0
LINE
  5
573
100
AcDbEntity
  8
BORDER
  6
CONTINUOUS
 62
     2
100
AcDbLine
 39
96.0
 10
31.225744
 20
14.70483
 30
0.0
 11
31.225744
 21
14.70483
 31
0.0
  0
LINE
  5
574
100
AcDbEntity
  8
BORDER
  6
CONTINUOUS
 62
     2
100
AcDbLine
 39
96.0
 10
30.756994
 20
14.70483
 30
0.0
 11
30.756994
 21
14.70483
 31
0.0
  0
LINE
  5
575
100
AcDbEntity
  8
BORDER
  6
CONTINUOUS
 62
     2
100
AcDbLine
 39
96.0
 10
30.288244
 20
14.70483
 30
0.0
 11
30.288244
 21
14.70483
 31
0.0
  0
LINE
  5
576
100
AcDbEntity
  8
BORDER
  6
CONTINUOUS
 62
     2
100
AcDbLine
 39
96.0
 10
29.819494
 20
14.70483
 30
0.0
 11
29.819494
 21
14.70483
 31
0.0
  0
LINE
  5
577
100
AcDbEntity
  8
BORDER
  6
CONTINUOUS
 62
     2
100
AcDbLine
 39
96.0
 10
30.991374
 20
15.17358
 30
0.0
 11
30.991374
 21
15.17358
 31
0.0
  0
LINE
  5
578
100
AcDbEntity
  8
BORDER
  6
CONTINUOUS
 62
     2
100
AcDbLine
 39
96.0
 10
30.522624
 20
15.17358
 30
0.0
 11
30.522624
 21
15.17358
 31
0.0
  0
LINE
  5
579
100
AcDbEntity
  8
BORDER
  6
CONTINUOUS
 62
     2
100
AcDbLine
 39
96.0
 10
30.053874
 20
15.17358
 30
0.0
 11
30.053874
 21
15.17358
 31
0.0
  0
LINE
  5
57A
100
AcDbEntity
  8
BORDER
  6
CONTINUOUS
 62
     2
100
AcDbLine
 39
96.0
 10
29.585124
 20
15.17358
 30
0.0
 11
29.585124
 21
15.17358
 31
0.0
  0
LINE
  5
57B
100
AcDbEntity
  8
BORDER
  6
CONTINUOUS
 62
     2
100
AcDbLine
 39
96.0
 10
31.225744
 20
15.64233
 30
0.0
 11
31.225744
 21
15.64233
 31
0.0
  0
LINE
  5
57C
100
AcDbEntity
  8
BORDER
  6
CONTINUOUS
 62
     2
100
AcDbLine
 39
96.0
 10
30.756994
 20
15.64233
 30
0.0
 11
30.756994
 21
15.64233
 31
0.0
  0
LINE
  5
57D
100
AcDbEntity
  8
BORDER
  6
CONTINUOUS
 62
     2
100
AcDbLine
 39
96.0
 10
30.288244
 20
15.64233
 30
0.0
 11
30.288244
 21
15.64233
 31
0.0
  0
LINE
  5
57E
100
AcDbEntity
  8
BORDER
  6
CONTINUOUS
 62
     2
100
AcDbLine
 39
96.0
 10
29.819494
 20
15.64233
 30
0.0
 11
29.819494
 21
15.64233
 31
0.0
  0
LINE
  5
57F
100
AcDbEntity
  8
BORDER
  6
CONTINUOUS
 62
     2
100
AcDbLine
 39
96.0
 10
30.991374
 20
16.11108
 30
0.0
 11
30.991374
 21
16.11108
 31
0.0
  0
LINE
  5
580
100
AcDbEntity
  8
BORDER
  6
CONTINUOUS
 62
     2
100
AcDbLine
 39
96.0
 10
30.522624
 20
16.11108
 30
0.0
 11
30.522624
 21
16.11108
 31
0.0
  0
LINE
  5
581
100
AcDbEntity
  8
BORDER
  6
CONTINUOUS
 62
     2
100
AcDbLine
 39
96.0
 10
30.053874
 20
16.11108
 30
0.0
 11
30.053874
 21
16.11108
 31
0.0
  0
LINE
  5
582
100
AcDbEntity
  8
BORDER
  6
CONTINUOUS
 62
     2
100
AcDbLine
 39
96.0
 10
29.585124
 20
16.11108
 30
0.0
 11
29.585124
 21
16.11108
 31
0.0
  0
LINE
  5
583
100
AcDbEntity
  8
BORDER
  6
CONTINUOUS
 62
     2
100
AcDbLine
 39
96.0
 10
31.225744
 20
16.57983
 30
0.0
 11
31.225744
 21
16.57983
 31
0.0
  0
LINE
  5
584
100
AcDbEntity
  8
BORDER
  6
CONTINUOUS
 62
     2
100
AcDbLine
 39
96.0
 10
30.756994
 20
16.57983
 30
0.0
 11
30.756994
 21
16.57983
 31
0.0
  0
LINE
  5
585
100
AcDbEntity
  8
BORDER
  6
CONTINUOUS
 62
     2
100
AcDbLine
 39
96.0
 10
30.288244
 20
16.57983
 30
0.0
 11
30.288244
 21
16.57983
 31
0.0
  0
LINE
  5
586
100
AcDbEntity
  8
BORDER
  6
CONTINUOUS
 62
     2
100
AcDbLine
 39
96.0
 10
29.819494
 20
16.57983
 30
0.0
 11
29.819494
 21
16.57983
 31
0.0
  0
LINE
  5
587
100
AcDbEntity
  8
BORDER
  6
CONTINUOUS
 62
     2
100
AcDbLine
 39
96.0
 10
30.991374
 20
17.04858
 30
0.0
 11
30.991374
 21
17.04858
 31
0.0
  0
LINE
  5
588
100
AcDbEntity
  8
BORDER
  6
CONTINUOUS
 62
     2
100
AcDbLine
 39
96.0
 10
30.522624
 20
17.04858
 30
0.0
 11
30.522624
 21
17.04858
 31
0.0
  0
LINE
  5
589
100
AcDbEntity
  8
BORDER
  6
CONTINUOUS
 62
     2
100
AcDbLine
 39
96.0
 10
30.053874
 20
17.04858
 30
0.0
 11
30.053874
 21
17.04858
 31
0.0
  0
LINE
  5
58A
100
AcDbEntity
  8
BORDER
  6
CONTINUOUS
 62
     2
100
AcDbLine
 39
96.0
 10
29.585124
 20
17.04858
 30
0.0
 11
29.585124
 21
17.04858
 31
0.0
  0
LINE
  5
58B
100
AcDbEntity
  8
BORDER
  6
CONTINUOUS
 62
     2
100
AcDbLine
 39
96.0
 10
31.225744
 20
17.51733
 30
0.0
 11
31.225744
 21
17.51733
 31
0.0
  0
LINE
  5
58C
100
AcDbEntity
  8
BORDER
  6
CONTINUOUS
 62
     2
100
AcDbLine
 39
96.0
 10
30.756994
 20
17.51733
 30
0.0
 11
30.756994
 21
17.51733
 31
0.0
  0
LINE
  5
58D
100
AcDbEntity
  8
BORDER
  6
CONTINUOUS
 62
     2
100
AcDbLine
 39
96.0
 10
30.288244
 20
17.51733
 30
0.0
 11
30.288244
 21
17.51733
 31
0.0
  0
LINE
  5
58E
100
AcDbEntity
  8
BORDER
  6
CONTINUOUS
 62
     2
100
AcDbLine
 39
96.0
 10
29.819494
 20
17.51733
 30
0.0
 11
29.819494
 21
17.51733
 31
0.0
  0
LINE
  5
58F
100
AcDbEntity
  8
BORDER
  6
CONTINUOUS
 62
     2
100
AcDbLine
 39
96.0
 10
30.991374
 20
17.98608
 30
0.0
 11
30.991374
 21
17.98608
 31
0.0
  0
LINE
  5
590
100
AcDbEntity
  8
BORDER
  6
CONTINUOUS
 62
     2
100
AcDbLine
 39
96.0
 10
30.522624
 20
17.98608
 30
0.0
 11
30.522624
 21
17.98608
 31
0.0
  0
LINE
  5
591
100
AcDbEntity
  8
BORDER
  6
CONTINUOUS
 62
     2
100
AcDbLine
 39
96.0
 10
30.053874
 20
17.98608
 30
0.0
 11
30.053874
 21
17.98608
 31
0.0
  0
LINE
  5
592
100
AcDbEntity
  8
BORDER
  6
CONTINUOUS
 62
     2
100
AcDbLine
 39
96.0
 10
29.585124
 20
17.98608
 30
0.0
 11
29.585124
 21
17.98608
 31
0.0
  0
LINE
  5
593
100
AcDbEntity
  8
BORDER
  6
CONTINUOUS
 62
     2
100
AcDbLine
 39
96.0
 10
31.225744
 20
18.45483
 30
0.0
 11
31.225744
 21
18.45483
 31
0.0
  0
LINE
  5
594
100
AcDbEntity
  8
BORDER
  6
CONTINUOUS
 62
     2
100
AcDbLine
 39
96.0
 10
30.756994
 20
18.45483
 30
0.0
 11
30.756994
 21
18.45483
 31
0.0
  0
LINE
  5
595
100
AcDbEntity
  8
BORDER
  6
CONTINUOUS
 62
     2
100
AcDbLine
 39
96.0
 10
30.288244
 20
18.45483
 30
0.0
 11
30.288244
 21
18.45483
 31
0.0
  0
LINE
  5
596
100
AcDbEntity
  8
BORDER
  6
CONTINUOUS
 62
     2
100
AcDbLine
 39
96.0
 10
29.819494
 20
18.45483
 30
0.0
 11
29.819494
 21
18.45483
 31
0.0
  0
LINE
  5
597
100
AcDbEntity
  8
BORDER
  6
CONTINUOUS
 62
     2
100
AcDbLine
 39
96.0
 10
30.991374
 20
18.92358
 30
0.0
 11
30.991374
 21
18.92358
 31
0.0
  0
LINE
  5
598
100
AcDbEntity
  8
BORDER
  6
CONTINUOUS
 62
     2
100
AcDbLine
 39
96.0
 10
30.522624
 20
18.92358
 30
0.0
 11
30.522624
 21
18.92358
 31
0.0
  0
LINE
  5
599
100
AcDbEntity
  8
BORDER
  6
CONTINUOUS
 62
     2
100
AcDbLine
 39
96.0
 10
30.053874
 20
18.92358
 30
0.0
 11
30.053874
 21
18.92358
 31
0.0
  0
LINE
  5
59A
100
AcDbEntity
  8
BORDER
  6
CONTINUOUS
 62
     2
100
AcDbLine
 39
96.0
 10
29.585124
 20
18.92358
 30
0.0
 11
29.585124
 21
18.92358
 31
0.0
  0
LINE
  5
59B
100
AcDbEntity
  8
BORDER
  6
CONTINUOUS
 62
     2
100
AcDbLine
 39
96.0
 10
31.225744
 20
19.39233
 30
0.0
 11
31.225744
 21
19.39233
 31
0.0
  0
LINE
  5
59C
100
AcDbEntity
  8
BORDER
  6
CONTINUOUS
 62
     2
100
AcDbLine
 39
96.0
 10
30.756994
 20
19.39233
 30
0.0
 11
30.756994
 21
19.39233
 31
0.0
  0
LINE
  5
59D
100
AcDbEntity
  8
BORDER
  6
CONTINUOUS
 62
     2
100
AcDbLine
 39
96.0
 10
30.288244
 20
19.39233
 30
0.0
 11
30.288244
 21
19.39233
 31
0.0
  0
LINE
  5
59E
100
AcDbEntity
  8
BORDER
  6
CONTINUOUS
 62
     2
100
AcDbLine
 39
96.0
 10
29.819494
 20
19.39233
 30
0.0
 11
29.819494
 21
19.39233
 31
0.0
  0
LINE
  5
59F
100
AcDbEntity
  8
BORDER
  6
CONTINUOUS
 62
     2
100
AcDbLine
 39
96.0
 10
30.991374
 20
19.86108
 30
0.0
 11
30.991374
 21
19.86108
 31
0.0
  0
LINE
  5
5A0
100
AcDbEntity
  8
BORDER
  6
CONTINUOUS
 62
     2
100
AcDbLine
 39
96.0
 10
30.522624
 20
19.86108
 30
0.0
 11
30.522624
 21
19.86108
 31
0.0
  0
LINE
  5
5A1
100
AcDbEntity
  8
BORDER
  6
CONTINUOUS
 62
     2
100
AcDbLine
 39
96.0
 10
30.053874
 20
19.86108
 30
0.0
 11
30.053874
 21
19.86108
 31
0.0
  0
LINE
  5
5A2
100
AcDbEntity
  8
BORDER
  6
CONTINUOUS
 62
     2
100
AcDbLine
 39
96.0
 10
29.585124
 20
19.86108
 30
0.0
 11
29.585124
 21
19.86108
 31
0.0
  0
LINE
  5
5A3
100
AcDbEntity
  8
BORDER
  6
CONTINUOUS
 62
     2
100
AcDbLine
 39
96.0
 10
31.225744
 20
20.32983
 30
0.0
 11
31.225744
 21
20.32983
 31
0.0
  0
LINE
  5
5A4
100
AcDbEntity
  8
BORDER
  6
CONTINUOUS
 62
     2
100
AcDbLine
 39
96.0
 10
30.756994
 20
20.32983
 30
0.0
 11
30.756994
 21
20.32983
 31
0.0
  0
LINE
  5
5A5
100
AcDbEntity
  8
BORDER
  6
CONTINUOUS
 62
     2
100
AcDbLine
 39
96.0
 10
30.288244
 20
20.32983
 30
0.0
 11
30.288244
 21
20.32983
 31
0.0
  0
LINE
  5
5A6
100
AcDbEntity
  8
BORDER
  6
CONTINUOUS
 62
     2
100
AcDbLine
 39
96.0
 10
29.819494
 20
20.32983
 30
0.0
 11
29.819494
 21
20.32983
 31
0.0
  0
LINE
  5
5A7
100
AcDbEntity
  8
BORDER
  6
CONTINUOUS
 62
     2
100
AcDbLine
 39
96.0
 10
30.991374
 20
20.79858
 30
0.0
 11
30.991374
 21
20.79858
 31
0.0
  0
LINE
  5
5A8
100
AcDbEntity
  8
BORDER
  6
CONTINUOUS
 62
     2
100
AcDbLine
 39
96.0
 10
30.522624
 20
20.79858
 30
0.0
 11
30.522624
 21
20.79858
 31
0.0
  0
LINE
  5
5A9
100
AcDbEntity
  8
BORDER
  6
CONTINUOUS
 62
     2
100
AcDbLine
 39
96.0
 10
30.053874
 20
20.79858
 30
0.0
 11
30.053874
 21
20.79858
 31
0.0
  0
LINE
  5
5AA
100
AcDbEntity
  8
BORDER
  6
CONTINUOUS
 62
     2
100
AcDbLine
 39
96.0
 10
29.585124
 20
20.79858
 30
0.0
 11
29.585124
 21
20.79858
 31
0.0
  0
LINE
  5
5AB
100
AcDbEntity
  8
BORDER
  6
CONTINUOUS
 62
     2
100
AcDbLine
 39
96.0
 10
31.225744
 20
21.26733
 30
0.0
 11
31.225744
 21
21.26733
 31
0.0
  0
LINE
  5
5AC
100
AcDbEntity
  8
BORDER
  6
CONTINUOUS
 62
     2
100
AcDbLine
 39
96.0
 10
30.756994
 20
21.26733
 30
0.0
 11
30.756994
 21
21.26733
 31
0.0
  0
LINE
  5
5AD
100
AcDbEntity
  8
BORDER
  6
CONTINUOUS
 62
     2
100
AcDbLine
 39
96.0
 10
30.288244
 20
21.26733
 30
0.0
 11
30.288244
 21
21.26733
 31
0.0
  0
LINE
  5
5AE
100
AcDbEntity
  8
BORDER
  6
CONTINUOUS
 62
     2
100
AcDbLine
 39
96.0
 10
29.819494
 20
21.26733
 30
0.0
 11
29.819494
 21
21.26733
 31
0.0
  0
LINE
  5
5AF
100
AcDbEntity
  8
BORDER
  6
CONTINUOUS
 62
     2
100
AcDbLine
 39
96.0
 10
30.991374
 20
21.73608
 30
0.0
 11
30.991374
 21
21.73608
 31
0.0
  0
LINE
  5
5B0
100
AcDbEntity
  8
BORDER
  6
CONTINUOUS
 62
     2
100
AcDbLine
 39
96.0
 10
30.522624
 20
21.73608
 30
0.0
 11
30.522624
 21
21.73608
 31
0.0
  0
LINE
  5
5B1
100
AcDbEntity
  8
BORDER
  6
CONTINUOUS
 62
     2
100
AcDbLine
 39
96.0
 10
30.053874
 20
21.73608
 30
0.0
 11
30.053874
 21
21.73608
 31
0.0
  0
LINE
  5
5B2
100
AcDbEntity
  8
BORDER
  6
CONTINUOUS
 62
     2
100
AcDbLine
 39
96.0
 10
29.585124
 20
21.73608
 30
0.0
 11
29.585124
 21
21.73608
 31
0.0
  0
LINE
  5
5B3
100
AcDbEntity
  8
BORDER
  6
CONTINUOUS
 62
     2
100
AcDbLine
 39
96.0
 10
31.225744
 20
22.20483
 30
0.0
 11
31.225744
 21
22.20483
 31
0.0
  0
LINE
  5
5B4
100
AcDbEntity
  8
BORDER
  6
CONTINUOUS
 62
     2
100
AcDbLine
 39
96.0
 10
30.756994
 20
22.20483
 30
0.0
 11
30.756994
 21
22.20483
 31
0.0
  0
LINE
  5
5B5
100
AcDbEntity
  8
BORDER
  6
CONTINUOUS
 62
     2
100
AcDbLine
 39
96.0
 10
30.288244
 20
22.20483
 30
0.0
 11
30.288244
 21
22.20483
 31
0.0
  0
LINE
  5
5B6
100
AcDbEntity
  8
BORDER
  6
CONTINUOUS
 62
     2
100
AcDbLine
 39
96.0
 10
29.819494
 20
22.20483
 30
0.0
 11
29.819494
 21
22.20483
 31
0.0
  0
LINE
  5
5B7
100
AcDbEntity
  8
BORDER
  6
CONTINUOUS
 62
     2
100
AcDbLine
 39
96.0
 10
30.991374
 20
22.67358
 30
0.0
 11
30.991374
 21
22.67358
 31
0.0
  0
LINE
  5
5B8
100
AcDbEntity
  8
BORDER
  6
CONTINUOUS
 62
     2
100
AcDbLine
 39
96.0
 10
30.522624
 20
22.67358
 30
0.0
 11
30.522624
 21
22.67358
 31
0.0
  0
LINE
  5
5B9
100
AcDbEntity
  8
BORDER
  6
CONTINUOUS
 62
     2
100
AcDbLine
 39
96.0
 10
30.053874
 20
22.67358
 30
0.0
 11
30.053874
 21
22.67358
 31
0.0
  0
LINE
  5
5BA
100
AcDbEntity
  8
BORDER
  6
CONTINUOUS
 62
     2
100
AcDbLine
 39
96.0
 10
29.585124
 20
22.67358
 30
0.0
 11
29.585124
 21
22.67358
 31
0.0
  0
LINE
  5
5BB
100
AcDbEntity
  8
BORDER
  6
CONTINUOUS
 62
     2
100
AcDbLine
 39
96.0
 10
31.225744
 20
23.14233
 30
0.0
 11
31.225744
 21
23.14233
 31
0.0
  0
LINE
  5
5BC
100
AcDbEntity
  8
BORDER
  6
CONTINUOUS
 62
     2
100
AcDbLine
 39
96.0
 10
30.756994
 20
23.14233
 30
0.0
 11
30.756994
 21
23.14233
 31
0.0
  0
LINE
  5
5BD
100
AcDbEntity
  8
BORDER
  6
CONTINUOUS
 62
     2
100
AcDbLine
 39
96.0
 10
30.288244
 20
23.14233
 30
0.0
 11
30.288244
 21
23.14233
 31
0.0
  0
LINE
  5
5BE
100
AcDbEntity
  8
BORDER
  6
CONTINUOUS
 62
     2
100
AcDbLine
 39
96.0
 10
29.819494
 20
23.14233
 30
0.0
 11
29.819494
 21
23.14233
 31
0.0
  0
LINE
  5
5BF
100
AcDbEntity
  8
BORDER
  6
CONTINUOUS
 62
     2
100
AcDbLine
 39
96.0
 10
30.991374
 20
23.61108
 30
0.0
 11
30.991374
 21
23.61108
 31
0.0
  0
LINE
  5
5C0
100
AcDbEntity
  8
BORDER
  6
CONTINUOUS
 62
     2
100
AcDbLine
 39
96.0
 10
30.522624
 20
23.61108
 30
0.0
 11
30.522624
 21
23.61108
 31
0.0
  0
LINE
  5
5C1
100
AcDbEntity
  8
BORDER
  6
CONTINUOUS
 62
     2
100
AcDbLine
 39
96.0
 10
30.053874
 20
23.61108
 30
0.0
 11
30.053874
 21
23.61108
 31
0.0
  0
LINE
  5
5C2
100
AcDbEntity
  8
BORDER
  6
CONTINUOUS
 62
     2
100
AcDbLine
 39
96.0
 10
29.585124
 20
23.61108
 30
0.0
 11
29.585124
 21
23.61108
 31
0.0
  0
LINE
  5
5C3
100
AcDbEntity
  8
BORDER
  6
CONTINUOUS
 62
     2
100
AcDbLine
 39
96.0
 10
31.225744
 20
24.07983
 30
0.0
 11
31.225744
 21
24.07983
 31
0.0
  0
LINE
  5
5C4
100
AcDbEntity
  8
BORDER
  6
CONTINUOUS
 62
     2
100
AcDbLine
 39
96.0
 10
30.756994
 20
24.07983
 30
0.0
 11
30.756994
 21
24.07983
 31
0.0
  0
LINE
  5
5C5
100
AcDbEntity
  8
BORDER
  6
CONTINUOUS
 62
     2
100
AcDbLine
 39
96.0
 10
30.288244
 20
24.07983
 30
0.0
 11
30.288244
 21
24.07983
 31
0.0
  0
LINE
  5
5C6
100
AcDbEntity
  8
BORDER
  6
CONTINUOUS
 62
     2
100
AcDbLine
 39
96.0
 10
29.819494
 20
24.07983
 30
0.0
 11
29.819494
 21
24.07983
 31
0.0
  0
LINE
  5
5C7
100
AcDbEntity
  8
BORDER
  6
CONTINUOUS
 62
     2
100
AcDbLine
 39
96.0
 10
30.991374
 20
24.54858
 30
0.0
 11
30.991374
 21
24.54858
 31
0.0
  0
LINE
  5
5C8
100
AcDbEntity
  8
BORDER
  6
CONTINUOUS
 62
     2
100
AcDbLine
 39
96.0
 10
30.522624
 20
24.54858
 30
0.0
 11
30.522624
 21
24.54858
 31
0.0
  0
LINE
  5
5C9
100
AcDbEntity
  8
BORDER
  6
CONTINUOUS
 62
     2
100
AcDbLine
 39
96.0
 10
30.053874
 20
24.54858
 30
0.0
 11
30.053874
 21
24.54858
 31
0.0
  0
LINE
  5
5CA
100
AcDbEntity
  8
BORDER
  6
CONTINUOUS
 62
     2
100
AcDbLine
 39
96.0
 10
29.585124
 20
24.54858
 30
0.0
 11
29.585124
 21
24.54858
 31
0.0
  0
LINE
  5
5CB
100
AcDbEntity
  8
BORDER
  6
CONTINUOUS
 62
     1
100
AcDbLine
 39
96.0
 10
37.439374
 20
13.99805
 30
0.0
 11
37.450114
 21
14.05957
 31
0.0
  0
LINE
  5
5CC
100
AcDbEntity
  8
BORDER
  6
CONTINUOUS
 62
     1
100
AcDbLine
 39
96.0
 10
37.005284
 20
11.53601
 30
0.0
 11
37.016034
 21
11.59753
 31
0.0
  0
LINE
  5
5CD
100
AcDbEntity
  8
BORDER
  6
CONTINUOUS
 62
     1
100
AcDbLine
 39
96.0
 10
36.279704
 20
21.81824
 30
0.0
 11
36.290444
 21
21.87976
 31
0.0
  0
LINE
  5
5CE
100
AcDbEntity
  8
BORDER
  6
CONTINUOUS
 62
     1
100
AcDbLine
 39
96.0
 10
35.845624
 20
19.3562
 30
0.0
 11
35.856364
 21
19.41772
 31
0.0
  0
LINE
  5
5CF
100
AcDbEntity
  8
BORDER
  6
CONTINUOUS
 62
     1
100
AcDbLine
 39
96.0
 10
35.411534
 20
16.89416
 30
0.0
 11
35.422284
 21
16.95569
 31
0.0
  0
LINE
  5
5D0
100
AcDbEntity
  8
BORDER
  6
CONTINUOUS
 62
     1
100
AcDbLine
 39
96.0
 10
34.977454
 20
14.43213
 30
0.0
 11
34.988194
 21
14.49365
 31
0.0
  0
LINE
  5
5D1
100
AcDbEntity
  8
BORDER
  6
CONTINUOUS
 62
     1
100
AcDbLine
 39
96.0
 10
33.383954
 20
19.79028
 30
0.0
 11
33.394694
 21
19.8518
 31
0.0
  0
LINE
  5
5D2
100
AcDbEntity
  8
BORDER
  6
CONTINUOUS
 62
     1
100
AcDbLine
 39
96.0
 10
32.949864
 20
17.32825
 30
0.0
 11
32.960614
 21
17.38977
 31
0.0
  0
LINE
  5
5D3
100
AcDbEntity
  8
BORDER
  6
CONTINUOUS
 62
     1
100
AcDbLine
 39
96.0
 10
32.515784
 20
14.86621
 30
0.0
 11
32.526524
 21
14.92773
 31
0.0
  0
LINE
  5
5D4
100
AcDbEntity
  8
BORDER
  6
CONTINUOUS
 62
     1
100
AcDbLine
 39
96.0
 10
32.081704
 20
12.40417
 30
0.0
 11
32.092444
 21
12.4657
 31
0.0
  0
LINE
  5
5D5
100
AcDbEntity
  8
BORDER
  6
CONTINUOUS
 62
     1
100
AcDbLine
 39
96.0
 10
31.356114
 20
22.6864
 30
0.0
 11
31.366864
 21
22.74792
 31
0.0
  0
LINE
  5
5D6
100
AcDbEntity
  8
BORDER
  6
CONTINUOUS
 62
     1
100
AcDbLine
 39
96.0
 10
37.361004
 20
12.39441
 30
0.0
 11
37.396894
 21
12.44562
 31
0.0
  0
LINE
  5
5D7
100
AcDbEntity
  8
BORDER
  6
CONTINUOUS
 62
     1
100
AcDbLine
 39
96.0
 10
36.747474
 20
15.8761
 30
0.0
 11
36.783364
 21
15.92724
 31
0.0
  0
LINE
  5
5D8
100
AcDbEntity
  8
BORDER
  6
CONTINUOUS
 62
     1
100
AcDbLine
 39
96.0
 10
35.313394
 20
13.82818
 30
0.0
 11
35.349284
 21
13.87939
 31
0.0
  0
LINE
  5
5D9
100
AcDbEntity
  8
BORDER
  6
CONTINUOUS
 62
     1
100
AcDbLine
 39
96.0
 10
36.133704
 20
19.35791
 30
0.0
 11
36.169594
 21
19.40906
 31
0.0
  0
LINE
  5
5DA
100
AcDbEntity
  8
BORDER
  6
CONTINUOUS
 62
     1
100
AcDbLine
 39
96.0
 10
34.699624
 20
17.31
 30
0.0
 11
34.735514
 21
17.3612
 31
0.0
  0
LINE
  5
5DB
100
AcDbEntity
  8
BORDER
  6
CONTINUOUS
 62
     1
100
AcDbLine
 39
96.0
 10
33.265544
 20
15.26208
 30
0.0
 11
33.301434
 21
15.31335
 31
0.0
  0
LINE
  5
5DC
100
AcDbEntity
  8
BORDER
  6
CONTINUOUS
 62
     1
100
AcDbLine
 39
96.0
 10
31.831464
 20
13.21423
 30
0.0
 11
31.867344
 21
13.26544
 31
0.0
  0
LINE
  5
5DD
100
AcDbEntity
  8
BORDER
  6
CONTINUOUS
 62
     1
100
AcDbLine
 39
96.0
 10
34.085854
 20
20.79175
 30
0.0
 11
34.121744
 21
20.84295
 31
0.0
  0
LINE
  5
5DE
100
AcDbEntity
  8
BORDER
  6
CONTINUOUS
 62
     1
100
AcDbLine
 39
96.0
 10
32.651774
 20
18.74389
 30
0.0
 11
32.687664
 21
18.79504
 31
0.0
  0
LINE
  5
5DF
100
AcDbEntity
  8
BORDER
  6
CONTINUOUS
 62
     1
100
AcDbLine
 39
96.0
 10
32.037754
 20
22.22571
 30
0.0
 11
32.073644
 21
22.27691
 31
0.0
  0
LINE
  5
5E0
100
AcDbEntity
  8
BORDER
  6
CONTINUOUS
 62
     1
100
AcDbLine
 39
96.0
 10
36.695234
 20
11.97693
 30
0.0
 11
36.754064
 21
11.99829
 31
0.0
  0
LINE
  5
5E1
100
AcDbEntity
  8
BORDER
  6
CONTINUOUS
 62
     1
100
AcDbLine
 39
96.0
 10
35.840494
 20
14.32617
 30
0.0
 11
35.899334
 21
14.34753
 31
0.0
  0
LINE
  5
5E2
100
AcDbEntity
  8
BORDER
  6
CONTINUOUS
 62
     1
100
AcDbLine
 39
96.0
 10
33.491124
 20
13.47107
 30
0.0
 11
33.549964
 21
13.49243
 31
0.0
  0
LINE
  5
5E3
100
AcDbEntity
  8
BORDER
  6
CONTINUOUS
 62
     1
100
AcDbLine
 39
96.0
 10
37.334874
 20
17.53039
 30
0.0
 11
37.393714
 21
17.55176
 31
0.0
  0
LINE
  5
5E4
100
AcDbEntity
  8
BORDER
  6
CONTINUOUS
 62
     1
100
AcDbLine
 39
96.0
 10
34.985514
 20
16.67535
 30
0.0
 11
35.044354
 21
16.69671
 31
0.0
  0
LINE
  5
5E5
100
AcDbEntity
  8
BORDER
  6
CONTINUOUS
 62
     1
100
AcDbLine
 39
96.0
 10
32.636144
 20
15.82031
 30
0.0
 11
32.694984
 21
15.84167
 31
0.0
  0
LINE
  5
5E6
100
AcDbEntity
  8
BORDER
  6
CONTINUOUS
 62
     1
100
AcDbLine
 39
96.0
 10
36.479894
 20
19.87964
 30
0.0
 11
36.538734
 21
19.901
 31
0.0
  0
LINE
  5
5E7
100
AcDbEntity
  8
BORDER
  6
CONTINUOUS
 62
     1
100
AcDbLine
 39
96.0
 10
34.130534
 20
19.0246
 30
0.0
 11
34.189374
 21
19.04596
 31
0.0
  0
LINE
  5
5E8
100
AcDbEntity
  8
BORDER
  6
CONTINUOUS
 62
     1
100
AcDbLine
 39
96.0
 10
31.781164
 20
18.16955
 30
0.0
 11
31.840004
 21
18.19092
 31
0.0
  0
LINE
  5
5E9
100
AcDbEntity
  8
BORDER
  6
CONTINUOUS
 62
     1
100
AcDbLine
 39
96.0
 10
33.275554
 20
21.3739
 30
0.0
 11
33.334394
 21
21.39526
 31
0.0
  0
LINE
  5
5EA
100
AcDbEntity
  8
BORDER
  6
CONTINUOUS
 62
     3
100
AcDbLine
 39
96.0
 10
37.497724
 20
9.68439
 30
0.0
 11
39.372724
 21
9.68439
 31
0.0
  0
LINE
  5
5EB
100
AcDbEntity
  8
BORDER
  6
CONTINUOUS
 62
     3
100
AcDbLine
 39
96.0
 10
31.247724
 20
24.68439
 30
0.0
 11
29.372724
 21
24.68439
 31
0.0
  0
ARC
  5
5EC
100
AcDbEntity
  8
BORDER
  6
CONTINUOUS
 62
     3
100
AcDbCircle
 39
96.0
 10
34.372724
 20
24.68439
 30
0.0
 40
3.0
100
AcDbArc
 50
180.0
 51
0.0
  0
ARC
  5
5ED
100
AcDbEntity
  8
BORDER
  6
CONTINUOUS
 62
     3
100
AcDbCircle
 39
96.0
 10
34.372724
 20
9.68439
 30
0.0
 40
3.0
100
AcDbArc
 50
0.0
 51
180.0
  0
LINE
  5
5EE
100
AcDbEntity
  8
BORDER
  6
CONTINUOUS
 62
     3
100
AcDbLine
 39
96.0
 10
37.497724
 20
9.68439
 30
0.0
 11
37.497724
 21
24.68439
 31
0.0
  0
LINE
  5
5EF
100
AcDbEntity
  8
BORDER
  6
CONTINUOUS
 62
     3
100
AcDbLine
 39
96.0
 10
31.247724
 20
24.68439
 30
0.0
 11
31.247724
 21
9.68439
 31
0.0
  0
LINE
  5
5F0
100
AcDbEntity
  8
BORDER
  6
CONTINUOUS
 62
     3
100
AcDbLine
 39
96.0
 10
29.372724
 20
24.68439
 30
0.0
 11
29.372724
 21
9.68439
 31
0.0
  0
LINE
  5
5F1
100
AcDbEntity
  8
BORDER
  6
CONTINUOUS
 62
     3
100
AcDbLine
 39
96.0
 10
39.372724
 20
24.68439
 30
0.0
 11
37.497724
 21
24.68439
 31
0.0
  0
LINE
  5
5F2
100
AcDbEntity
  8
BORDER
  6
CONTINUOUS
 62
     3
100
AcDbLine
 39
96.0
 10
39.372724
 20
9.68439
 30
0.0
 11
39.372724
 21
24.68439
 31
0.0
  0
LINE
  5
5F3
100
AcDbEntity
  8
BORDER
  6
CONTINUOUS
 62
     3
100
AcDbLine
 39
96.0
 10
29.372724
 20
9.68439
 30
0.0
 11
31.247724
 21
9.68439
 31
0.0
  0
LINE
  5
5F4
100
AcDbEntity
  8
BORDER
  6
CONTINUOUS
 62
     3
100
AcDbLine
 39
96.0
 10
31.247724
 20
9.68439
 30
0.0
 11
29.372724
 21
9.68439
 31
0.0
  0
LINE
  5
5F5
100
AcDbEntity
  8
BORDER
  6
CONTINUOUS
 62
     3
100
AcDbLine
 39
96.0
 10
39.372724
 20
9.68439
 30
0.0
 11
37.497724
 21
9.68439
 31
0.0
  0
LINE
  5
5F6
100
AcDbEntity
  8
BORDER
  6
CONTINUOUS
 62
    15
100
AcDbLine
 39
96.0
 10
31.372724
 20
39.67013
 30
0.0
 11
37.372724
 21
39.67013
 31
0.0
  0
LINE
  5
5F7
100
AcDbEntity
  8
BORDER
  6
CONTINUOUS
 62
     1
100
AcDbLine
 39
96.0
 10
34.699624
 20
25.63592
 30
0.0
 11
34.735514
 21
25.68713
 31
0.0
  0
LINE
  5
5F8
100
AcDbEntity
  8
BORDER
  6
CONTINUOUS
 62
     1
100
AcDbLine
 39
96.0
 10
35.411534
 20
25.22009
 30
0.0
 11
35.422284
 21
25.28161
 31
0.0
  0
LINE
  5
5F9
100
AcDbEntity
  8
BORDER
  6
CONTINUOUS
 62
     1
100
AcDbLine
 39
96.0
 10
34.985514
 20
25.00128
 30
0.0
 11
35.044354
 21
25.02264
 31
0.0
  0
LINE
  5
5FA
100
AcDbEntity
  8
BORDER
  6
CONTINUOUS
 62
    10
100
AcDbLine
 39
96.0
 10
33.477944
 20
37.42373
 30
0.0
 11
33.464274
 21
37.34683
 31
0.0
  0
LINE
  5
5FB
100
AcDbEntity
  8
BORDER
  6
CONTINUOUS
 62
    10
100
AcDbLine
 39
96.0
 10
34.623204
 20
38.39653
 30
0.0
 11
34.578284
 21
38.33253
 31
0.0
  0
LINE
  5
5FC
100
AcDbEntity
  8
BORDER
  6
CONTINUOUS
 62
    10
100
AcDbLine
 39
96.0
 10
34.892004
 20
37.56383
 30
0.0
 11
34.818524
 21
37.53713
 31
0.0
  0
LINE
  5
5FD
100
AcDbEntity
  8
BORDER
  6
CONTINUOUS
 62
    10
100
AcDbLine
 39
96.0
 10
34.924724
 20
27.63313
 30
0.0
 11
34.913734
 21
27.57163
 31
0.0
  0
LINE
  5
5FE
100
AcDbEntity
  8
BORDER
  6
CONTINUOUS
 62
    10
100
AcDbLine
 39
96.0
 10
32.573154
 20
24.57214
 30
0.0
 11
32.528234
 21
24.50818
 31
0.0
  0
LINE
  5
5FF
100
AcDbEntity
  8
BORDER
  6
CONTINUOUS
 62
    10
100
AcDbLine
 39
96.0
 10
34.365644
 20
27.13202
 30
0.0
 11
34.320714
 21
27.06799
 31
0.0
  0
LINE
  5
600
100
AcDbEntity
  8
BORDER
  6
CONTINUOUS
 62
    10
100
AcDbLine
 39
96.0
 10
32.225504
 20
26.61651
 30
0.0
 11
32.152014
 21
26.58978
 31
0.0
  0
LINE
  5
601
100
AcDbEntity
  8
BORDER
  6
CONTINUOUS
 62
     3
100
AcDbLine
 39
96.0
 10
37.497724
 20
39.68443
 30
0.0
 11
39.372724
 21
39.68443
 31
0.0
  0
LINE
  5
602
100
AcDbEntity
  8
BORDER
  6
CONTINUOUS
 62
     3
100
AcDbLine
 39
96.0
 10
29.372724
 20
39.68443
 30
0.0
 11
31.247724
 21
39.68443
 31
0.0
  0
LINE
  5
603
100
AcDbEntity
  8
BORDER
  6
CONTINUOUS
 62
     2
100
AcDbLine
 39
96.0
 10
39.194494
 20
25.01733
 30
0.0
 11
39.194494
 21
25.01733
 31
0.0
  0
LINE
  5
604
100
AcDbEntity
  8
BORDER
  6
CONTINUOUS
 62
     2
100
AcDbLine
 39
96.0
 10
38.725744
 20
25.01733
 30
0.0
 11
38.725744
 21
25.01733
 31
0.0
  0
LINE
  5
605
100
AcDbEntity
  8
BORDER
  6
CONTINUOUS
 62
     2
100
AcDbLine
 39
96.0
 10
38.256994
 20
25.01733
 30
0.0
 11
38.256994
 21
25.01733
 31
0.0
  0
LINE
  5
606
100
AcDbEntity
  8
BORDER
  6
CONTINUOUS
 62
     2
100
AcDbLine
 39
96.0
 10
37.788244
 20
25.01733
 30
0.0
 11
37.788244
 21
25.01733
 31
0.0
  0
LINE
  5
607
100
AcDbEntity
  8
BORDER
  6
CONTINUOUS
 62
     2
100
AcDbLine
 39
96.0
 10
38.960124
 20
25.48608
 30
0.0
 11
38.960124
 21
25.48608
 31
0.0
  0
LINE
  5
608
100
AcDbEntity
  8
BORDER
  6
CONTINUOUS
 62
     2
100
AcDbLine
 39
96.0
 10
38.491374
 20
25.48608
 30
0.0
 11
38.491374
 21
25.48608
 31
0.0
  0
LINE
  5
609
100
AcDbEntity
  8
BORDER
  6
CONTINUOUS
 62
     2
100
AcDbLine
 39
96.0
 10
38.022624
 20
25.48608
 30
0.0
 11
38.022624
 21
25.48608
 31
0.0
  0
LINE
  5
60A
100
AcDbEntity
  8
BORDER
  6
CONTINUOUS
 62
     2
100
AcDbLine
 39
96.0
 10
37.553874
 20
25.48608
 30
0.0
 11
37.553874
 21
25.48608
 31
0.0
  0
LINE
  5
60B
100
AcDbEntity
  8
BORDER
  6
CONTINUOUS
 62
     2
100
AcDbLine
 39
96.0
 10
39.194494
 20
25.95483
 30
0.0
 11
39.194494
 21
25.95483
 31
0.0
  0
LINE
  5
60C
100
AcDbEntity
  8
BORDER
  6
CONTINUOUS
 62
     2
100
AcDbLine
 39
96.0
 10
38.725744
 20
25.95483
 30
0.0
 11
38.725744
 21
25.95483
 31
0.0
  0
LINE
  5
60D
100
AcDbEntity
  8
BORDER
  6
CONTINUOUS
 62
     2
100
AcDbLine
 39
96.0
 10
38.256994
 20
25.95483
 30
0.0
 11
38.256994
 21
25.95483
 31
0.0
  0
LINE
  5
60E
100
AcDbEntity
  8
BORDER
  6
CONTINUOUS
 62
     2
100
AcDbLine
 39
96.0
 10
37.788244
 20
25.95483
 30
0.0
 11
37.788244
 21
25.95483
 31
0.0
  0
LINE
  5
60F
100
AcDbEntity
  8
BORDER
  6
CONTINUOUS
 62
     2
100
AcDbLine
 39
96.0
 10
38.960124
 20
26.42358
 30
0.0
 11
38.960124
 21
26.42358
 31
0.0
  0
LINE
  5
610
100
AcDbEntity
  8
BORDER
  6
CONTINUOUS
 62
     2
100
AcDbLine
 39
96.0
 10
38.491374
 20
26.42358
 30
0.0
 11
38.491374
 21
26.42358
 31
0.0
  0
LINE
  5
611
100
AcDbEntity
  8
BORDER
  6
CONTINUOUS
 62
     2
100
AcDbLine
 39
96.0
 10
38.022624
 20
26.42358
 30
0.0
 11
38.022624
 21
26.42358
 31
0.0
  0
LINE
  5
612
100
AcDbEntity
  8
BORDER
  6
CONTINUOUS
 62
     2
100
AcDbLine
 39
96.0
 10
37.553874
 20
26.42358
 30
0.0
 11
37.553874
 21
26.42358
 31
0.0
  0
LINE
  5
613
100
AcDbEntity
  8
BORDER
  6
CONTINUOUS
 62
     2
100
AcDbLine
 39
96.0
 10
39.194494
 20
26.89233
 30
0.0
 11
39.194494
 21
26.89233
 31
0.0
  0
LINE
  5
614
100
AcDbEntity
  8
BORDER
  6
CONTINUOUS
 62
     2
100
AcDbLine
 39
96.0
 10
38.725744
 20
26.89233
 30
0.0
 11
38.725744
 21
26.89233
 31
0.0
  0
LINE
  5
615
100
AcDbEntity
  8
BORDER
  6
CONTINUOUS
 62
     2
100
AcDbLine
 39
96.0
 10
38.256994
 20
26.89233
 30
0.0
 11
38.256994
 21
26.89233
 31
0.0
  0
LINE
  5
616
100
AcDbEntity
  8
BORDER
  6
CONTINUOUS
 62
     2
100
AcDbLine
 39
96.0
 10
37.788244
 20
26.89233
 30
0.0
 11
37.788244
 21
26.89233
 31
0.0
  0
LINE
  5
617
100
AcDbEntity
  8
BORDER
  6
CONTINUOUS
 62
     2
100
AcDbLine
 39
96.0
 10
38.960124
 20
27.36108
 30
0.0
 11
38.960124
 21
27.36108
 31
0.0
  0
LINE
  5
618
100
AcDbEntity
  8
BORDER
  6
CONTINUOUS
 62
     2
100
AcDbLine
 39
96.0
 10
38.491374
 20
27.36108
 30
0.0
 11
38.491374
 21
27.36108
 31
0.0
  0
LINE
  5
619
100
AcDbEntity
  8
BORDER
  6
CONTINUOUS
 62
     2
100
AcDbLine
 39
96.0
 10
38.022624
 20
27.36108
 30
0.0
 11
38.022624
 21
27.36108
 31
0.0
  0
LINE
  5
61A
100
AcDbEntity
  8
BORDER
  6
CONTINUOUS
 62
     2
100
AcDbLine
 39
96.0
 10
37.553874
 20
27.36108
 30
0.0
 11
37.553874
 21
27.36108
 31
0.0
  0
LINE
  5
61B
100
AcDbEntity
  8
BORDER
  6
CONTINUOUS
 62
     2
100
AcDbLine
 39
96.0
 10
39.194494
 20
27.82983
 30
0.0
 11
39.194494
 21
27.82983
 31
0.0
  0
LINE
  5
61C
100
AcDbEntity
  8
BORDER
  6
CONTINUOUS
 62
     2
100
AcDbLine
 39
96.0
 10
38.725744
 20
27.82983
 30
0.0
 11
38.725744
 21
27.82983
 31
0.0
  0
LINE
  5
61D
100
AcDbEntity
  8
BORDER
  6
CONTINUOUS
 62
     2
100
AcDbLine
 39
96.0
 10
38.256994
 20
27.82983
 30
0.0
 11
38.256994
 21
27.82983
 31
0.0
  0
LINE
  5
61E
100
AcDbEntity
  8
BORDER
  6
CONTINUOUS
 62
     2
100
AcDbLine
 39
96.0
 10
37.788244
 20
27.82983
 30
0.0
 11
37.788244
 21
27.82983
 31
0.0
  0
LINE
  5
61F
100
AcDbEntity
  8
BORDER
  6
CONTINUOUS
 62
     2
100
AcDbLine
 39
96.0
 10
38.960124
 20
28.29863
 30
0.0
 11
38.960124
 21
28.29863
 31
0.0
  0
LINE
  5
620
100
AcDbEntity
  8
BORDER
  6
CONTINUOUS
 62
     2
100
AcDbLine
 39
96.0
 10
38.491374
 20
28.29863
 30
0.0
 11
38.491374
 21
28.29863
 31
0.0
  0
LINE
  5
621
100
AcDbEntity
  8
BORDER
  6
CONTINUOUS
 62
     2
100
AcDbLine
 39
96.0
 10
38.022624
 20
28.29863
 30
0.0
 11
38.022624
 21
28.29863
 31
0.0
  0
LINE
  5
622
100
AcDbEntity
  8
BORDER
  6
CONTINUOUS
 62
     2
100
AcDbLine
 39
96.0
 10
37.553874
 20
28.29863
 30
0.0
 11
37.553874
 21
28.29863
 31
0.0
  0
LINE
  5
623
100
AcDbEntity
  8
BORDER
  6
CONTINUOUS
 62
     2
100
AcDbLine
 39
96.0
 10
39.194494
 20
28.76733
 30
0.0
 11
39.194494
 21
28.76733
 31
0.0
  0
LINE
  5
624
100
AcDbEntity
  8
BORDER
  6
CONTINUOUS
 62
     2
100
AcDbLine
 39
96.0
 10
38.725744
 20
28.76733
 30
0.0
 11
38.725744
 21
28.76733
 31
0.0
  0
LINE
  5
625
100
AcDbEntity
  8
BORDER
  6
CONTINUOUS
 62
     2
100
AcDbLine
 39
96.0
 10
38.256994
 20
28.76733
 30
0.0
 11
38.256994
 21
28.76733
 31
0.0
  0
LINE
  5
626
100
AcDbEntity
  8
BORDER
  6
CONTINUOUS
 62
     2
100
AcDbLine
 39
96.0
 10
37.788244
 20
28.76733
 30
0.0
 11
37.788244
 21
28.76733
 31
0.0
  0
LINE
  5
627
100
AcDbEntity
  8
BORDER
  6
CONTINUOUS
 62
     2
100
AcDbLine
 39
96.0
 10
38.960124
 20
29.23613
 30
0.0
 11
38.960124
 21
29.23613
 31
0.0
  0
LINE
  5
628
100
AcDbEntity
  8
BORDER
  6
CONTINUOUS
 62
     2
100
AcDbLine
 39
96.0
 10
38.491374
 20
29.23613
 30
0.0
 11
38.491374
 21
29.23613
 31
0.0
  0
LINE
  5
629
100
AcDbEntity
  8
BORDER
  6
CONTINUOUS
 62
     2
100
AcDbLine
 39
96.0
 10
38.022624
 20
29.23613
 30
0.0
 11
38.022624
 21
29.23613
 31
0.0
  0
LINE
  5
62A
100
AcDbEntity
  8
BORDER
  6
CONTINUOUS
 62
     2
100
AcDbLine
 39
96.0
 10
37.553874
 20
29.23613
 30
0.0
 11
37.553874
 21
29.23613
 31
0.0
  0
LINE
  5
62B
100
AcDbEntity
  8
BORDER
  6
CONTINUOUS
 62
     2
100
AcDbLine
 39
96.0
 10
39.194494
 20
29.70483
 30
0.0
 11
39.194494
 21
29.70483
 31
0.0
  0
LINE
  5
62C
100
AcDbEntity
  8
BORDER
  6
CONTINUOUS
 62
     2
100
AcDbLine
 39
96.0
 10
38.725744
 20
29.70483
 30
0.0
 11
38.725744
 21
29.70483
 31
0.0
  0
LINE
  5
62D
100
AcDbEntity
  8
BORDER
  6
CONTINUOUS
 62
     2
100
AcDbLine
 39
96.0
 10
38.256994
 20
29.70483
 30
0.0
 11
38.256994
 21
29.70483
 31
0.0
  0
LINE
  5
62E
100
AcDbEntity
  8
BORDER
  6
CONTINUOUS
 62
     2
100
AcDbLine
 39
96.0
 10
37.788244
 20
29.70483
 30
0.0
 11
37.788244
 21
29.70483
 31
0.0
  0
LINE
  5
62F
100
AcDbEntity
  8
BORDER
  6
CONTINUOUS
 62
     2
100
AcDbLine
 39
96.0
 10
38.960124
 20
30.17363
 30
0.0
 11
38.960124
 21
30.17363
 31
0.0
  0
LINE
  5
630
100
AcDbEntity
  8
BORDER
  6
CONTINUOUS
 62
     2
100
AcDbLine
 39
96.0
 10
38.491374
 20
30.17363
 30
0.0
 11
38.491374
 21
30.17363
 31
0.0
  0
LINE
  5
631
100
AcDbEntity
  8
BORDER
  6
CONTINUOUS
 62
     2
100
AcDbLine
 39
96.0
 10
38.022624
 20
30.17363
 30
0.0
 11
38.022624
 21
30.17363
 31
0.0
  0
LINE
  5
632
100
AcDbEntity
  8
BORDER
  6
CONTINUOUS
 62
     2
100
AcDbLine
 39
96.0
 10
37.553874
 20
30.17363
 30
0.0
 11
37.553874
 21
30.17363
 31
0.0
  0
LINE
  5
633
100
AcDbEntity
  8
BORDER
  6
CONTINUOUS
 62
     2
100
AcDbLine
 39
96.0
 10
39.194494
 20
30.64233
 30
0.0
 11
39.194494
 21
30.64233
 31
0.0
  0
LINE
  5
634
100
AcDbEntity
  8
BORDER
  6
CONTINUOUS
 62
     2
100
AcDbLine
 39
96.0
 10
38.725744
 20
30.64233
 30
0.0
 11
38.725744
 21
30.64233
 31
0.0
  0
LINE
  5
635
100
AcDbEntity
  8
BORDER
  6
CONTINUOUS
 62
     2
100
AcDbLine
 39
96.0
 10
38.256994
 20
30.64233
 30
0.0
 11
38.256994
 21
30.64233
 31
0.0
  0
LINE
  5
636
100
AcDbEntity
  8
BORDER
  6
CONTINUOUS
 62
     2
100
AcDbLine
 39
96.0
 10
37.788244
 20
30.64233
 30
0.0
 11
37.788244
 21
30.64233
 31
0.0
  0
LINE
  5
637
100
AcDbEntity
  8
BORDER
  6
CONTINUOUS
 62
     2
100
AcDbLine
 39
96.0
 10
38.960124
 20
31.11113
 30
0.0
 11
38.960124
 21
31.11113
 31
0.0
  0
LINE
  5
638
100
AcDbEntity
  8
BORDER
  6
CONTINUOUS
 62
     2
100
AcDbLine
 39
96.0
 10
38.491374
 20
31.11113
 30
0.0
 11
38.491374
 21
31.11113
 31
0.0
  0
LINE
  5
639
100
AcDbEntity
  8
BORDER
  6
CONTINUOUS
 62
     2
100
AcDbLine
 39
96.0
 10
38.022624
 20
31.11113
 30
0.0
 11
38.022624
 21
31.11113
 31
0.0
  0
LINE
  5
63A
100
AcDbEntity
  8
BORDER
  6
CONTINUOUS
 62
     2
100
AcDbLine
 39
96.0
 10
37.553874
 20
31.11113
 30
0.0
 11
37.553874
 21
31.11113
 31
0.0
  0
LINE
  5
63B
100
AcDbEntity
  8
BORDER
  6
CONTINUOUS
 62
     2
100
AcDbLine
 39
96.0
 10
38.960124
 20
34.86113
 30
0.0
 11
38.960124
 21
34.86113
 31
0.0
  0
LINE
  5
63C
100
AcDbEntity
  8
BORDER
  6
CONTINUOUS
 62
     2
100
AcDbLine
 39
96.0
 10
38.491374
 20
34.86113
 30
0.0
 11
38.491374
 21
34.86113
 31
0.0
  0
LINE
  5
63D
100
AcDbEntity
  8
BORDER
  6
CONTINUOUS
 62
     2
100
AcDbLine
 39
96.0
 10
38.022624
 20
34.86113
 30
0.0
 11
38.022624
 21
34.86113
 31
0.0
  0
LINE
  5
63E
100
AcDbEntity
  8
BORDER
  6
CONTINUOUS
 62
     2
100
AcDbLine
 39
96.0
 10
37.553874
 20
34.86113
 30
0.0
 11
37.553874
 21
34.86113
 31
0.0
  0
LINE
  5
63F
100
AcDbEntity
  8
BORDER
  6
CONTINUOUS
 62
     2
100
AcDbLine
 39
96.0
 10
39.194494
 20
35.32983
 30
0.0
 11
39.194494
 21
35.32983
 31
0.0
  0
LINE
  5
640
100
AcDbEntity
  8
BORDER
  6
CONTINUOUS
 62
     2
100
AcDbLine
 39
96.0
 10
38.725744
 20
35.32983
 30
0.0
 11
38.725744
 21
35.32983
 31
0.0
  0
LINE
  5
641
100
AcDbEntity
  8
BORDER
  6
CONTINUOUS
 62
     2
100
AcDbLine
 39
96.0
 10
38.256994
 20
35.32983
 30
0.0
 11
38.256994
 21
35.32983
 31
0.0
  0
LINE
  5
642
100
AcDbEntity
  8
BORDER
  6
CONTINUOUS
 62
     2
100
AcDbLine
 39
96.0
 10
37.788244
 20
35.32983
 30
0.0
 11
37.788244
 21
35.32983
 31
0.0
  0
LINE
  5
643
100
AcDbEntity
  8
BORDER
  6
CONTINUOUS
 62
     2
100
AcDbLine
 39
96.0
 10
38.960124
 20
35.79863
 30
0.0
 11
38.960124
 21
35.79863
 31
0.0
  0
LINE
  5
644
100
AcDbEntity
  8
BORDER
  6
CONTINUOUS
 62
     2
100
AcDbLine
 39
96.0
 10
38.491374
 20
35.79863
 30
0.0
 11
38.491374
 21
35.79863
 31
0.0
  0
LINE
  5
645
100
AcDbEntity
  8
BORDER
  6
CONTINUOUS
 62
     2
100
AcDbLine
 39
96.0
 10
38.022624
 20
35.79863
 30
0.0
 11
38.022624
 21
35.79863
 31
0.0
  0
LINE
  5
646
100
AcDbEntity
  8
BORDER
  6
CONTINUOUS
 62
     2
100
AcDbLine
 39
96.0
 10
37.553874
 20
35.79863
 30
0.0
 11
37.553874
 21
35.79863
 31
0.0
  0
LINE
  5
647
100
AcDbEntity
  8
BORDER
  6
CONTINUOUS
 62
     2
100
AcDbLine
 39
96.0
 10
39.194494
 20
36.26733
 30
0.0
 11
39.194494
 21
36.26733
 31
0.0
  0
LINE
  5
648
100
AcDbEntity
  8
BORDER
  6
CONTINUOUS
 62
     2
100
AcDbLine
 39
96.0
 10
38.725744
 20
36.26733
 30
0.0
 11
38.725744
 21
36.26733
 31
0.0
  0
LINE
  5
649
100
AcDbEntity
  8
BORDER
  6
CONTINUOUS
 62
     2
100
AcDbLine
 39
96.0
 10
38.256994
 20
36.26733
 30
0.0
 11
38.256994
 21
36.26733
 31
0.0
  0
LINE
  5
64A
100
AcDbEntity
  8
BORDER
  6
CONTINUOUS
 62
     2
100
AcDbLine
 39
96.0
 10
37.788244
 20
36.26733
 30
0.0
 11
37.788244
 21
36.26733
 31
0.0
  0
LINE
  5
64B
100
AcDbEntity
  8
BORDER
  6
CONTINUOUS
 62
     2
100
AcDbLine
 39
96.0
 10
38.960124
 20
36.73613
 30
0.0
 11
38.960124
 21
36.73613
 31
0.0
  0
LINE
  5
64C
100
AcDbEntity
  8
BORDER
  6
CONTINUOUS
 62
     2
100
AcDbLine
 39
96.0
 10
38.491374
 20
36.73613
 30
0.0
 11
38.491374
 21
36.73613
 31
0.0
  0
LINE
  5
64D
100
AcDbEntity
  8
BORDER
  6
CONTINUOUS
 62
     2
100
AcDbLine
 39
96.0
 10
38.022624
 20
36.73613
 30
0.0
 11
38.022624
 21
36.73613
 31
0.0
  0
LINE
  5
64E
100
AcDbEntity
  8
BORDER
  6
CONTINUOUS
 62
     2
100
AcDbLine
 39
96.0
 10
37.553874
 20
36.73613
 30
0.0
 11
37.553874
 21
36.73613
 31
0.0
  0
LINE
  5
64F
100
AcDbEntity
  8
BORDER
  6
CONTINUOUS
 62
     2
100
AcDbLine
 39
96.0
 10
39.194494
 20
37.20483
 30
0.0
 11
39.194494
 21
37.20483
 31
0.0
  0
LINE
  5
650
100
AcDbEntity
  8
BORDER
  6
CONTINUOUS
 62
     2
100
AcDbLine
 39
96.0
 10
38.725744
 20
37.20483
 30
0.0
 11
38.725744
 21
37.20483
 31
0.0
  0
LINE
  5
651
100
AcDbEntity
  8
BORDER
  6
CONTINUOUS
 62
     2
100
AcDbLine
 39
96.0
 10
38.256994
 20
37.20483
 30
0.0
 11
38.256994
 21
37.20483
 31
0.0
  0
LINE
  5
652
100
AcDbEntity
  8
BORDER
  6
CONTINUOUS
 62
     2
100
AcDbLine
 39
96.0
 10
37.788244
 20
37.20483
 30
0.0
 11
37.788244
 21
37.20483
 31
0.0
  0
LINE
  5
653
100
AcDbEntity
  8
BORDER
  6
CONTINUOUS
 62
     2
100
AcDbLine
 39
96.0
 10
38.960124
 20
37.67363
 30
0.0
 11
38.960124
 21
37.67363
 31
0.0
  0
LINE
  5
654
100
AcDbEntity
  8
BORDER
  6
CONTINUOUS
 62
     2
100
AcDbLine
 39
96.0
 10
38.491374
 20
37.67363
 30
0.0
 11
38.491374
 21
37.67363
 31
0.0
  0
LINE
  5
655
100
AcDbEntity
  8
BORDER
  6
CONTINUOUS
 62
     2
100
AcDbLine
 39
96.0
 10
38.022624
 20
37.67363
 30
0.0
 11
38.022624
 21
37.67363
 31
0.0
  0
LINE
  5
656
100
AcDbEntity
  8
BORDER
  6
CONTINUOUS
 62
     2
100
AcDbLine
 39
96.0
 10
37.553874
 20
37.67363
 30
0.0
 11
37.553874
 21
37.67363
 31
0.0
  0
LINE
  5
657
100
AcDbEntity
  8
BORDER
  6
CONTINUOUS
 62
     2
100
AcDbLine
 39
96.0
 10
39.194494
 20
38.14233
 30
0.0
 11
39.194494
 21
38.14233
 31
0.0
  0
LINE
  5
658
100
AcDbEntity
  8
BORDER
  6
CONTINUOUS
 62
     2
100
AcDbLine
 39
96.0
 10
38.725744
 20
38.14233
 30
0.0
 11
38.725744
 21
38.14233
 31
0.0
  0
LINE
  5
659
100
AcDbEntity
  8
BORDER
  6
CONTINUOUS
 62
     2
100
AcDbLine
 39
96.0
 10
38.256994
 20
38.14233
 30
0.0
 11
38.256994
 21
38.14233
 31
0.0
  0
LINE
  5
65A
100
AcDbEntity
  8
BORDER
  6
CONTINUOUS
 62
     2
100
AcDbLine
 39
96.0
 10
37.788244
 20
38.14233
 30
0.0
 11
37.788244
 21
38.14233
 31
0.0
  0
LINE
  5
65B
100
AcDbEntity
  8
BORDER
  6
CONTINUOUS
 62
     2
100
AcDbLine
 39
96.0
 10
38.960124
 20
38.61113
 30
0.0
 11
38.960124
 21
38.61113
 31
0.0
  0
LINE
  5
65C
100
AcDbEntity
  8
BORDER
  6
CONTINUOUS
 62
     2
100
AcDbLine
 39
96.0
 10
38.491374
 20
38.61113
 30
0.0
 11
38.491374
 21
38.61113
 31
0.0
  0
LINE
  5
65D
100
AcDbEntity
  8
BORDER
  6
CONTINUOUS
 62
     2
100
AcDbLine
 39
96.0
 10
38.022624
 20
38.61113
 30
0.0
 11
38.022624
 21
38.61113
 31
0.0
  0
LINE
  5
65E
100
AcDbEntity
  8
BORDER
  6
CONTINUOUS
 62
     2
100
AcDbLine
 39
96.0
 10
37.553874
 20
38.61113
 30
0.0
 11
37.553874
 21
38.61113
 31
0.0
  0
LINE
  5
65F
100
AcDbEntity
  8
BORDER
  6
CONTINUOUS
 62
     2
100
AcDbLine
 39
96.0
 10
39.194494
 20
39.07983
 30
0.0
 11
39.194494
 21
39.07983
 31
0.0
  0
LINE
  5
660
100
AcDbEntity
  8
BORDER
  6
CONTINUOUS
 62
     2
100
AcDbLine
 39
96.0
 10
38.725744
 20
39.07983
 30
0.0
 11
38.725744
 21
39.07983
 31
0.0
  0
LINE
  5
661
100
AcDbEntity
  8
BORDER
  6
CONTINUOUS
 62
     2
100
AcDbLine
 39
96.0
 10
38.256994
 20
39.07983
 30
0.0
 11
38.256994
 21
39.07983
 31
0.0
  0
LINE
  5
662
100
AcDbEntity
  8
BORDER
  6
CONTINUOUS
 62
     2
100
AcDbLine
 39
96.0
 10
37.788244
 20
39.07983
 30
0.0
 11
37.788244
 21
39.07983
 31
0.0
  0
LINE
  5
663
100
AcDbEntity
  8
BORDER
  6
CONTINUOUS
 62
     2
100
AcDbLine
 39
96.0
 10
38.960124
 20
39.54863
 30
0.0
 11
38.960124
 21
39.54863
 31
0.0
  0
LINE
  5
664
100
AcDbEntity
  8
BORDER
  6
CONTINUOUS
 62
     2
100
AcDbLine
 39
96.0
 10
38.491374
 20
39.54863
 30
0.0
 11
38.491374
 21
39.54863
 31
0.0
  0
LINE
  5
665
100
AcDbEntity
  8
BORDER
  6
CONTINUOUS
 62
     2
100
AcDbLine
 39
96.0
 10
38.022624
 20
39.54863
 30
0.0
 11
38.022624
 21
39.54863
 31
0.0
  0
LINE
  5
666
100
AcDbEntity
  8
BORDER
  6
CONTINUOUS
 62
     2
100
AcDbLine
 39
96.0
 10
37.553874
 20
39.54863
 30
0.0
 11
37.553874
 21
39.54863
 31
0.0
  0
LINE
  5
667
100
AcDbEntity
  8
BORDER
  6
CONTINUOUS
 62
     2
100
AcDbLine
 39
96.0
 10
31.225744
 20
25.01733
 30
0.0
 11
31.225744
 21
25.01733
 31
0.0
  0
LINE
  5
668
100
AcDbEntity
  8
BORDER
  6
CONTINUOUS
 62
     2
100
AcDbLine
 39
96.0
 10
30.756994
 20
25.01733
 30
0.0
 11
30.756994
 21
25.01733
 31
0.0
  0
LINE
  5
669
100
AcDbEntity
  8
BORDER
  6
CONTINUOUS
 62
     2
100
AcDbLine
 39
96.0
 10
30.288244
 20
25.01733
 30
0.0
 11
30.288244
 21
25.01733
 31
0.0
  0
LINE
  5
66A
100
AcDbEntity
  8
BORDER
  6
CONTINUOUS
 62
     2
100
AcDbLine
 39
96.0
 10
29.819494
 20
25.01733
 30
0.0
 11
29.819494
 21
25.01733
 31
0.0
  0
LINE
  5
66B
100
AcDbEntity
  8
BORDER
  6
CONTINUOUS
 62
     2
100
AcDbLine
 39
96.0
 10
30.991374
 20
25.48608
 30
0.0
 11
30.991374
 21
25.48608
 31
0.0
  0
LINE
  5
66C
100
AcDbEntity
  8
BORDER
  6
CONTINUOUS
 62
     2
100
AcDbLine
 39
96.0
 10
30.522624
 20
25.48608
 30
0.0
 11
30.522624
 21
25.48608
 31
0.0
  0
LINE
  5
66D
100
AcDbEntity
  8
BORDER
  6
CONTINUOUS
 62
     2
100
AcDbLine
 39
96.0
 10
30.053874
 20
25.48608
 30
0.0
 11
30.053874
 21
25.48608
 31
0.0
  0
LINE
  5
66E
100
AcDbEntity
  8
BORDER
  6
CONTINUOUS
 62
     2
100
AcDbLine
 39
96.0
 10
29.585124
 20
25.48608
 30
0.0
 11
29.585124
 21
25.48608
 31
0.0
  0
LINE
  5
66F
100
AcDbEntity
  8
BORDER
  6
CONTINUOUS
 62
     2
100
AcDbLine
 39
96.0
 10
31.225744
 20
25.95483
 30
0.0
 11
31.225744
 21
25.95483
 31
0.0
  0
LINE
  5
670
100
AcDbEntity
  8
BORDER
  6
CONTINUOUS
 62
     2
100
AcDbLine
 39
96.0
 10
30.756994
 20
25.95483
 30
0.0
 11
30.756994
 21
25.95483
 31
0.0
  0
LINE
  5
671
100
AcDbEntity
  8
BORDER
  6
CONTINUOUS
 62
     2
100
AcDbLine
 39
96.0
 10
30.288244
 20
25.95483
 30
0.0
 11
30.288244
 21
25.95483
 31
0.0
  0
LINE
  5
672
100
AcDbEntity
  8
BORDER
  6
CONTINUOUS
 62
     2
100
AcDbLine
 39
96.0
 10
29.819494
 20
25.95483
 30
0.0
 11
29.819494
 21
25.95483
 31
0.0
  0
LINE
  5
673
100
AcDbEntity
  8
BORDER
  6
CONTINUOUS
 62
     2
100
AcDbLine
 39
96.0
 10
30.991374
 20
26.42358
 30
0.0
 11
30.991374
 21
26.42358
 31
0.0
  0
LINE
  5
674
100
AcDbEntity
  8
BORDER
  6
CONTINUOUS
 62
     2
100
AcDbLine
 39
96.0
 10
30.522624
 20
26.42358
 30
0.0
 11
30.522624
 21
26.42358
 31
0.0
  0
LINE
  5
675
100
AcDbEntity
  8
BORDER
  6
CONTINUOUS
 62
     2
100
AcDbLine
 39
96.0
 10
30.053874
 20
26.42358
 30
0.0
 11
30.053874
 21
26.42358
 31
0.0
  0
LINE
  5
676
100
AcDbEntity
  8
BORDER
  6
CONTINUOUS
 62
     2
100
AcDbLine
 39
96.0
 10
29.585124
 20
26.42358
 30
0.0
 11
29.585124
 21
26.42358
 31
0.0
  0
LINE
  5
677
100
AcDbEntity
  8
BORDER
  6
CONTINUOUS
 62
     2
100
AcDbLine
 39
96.0
 10
31.225744
 20
26.89233
 30
0.0
 11
31.225744
 21
26.89233
 31
0.0
  0
LINE
  5
678
100
AcDbEntity
  8
BORDER
  6
CONTINUOUS
 62
     2
100
AcDbLine
 39
96.0
 10
30.756994
 20
26.89233
 30
0.0
 11
30.756994
 21
26.89233
 31
0.0
  0
LINE
  5
679
100
AcDbEntity
  8
BORDER
  6
CONTINUOUS
 62
     2
100
AcDbLine
 39
96.0
 10
30.288244
 20
26.89233
 30
0.0
 11
30.288244
 21
26.89233
 31
0.0
  0
LINE
  5
67A
100
AcDbEntity
  8
BORDER
  6
CONTINUOUS
 62
     2
100
AcDbLine
 39
96.0
 10
29.819494
 20
26.89233
 30
0.0
 11
29.819494
 21
26.89233
 31
0.0
  0
LINE
  5
67B
100
AcDbEntity
  8
BORDER
  6
CONTINUOUS
 62
     2
100
AcDbLine
 39
96.0
 10
30.991374
 20
27.36108
 30
0.0
 11
30.991374
 21
27.36108
 31
0.0
  0
LINE
  5
67C
100
AcDbEntity
  8
BORDER
  6
CONTINUOUS
 62
     2
100
AcDbLine
 39
96.0
 10
30.522624
 20
27.36108
 30
0.0
 11
30.522624
 21
27.36108
 31
0.0
  0
LINE
  5
67D
100
AcDbEntity
  8
BORDER
  6
CONTINUOUS
 62
     2
100
AcDbLine
 39
96.0
 10
30.053874
 20
27.36108
 30
0.0
 11
30.053874
 21
27.36108
 31
0.0
  0
LINE
  5
67E
100
AcDbEntity
  8
BORDER
  6
CONTINUOUS
 62
     2
100
AcDbLine
 39
96.0
 10
29.585124
 20
27.36108
 30
0.0
 11
29.585124
 21
27.36108
 31
0.0
  0
LINE
  5
67F
100
AcDbEntity
  8
BORDER
  6
CONTINUOUS
 62
     2
100
AcDbLine
 39
96.0
 10
31.225744
 20
27.82983
 30
0.0
 11
31.225744
 21
27.82983
 31
0.0
  0
LINE
  5
680
100
AcDbEntity
  8
BORDER
  6
CONTINUOUS
 62
     2
100
AcDbLine
 39
96.0
 10
30.756994
 20
27.82983
 30
0.0
 11
30.756994
 21
27.82983
 31
0.0
  0
LINE
  5
681
100
AcDbEntity
  8
BORDER
  6
CONTINUOUS
 62
     2
100
AcDbLine
 39
96.0
 10
30.288244
 20
27.82983
 30
0.0
 11
30.288244
 21
27.82983
 31
0.0
  0
LINE
  5
682
100
AcDbEntity
  8
BORDER
  6
CONTINUOUS
 62
     2
100
AcDbLine
 39
96.0
 10
29.819494
 20
27.82983
 30
0.0
 11
29.819494
 21
27.82983
 31
0.0
  0
LINE
  5
683
100
AcDbEntity
  8
BORDER
  6
CONTINUOUS
 62
     2
100
AcDbLine
 39
96.0
 10
30.991374
 20
28.29863
 30
0.0
 11
30.991374
 21
28.29863
 31
0.0
  0
LINE
  5
684
100
AcDbEntity
  8
BORDER
  6
CONTINUOUS
 62
     2
100
AcDbLine
 39
96.0
 10
30.522624
 20
28.29863
 30
0.0
 11
30.522624
 21
28.29863
 31
0.0
  0
LINE
  5
685
100
AcDbEntity
  8
BORDER
  6
CONTINUOUS
 62
     2
100
AcDbLine
 39
96.0
 10
30.053874
 20
28.29863
 30
0.0
 11
30.053874
 21
28.29863
 31
0.0
  0
LINE
  5
686
100
AcDbEntity
  8
BORDER
  6
CONTINUOUS
 62
     2
100
AcDbLine
 39
96.0
 10
29.585124
 20
28.29863
 30
0.0
 11
29.585124
 21
28.29863
 31
0.0
  0
LINE
  5
687
100
AcDbEntity
  8
BORDER
  6
CONTINUOUS
 62
     2
100
AcDbLine
 39
96.0
 10
31.225744
 20
28.76733
 30
0.0
 11
31.225744
 21
28.76733
 31
0.0
  0
LINE
  5
688
100
AcDbEntity
  8
BORDER
  6
CONTINUOUS
 62
     2
100
AcDbLine
 39
96.0
 10
30.756994
 20
28.76733
 30
0.0
 11
30.756994
 21
28.76733
 31
0.0
  0
LINE
  5
689
100
AcDbEntity
  8
BORDER
  6
CONTINUOUS
 62
     2
100
AcDbLine
 39
96.0
 10
30.288244
 20
28.76733
 30
0.0
 11
30.288244
 21
28.76733
 31
0.0
  0
LINE
  5
68A
100
AcDbEntity
  8
BORDER
  6
CONTINUOUS
 62
     2
100
AcDbLine
 39
96.0
 10
29.819494
 20
28.76733
 30
0.0
 11
29.819494
 21
28.76733
 31
0.0
  0
LINE
  5
68B
100
AcDbEntity
  8
BORDER
  6
CONTINUOUS
 62
     2
100
AcDbLine
 39
96.0
 10
30.991374
 20
29.23613
 30
0.0
 11
30.991374
 21
29.23613
 31
0.0
  0
LINE
  5
68C
100
AcDbEntity
  8
BORDER
  6
CONTINUOUS
 62
     2
100
AcDbLine
 39
96.0
 10
30.522624
 20
29.23613
 30
0.0
 11
30.522624
 21
29.23613
 31
0.0
  0
LINE
  5
68D
100
AcDbEntity
  8
BORDER
  6
CONTINUOUS
 62
     2
100
AcDbLine
 39
96.0
 10
30.053874
 20
29.23613
 30
0.0
 11
30.053874
 21
29.23613
 31
0.0
  0
LINE
  5
68E
100
AcDbEntity
  8
BORDER
  6
CONTINUOUS
 62
     2
100
AcDbLine
 39
96.0
 10
29.585124
 20
29.23613
 30
0.0
 11
29.585124
 21
29.23613
 31
0.0
  0
LINE
  5
68F
100
AcDbEntity
  8
BORDER
  6
CONTINUOUS
 62
     2
100
AcDbLine
 39
96.0
 10
31.225744
 20
29.70483
 30
0.0
 11
31.225744
 21
29.70483
 31
0.0
  0
LINE
  5
690
100
AcDbEntity
  8
BORDER
  6
CONTINUOUS
 62
     2
100
AcDbLine
 39
96.0
 10
30.756994
 20
29.70483
 30
0.0
 11
30.756994
 21
29.70483
 31
0.0
  0
LINE
  5
691
100
AcDbEntity
  8
BORDER
  6
CONTINUOUS
 62
     2
100
AcDbLine
 39
96.0
 10
30.288244
 20
29.70483
 30
0.0
 11
30.288244
 21
29.70483
 31
0.0
  0
LINE
  5
692
100
AcDbEntity
  8
BORDER
  6
CONTINUOUS
 62
     2
100
AcDbLine
 39
96.0
 10
29.819494
 20
29.70483
 30
0.0
 11
29.819494
 21
29.70483
 31
0.0
  0
LINE
  5
693
100
AcDbEntity
  8
BORDER
  6
CONTINUOUS
 62
     2
100
AcDbLine
 39
96.0
 10
30.991374
 20
30.17363
 30
0.0
 11
30.991374
 21
30.17363
 31
0.0
  0
LINE
  5
694
100
AcDbEntity
  8
BORDER
  6
CONTINUOUS
 62
     2
100
AcDbLine
 39
96.0
 10
30.522624
 20
30.17363
 30
0.0
 11
30.522624
 21
30.17363
 31
0.0
  0
LINE
  5
695
100
AcDbEntity
  8
BORDER
  6
CONTINUOUS
 62
     2
100
AcDbLine
 39
96.0
 10
30.053874
 20
30.17363
 30
0.0
 11
30.053874
 21
30.17363
 31
0.0
  0
LINE
  5
696
100
AcDbEntity
  8
BORDER
  6
CONTINUOUS
 62
     2
100
AcDbLine
 39
96.0
 10
29.585124
 20
30.17363
 30
0.0
 11
29.585124
 21
30.17363
 31
0.0
  0
LINE
  5
697
100
AcDbEntity
  8
BORDER
  6
CONTINUOUS
 62
     2
100
AcDbLine
 39
96.0
 10
31.225744
 20
30.64233
 30
0.0
 11
31.225744
 21
30.64233
 31
0.0
  0
LINE
  5
698
100
AcDbEntity
  8
BORDER
  6
CONTINUOUS
 62
     2
100
AcDbLine
 39
96.0
 10
30.756994
 20
30.64233
 30
0.0
 11
30.756994
 21
30.64233
 31
0.0
  0
LINE
  5
699
100
AcDbEntity
  8
BORDER
  6
CONTINUOUS
 62
     2
100
AcDbLine
 39
96.0
 10
30.288244
 20
30.64233
 30
0.0
 11
30.288244
 21
30.64233
 31
0.0
  0
LINE
  5
69A
100
AcDbEntity
  8
BORDER
  6
CONTINUOUS
 62
     2
100
AcDbLine
 39
96.0
 10
29.819494
 20
30.64233
 30
0.0
 11
29.819494
 21
30.64233
 31
0.0
  0
LINE
  5
69B
100
AcDbEntity
  8
BORDER
  6
CONTINUOUS
 62
     2
100
AcDbLine
 39
96.0
 10
30.991374
 20
31.11113
 30
0.0
 11
30.991374
 21
31.11113
 31
0.0
  0
LINE
  5
69C
100
AcDbEntity
  8
BORDER
  6
CONTINUOUS
 62
     2
100
AcDbLine
 39
96.0
 10
30.522624
 20
31.11113
 30
0.0
 11
30.522624
 21
31.11113
 31
0.0
  0
LINE
  5
69D
100
AcDbEntity
  8
BORDER
  6
CONTINUOUS
 62
     2
100
AcDbLine
 39
96.0
 10
30.053874
 20
31.11113
 30
0.0
 11
30.053874
 21
31.11113
 31
0.0
  0
LINE
  5
69E
100
AcDbEntity
  8
BORDER
  6
CONTINUOUS
 62
     2
100
AcDbLine
 39
96.0
 10
29.585124
 20
31.11113
 30
0.0
 11
29.585124
 21
31.11113
 31
0.0
  0
LINE
  5
69F
100
AcDbEntity
  8
BORDER
  6
CONTINUOUS
 62
     2
100
AcDbLine
 39
96.0
 10
31.225744
 20
31.57983
 30
0.0
 11
31.225744
 21
31.57983
 31
0.0
  0
LINE
  5
6A0
100
AcDbEntity
  8
BORDER
  6
CONTINUOUS
 62
     2
100
AcDbLine
 39
96.0
 10
30.756994
 20
31.57983
 30
0.0
 11
30.756994
 21
31.57983
 31
0.0
  0
LINE
  5
6A1
100
AcDbEntity
  8
BORDER
  6
CONTINUOUS
 62
     2
100
AcDbLine
 39
96.0
 10
30.288244
 20
31.57983
 30
0.0
 11
30.288244
 21
31.57983
 31
0.0
  0
LINE
  5
6A2
100
AcDbEntity
  8
BORDER
  6
CONTINUOUS
 62
     2
100
AcDbLine
 39
96.0
 10
29.819494
 20
31.57983
 30
0.0
 11
29.819494
 21
31.57983
 31
0.0
  0
LINE
  5
6A3
100
AcDbEntity
  8
BORDER
  6
CONTINUOUS
 62
     2
100
AcDbLine
 39
96.0
 10
30.991374
 20
32.04863
 30
0.0
 11
30.991374
 21
32.04863
 31
0.0
  0
LINE
  5
6A4
100
AcDbEntity
  8
BORDER
  6
CONTINUOUS
 62
     2
100
AcDbLine
 39
96.0
 10
30.522624
 20
32.04863
 30
0.0
 11
30.522624
 21
32.04863
 31
0.0
  0
LINE
  5
6A5
100
AcDbEntity
  8
BORDER
  6
CONTINUOUS
 62
     2
100
AcDbLine
 39
96.0
 10
30.053874
 20
32.04863
 30
0.0
 11
30.053874
 21
32.04863
 31
0.0
  0
LINE
  5
6A6
100
AcDbEntity
  8
BORDER
  6
CONTINUOUS
 62
     2
100
AcDbLine
 39
96.0
 10
29.585124
 20
32.04863
 30
0.0
 11
29.585124
 21
32.04863
 31
0.0
  0
LINE
  5
6A7
100
AcDbEntity
  8
BORDER
  6
CONTINUOUS
 62
     2
100
AcDbLine
 39
96.0
 10
31.225744
 20
32.51733
 30
0.0
 11
31.225744
 21
32.51733
 31
0.0
  0
LINE
  5
6A8
100
AcDbEntity
  8
BORDER
  6
CONTINUOUS
 62
     2
100
AcDbLine
 39
96.0
 10
30.756994
 20
32.51733
 30
0.0
 11
30.756994
 21
32.51733
 31
0.0
  0
LINE
  5
6A9
100
AcDbEntity
  8
BORDER
  6
CONTINUOUS
 62
     2
100
AcDbLine
 39
96.0
 10
30.288244
 20
32.51733
 30
0.0
 11
30.288244
 21
32.51733
 31
0.0
  0
LINE
  5
6AA
100
AcDbEntity
  8
BORDER
  6
CONTINUOUS
 62
     2
100
AcDbLine
 39
96.0
 10
29.819494
 20
32.51733
 30
0.0
 11
29.819494
 21
32.51733
 31
0.0
  0
LINE
  5
6AB
100
AcDbEntity
  8
BORDER
  6
CONTINUOUS
 62
     2
100
AcDbLine
 39
96.0
 10
30.991374
 20
32.98613
 30
0.0
 11
30.991374
 21
32.98613
 31
0.0
  0
LINE
  5
6AC
100
AcDbEntity
  8
BORDER
  6
CONTINUOUS
 62
     2
100
AcDbLine
 39
96.0
 10
30.522624
 20
32.98613
 30
0.0
 11
30.522624
 21
32.98613
 31
0.0
  0
LINE
  5
6AD
100
AcDbEntity
  8
BORDER
  6
CONTINUOUS
 62
     2
100
AcDbLine
 39
96.0
 10
30.053874
 20
32.98613
 30
0.0
 11
30.053874
 21
32.98613
 31
0.0
  0
LINE
  5
6AE
100
AcDbEntity
  8
BORDER
  6
CONTINUOUS
 62
     2
100
AcDbLine
 39
96.0
 10
29.585124
 20
32.98613
 30
0.0
 11
29.585124
 21
32.98613
 31
0.0
  0
LINE
  5
6AF
100
AcDbEntity
  8
BORDER
  6
CONTINUOUS
 62
     2
100
AcDbLine
 39
96.0
 10
31.225744
 20
33.45483
 30
0.0
 11
31.225744
 21
33.45483
 31
0.0
  0
LINE
  5
6B0
100
AcDbEntity
  8
BORDER
  6
CONTINUOUS
 62
     2
100
AcDbLine
 39
96.0
 10
30.756994
 20
33.45483
 30
0.0
 11
30.756994
 21
33.45483
 31
0.0
  0
LINE
  5
6B1
100
AcDbEntity
  8
BORDER
  6
CONTINUOUS
 62
     2
100
AcDbLine
 39
96.0
 10
30.288244
 20
33.45483
 30
0.0
 11
30.288244
 21
33.45483
 31
0.0
  0
LINE
  5
6B2
100
AcDbEntity
  8
BORDER
  6
CONTINUOUS
 62
     2
100
AcDbLine
 39
96.0
 10
29.819494
 20
33.45483
 30
0.0
 11
29.819494
 21
33.45483
 31
0.0
  0
LINE
  5
6B3
100
AcDbEntity
  8
BORDER
  6
CONTINUOUS
 62
     2
100
AcDbLine
 39
96.0
 10
30.991374
 20
33.92363
 30
0.0
 11
30.991374
 21
33.92363
 31
0.0
  0
LINE
  5
6B4
100
AcDbEntity
  8
BORDER
  6
CONTINUOUS
 62
     2
100
AcDbLine
 39
96.0
 10
30.522624
 20
33.92363
 30
0.0
 11
30.522624
 21
33.92363
 31
0.0
  0
LINE
  5
6B5
100
AcDbEntity
  8
BORDER
  6
CONTINUOUS
 62
     2
100
AcDbLine
 39
96.0
 10
30.053874
 20
33.92363
 30
0.0
 11
30.053874
 21
33.92363
 31
0.0
  0
LINE
  5
6B6
100
AcDbEntity
  8
BORDER
  6
CONTINUOUS
 62
     2
100
AcDbLine
 39
96.0
 10
29.585124
 20
33.92363
 30
0.0
 11
29.585124
 21
33.92363
 31
0.0
  0
LINE
  5
6B7
100
AcDbEntity
  8
BORDER
  6
CONTINUOUS
 62
     2
100
AcDbLine
 39
96.0
 10
31.225744
 20
34.39233
 30
0.0
 11
31.225744
 21
34.39233
 31
0.0
  0
LINE
  5
6B8
100
AcDbEntity
  8
BORDER
  6
CONTINUOUS
 62
     2
100
AcDbLine
 39
96.0
 10
30.756994
 20
34.39233
 30
0.0
 11
30.756994
 21
34.39233
 31
0.0
  0
LINE
  5
6B9
100
AcDbEntity
  8
BORDER
  6
CONTINUOUS
 62
     2
100
AcDbLine
 39
96.0
 10
30.288244
 20
34.39233
 30
0.0
 11
30.288244
 21
34.39233
 31
0.0
  0
LINE
  5
6BA
100
AcDbEntity
  8
BORDER
  6
CONTINUOUS
 62
     2
100
AcDbLine
 39
96.0
 10
29.819494
 20
34.39233
 30
0.0
 11
29.819494
 21
34.39233
 31
0.0
  0
LINE
  5
6BB
100
AcDbEntity
  8
BORDER
  6
CONTINUOUS
 62
     2
100
AcDbLine
 39
96.0
 10
30.991374
 20
34.86113
 30
0.0
 11
30.991374
 21
34.86113
 31
0.0
  0
LINE
  5
6BC
100
AcDbEntity
  8
BORDER
  6
CONTINUOUS
 62
     2
100
AcDbLine
 39
96.0
 10
30.522624
 20
34.86113
 30
0.0
 11
30.522624
 21
34.86113
 31
0.0
  0
LINE
  5
6BD
100
AcDbEntity
  8
BORDER
  6
CONTINUOUS
 62
     2
100
AcDbLine
 39
96.0
 10
30.053874
 20
34.86113
 30
0.0
 11
30.053874
 21
34.86113
 31
0.0
  0
LINE
  5
6BE
100
AcDbEntity
  8
BORDER
  6
CONTINUOUS
 62
     2
100
AcDbLine
 39
96.0
 10
29.585124
 20
34.86113
 30
0.0
 11
29.585124
 21
34.86113
 31
0.0
  0
LINE
  5
6BF
100
AcDbEntity
  8
BORDER
  6
CONTINUOUS
 62
     2
100
AcDbLine
 39
96.0
 10
31.225744
 20
35.32983
 30
0.0
 11
31.225744
 21
35.32983
 31
0.0
  0
LINE
  5
6C0
100
AcDbEntity
  8
BORDER
  6
CONTINUOUS
 62
     2
100
AcDbLine
 39
96.0
 10
30.756994
 20
35.32983
 30
0.0
 11
30.756994
 21
35.32983
 31
0.0
  0
LINE
  5
6C1
100
AcDbEntity
  8
BORDER
  6
CONTINUOUS
 62
     2
100
AcDbLine
 39
96.0
 10
30.288244
 20
35.32983
 30
0.0
 11
30.288244
 21
35.32983
 31
0.0
  0
LINE
  5
6C2
100
AcDbEntity
  8
BORDER
  6
CONTINUOUS
 62
     2
100
AcDbLine
 39
96.0
 10
29.819494
 20
35.32983
 30
0.0
 11
29.819494
 21
35.32983
 31
0.0
  0
LINE
  5
6C3
100
AcDbEntity
  8
BORDER
  6
CONTINUOUS
 62
     2
100
AcDbLine
 39
96.0
 10
30.991374
 20
35.79863
 30
0.0
 11
30.991374
 21
35.79863
 31
0.0
  0
LINE
  5
6C4
100
AcDbEntity
  8
BORDER
  6
CONTINUOUS
 62
     2
100
AcDbLine
 39
96.0
 10
30.522624
 20
35.79863
 30
0.0
 11
30.522624
 21
35.79863
 31
0.0
  0
LINE
  5
6C5
100
AcDbEntity
  8
BORDER
  6
CONTINUOUS
 62
     2
100
AcDbLine
 39
96.0
 10
30.053874
 20
35.79863
 30
0.0
 11
30.053874
 21
35.79863
 31
0.0
  0
LINE
  5
6C6
100
AcDbEntity
  8
BORDER
  6
CONTINUOUS
 62
     2
100
AcDbLine
 39
96.0
 10
29.585124
 20
35.79863
 30
0.0
 11
29.585124
 21
35.79863
 31
0.0
  0
LINE
  5
6C7
100
AcDbEntity
  8
BORDER
  6
CONTINUOUS
 62
     2
100
AcDbLine
 39
96.0
 10
31.225744
 20
36.26733
 30
0.0
 11
31.225744
 21
36.26733
 31
0.0
  0
LINE
  5
6C8
100
AcDbEntity
  8
BORDER
  6
CONTINUOUS
 62
     2
100
AcDbLine
 39
96.0
 10
30.756994
 20
36.26733
 30
0.0
 11
30.756994
 21
36.26733
 31
0.0
  0
LINE
  5
6C9
100
AcDbEntity
  8
BORDER
  6
CONTINUOUS
 62
     2
100
AcDbLine
 39
96.0
 10
30.288244
 20
36.26733
 30
0.0
 11
30.288244
 21
36.26733
 31
0.0
  0
LINE
  5
6CA
100
AcDbEntity
  8
BORDER
  6
CONTINUOUS
 62
     2
100
AcDbLine
 39
96.0
 10
29.819494
 20
36.26733
 30
0.0
 11
29.819494
 21
36.26733
 31
0.0
  0
LINE
  5
6CB
100
AcDbEntity
  8
BORDER
  6
CONTINUOUS
 62
     2
100
AcDbLine
 39
96.0
 10
30.991374
 20
36.73613
 30
0.0
 11
30.991374
 21
36.73613
 31
0.0
  0
LINE
  5
6CC
100
AcDbEntity
  8
BORDER
  6
CONTINUOUS
 62
     2
100
AcDbLine
 39
96.0
 10
30.522624
 20
36.73613
 30
0.0
 11
30.522624
 21
36.73613
 31
0.0
  0
LINE
  5
6CD
100
AcDbEntity
  8
BORDER
  6
CONTINUOUS
 62
     2
100
AcDbLine
 39
96.0
 10
30.053874
 20
36.73613
 30
0.0
 11
30.053874
 21
36.73613
 31
0.0
  0
LINE
  5
6CE
100
AcDbEntity
  8
BORDER
  6
CONTINUOUS
 62
     2
100
AcDbLine
 39
96.0
 10
29.585124
 20
36.73613
 30
0.0
 11
29.585124
 21
36.73613
 31
0.0
  0
LINE
  5
6CF
100
AcDbEntity
  8
BORDER
  6
CONTINUOUS
 62
     2
100
AcDbLine
 39
96.0
 10
31.225744
 20
37.20483
 30
0.0
 11
31.225744
 21
37.20483
 31
0.0
  0
LINE
  5
6D0
100
AcDbEntity
  8
BORDER
  6
CONTINUOUS
 62
     2
100
AcDbLine
 39
96.0
 10
30.756994
 20
37.20483
 30
0.0
 11
30.756994
 21
37.20483
 31
0.0
  0
LINE
  5
6D1
100
AcDbEntity
  8
BORDER
  6
CONTINUOUS
 62
     2
100
AcDbLine
 39
96.0
 10
30.288244
 20
37.20483
 30
0.0
 11
30.288244
 21
37.20483
 31
0.0
  0
LINE
  5
6D2
100
AcDbEntity
  8
BORDER
  6
CONTINUOUS
 62
     2
100
AcDbLine
 39
96.0
 10
29.819494
 20
37.20483
 30
0.0
 11
29.819494
 21
37.20483
 31
0.0
  0
LINE
  5
6D3
100
AcDbEntity
  8
BORDER
  6
CONTINUOUS
 62
     2
100
AcDbLine
 39
96.0
 10
30.991374
 20
37.67363
 30
0.0
 11
30.991374
 21
37.67363
 31
0.0
  0
LINE
  5
6D4
100
AcDbEntity
  8
BORDER
  6
CONTINUOUS
 62
     2
100
AcDbLine
 39
96.0
 10
30.522624
 20
37.67363
 30
0.0
 11
30.522624
 21
37.67363
 31
0.0
  0
LINE
  5
6D5
100
AcDbEntity
  8
BORDER
  6
CONTINUOUS
 62
     2
100
AcDbLine
 39
96.0
 10
30.053874
 20
37.67363
 30
0.0
 11
30.053874
 21
37.67363
 31
0.0
  0
LINE
  5
6D6
100
AcDbEntity
  8
BORDER
  6
CONTINUOUS
 62
     2
100
AcDbLine
 39
96.0
 10
29.585124
 20
37.67363
 30
0.0
 11
29.585124
 21
37.67363
 31
0.0
  0
LINE
  5
6D7
100
AcDbEntity
  8
BORDER
  6
CONTINUOUS
 62
     2
100
AcDbLine
 39
96.0
 10
31.225744
 20
38.14233
 30
0.0
 11
31.225744
 21
38.14233
 31
0.0
  0
LINE
  5
6D8
100
AcDbEntity
  8
BORDER
  6
CONTINUOUS
 62
     2
100
AcDbLine
 39
96.0
 10
30.756994
 20
38.14233
 30
0.0
 11
30.756994
 21
38.14233
 31
0.0
  0
LINE
  5
6D9
100
AcDbEntity
  8
BORDER
  6
CONTINUOUS
 62
     2
100
AcDbLine
 39
96.0
 10
30.288244
 20
38.14233
 30
0.0
 11
30.288244
 21
38.14233
 31
0.0
  0
LINE
  5
6DA
100
AcDbEntity
  8
BORDER
  6
CONTINUOUS
 62
     2
100
AcDbLine
 39
96.0
 10
29.819494
 20
38.14233
 30
0.0
 11
29.819494
 21
38.14233
 31
0.0
  0
LINE
  5
6DB
100
AcDbEntity
  8
BORDER
  6
CONTINUOUS
 62
     2
100
AcDbLine
 39
96.0
 10
30.991374
 20
38.61113
 30
0.0
 11
30.991374
 21
38.61113
 31
0.0
  0
LINE
  5
6DC
100
AcDbEntity
  8
BORDER
  6
CONTINUOUS
 62
     2
100
AcDbLine
 39
96.0
 10
30.522624
 20
38.61113
 30
0.0
 11
30.522624
 21
38.61113
 31
0.0
  0
LINE
  5
6DD
100
AcDbEntity
  8
BORDER
  6
CONTINUOUS
 62
     2
100
AcDbLine
 39
96.0
 10
30.053874
 20
38.61113
 30
0.0
 11
30.053874
 21
38.61113
 31
0.0
  0
LINE
  5
6DE
100
AcDbEntity
  8
BORDER
  6
CONTINUOUS
 62
     2
100
AcDbLine
 39
96.0
 10
29.585124
 20
38.61113
 30
0.0
 11
29.585124
 21
38.61113
 31
0.0
  0
LINE
  5
6DF
100
AcDbEntity
  8
BORDER
  6
CONTINUOUS
 62
     2
100
AcDbLine
 39
96.0
 10
31.225744
 20
39.07983
 30
0.0
 11
31.225744
 21
39.07983
 31
0.0
  0
LINE
  5
6E0
100
AcDbEntity
  8
BORDER
  6
CONTINUOUS
 62
     2
100
AcDbLine
 39
96.0
 10
30.756994
 20
39.07983
 30
0.0
 11
30.756994
 21
39.07983
 31
0.0
  0
LINE
  5
6E1
100
AcDbEntity
  8
BORDER
  6
CONTINUOUS
 62
     2
100
AcDbLine
 39
96.0
 10
30.288244
 20
39.07983
 30
0.0
 11
30.288244
 21
39.07983
 31
0.0
  0
LINE
  5
6E2
100
AcDbEntity
  8
BORDER
  6
CONTINUOUS
 62
     2
100
AcDbLine
 39
96.0
 10
29.819494
 20
39.07983
 30
0.0
 11
29.819494
 21
39.07983
 31
0.0
  0
LINE
  5
6E3
100
AcDbEntity
  8
BORDER
  6
CONTINUOUS
 62
     2
100
AcDbLine
 39
96.0
 10
30.991374
 20
39.54863
 30
0.0
 11
30.991374
 21
39.54863
 31
0.0
  0
LINE
  5
6E4
100
AcDbEntity
  8
BORDER
  6
CONTINUOUS
 62
     2
100
AcDbLine
 39
96.0
 10
30.522624
 20
39.54863
 30
0.0
 11
30.522624
 21
39.54863
 31
0.0
  0
LINE
  5
6E5
100
AcDbEntity
  8
BORDER
  6
CONTINUOUS
 62
     2
100
AcDbLine
 39
96.0
 10
30.053874
 20
39.54863
 30
0.0
 11
30.053874
 21
39.54863
 31
0.0
  0
LINE
  5
6E6
100
AcDbEntity
  8
BORDER
  6
CONTINUOUS
 62
     2
100
AcDbLine
 39
96.0
 10
29.585124
 20
39.54863
 30
0.0
 11
29.585124
 21
39.54863
 31
0.0
  0
LINE
  5
6E7
100
AcDbEntity
  8
BORDER
  6
CONTINUOUS
 62
     1
100
AcDbLine
 39
96.0
 10
37.439374
 20
28.99803
 30
0.0
 11
37.450114
 21
29.05953
 31
0.0
  0
LINE
  5
6E8
100
AcDbEntity
  8
BORDER
  6
CONTINUOUS
 62
     1
100
AcDbLine
 39
96.0
 10
37.005284
 20
26.53601
 30
0.0
 11
37.016034
 21
26.59753
 31
0.0
  0
LINE
  5
6E9
100
AcDbEntity
  8
BORDER
  6
CONTINUOUS
 62
     1
100
AcDbLine
 39
96.0
 10
36.279704
 20
36.81823
 30
0.0
 11
36.290444
 21
36.87973
 31
0.0
  0
LINE
  5
6EA
100
AcDbEntity
  8
BORDER
  6
CONTINUOUS
 62
     1
100
AcDbLine
 39
96.0
 10
35.845624
 20
34.35623
 30
0.0
 11
35.856364
 21
34.41773
 31
0.0
  0
LINE
  5
6EB
100
AcDbEntity
  8
BORDER
  6
CONTINUOUS
 62
     1
100
AcDbLine
 39
96.0
 10
35.411534
 20
31.89413
 30
0.0
 11
35.422284
 21
31.95573
 31
0.0
  0
LINE
  5
6EC
100
AcDbEntity
  8
BORDER
  6
CONTINUOUS
 62
     1
100
AcDbLine
 39
96.0
 10
34.977454
 20
29.43213
 30
0.0
 11
34.988194
 21
29.49363
 31
0.0
  0
LINE
  5
6ED
100
AcDbEntity
  8
BORDER
  6
CONTINUOUS
 62
     1
100
AcDbLine
 39
96.0
 10
33.383954
 20
34.79033
 30
0.0
 11
33.394694
 21
34.85183
 31
0.0
  0
LINE
  5
6EE
100
AcDbEntity
  8
BORDER
  6
CONTINUOUS
 62
     1
100
AcDbLine
 39
96.0
 10
32.949864
 20
32.32823
 30
0.0
 11
32.960614
 21
32.38973
 31
0.0
  0
LINE
  5
6EF
100
AcDbEntity
  8
BORDER
  6
CONTINUOUS
 62
     1
100
AcDbLine
 39
96.0
 10
32.515784
 20
29.86623
 30
0.0
 11
32.526524
 21
29.92773
 31
0.0
  0
LINE
  5
6F0
100
AcDbEntity
  8
BORDER
  6
CONTINUOUS
 62
     1
100
AcDbLine
 39
96.0
 10
32.081704
 20
27.40417
 30
0.0
 11
32.092444
 21
27.46573
 31
0.0
  0
LINE
  5
6F1
100
AcDbEntity
  8
BORDER
  6
CONTINUOUS
 62
     1
100
AcDbLine
 39
96.0
 10
31.356114
 20
37.68643
 30
0.0
 11
31.366864
 21
37.74793
 31
0.0
  0
LINE
  5
6F2
100
AcDbEntity
  8
BORDER
  6
CONTINUOUS
 62
     1
100
AcDbLine
 39
96.0
 10
37.361004
 20
27.39441
 30
0.0
 11
37.396894
 21
27.44563
 31
0.0
  0
LINE
  5
6F3
100
AcDbEntity
  8
BORDER
  6
CONTINUOUS
 62
     1
100
AcDbLine
 39
96.0
 10
36.747474
 20
30.87613
 30
0.0
 11
36.783364
 21
30.92723
 31
0.0
  0
LINE
  5
6F4
100
AcDbEntity
  8
BORDER
  6
CONTINUOUS
 62
     1
100
AcDbLine
 39
96.0
 10
35.313394
 20
28.82823
 30
0.0
 11
35.349284
 21
28.87943
 31
0.0
  0
LINE
  5
6F5
100
AcDbEntity
  8
BORDER
  6
CONTINUOUS
 62
     1
100
AcDbLine
 39
96.0
 10
36.133704
 20
34.35793
 30
0.0
 11
36.169594
 21
34.40903
 31
0.0
  0
LINE
  5
6F6
100
AcDbEntity
  8
BORDER
  6
CONTINUOUS
 62
     1
100
AcDbLine
 39
96.0
 10
34.699624
 20
32.31003
 30
0.0
 11
34.735514
 21
32.36123
 31
0.0
  0
LINE
  5
6F7
100
AcDbEntity
  8
BORDER
  6
CONTINUOUS
 62
     1
100
AcDbLine
 39
96.0
 10
33.265544
 20
30.26213
 30
0.0
 11
33.301434
 21
30.31333
 31
0.0
  0
LINE
  5
6F8
100
AcDbEntity
  8
BORDER
  6
CONTINUOUS
 62
     1
100
AcDbLine
 39
96.0
 10
31.831464
 20
28.21423
 30
0.0
 11
31.867344
 21
28.26543
 31
0.0
  0
LINE
  5
6F9
100
AcDbEntity
  8
BORDER
  6
CONTINUOUS
 62
     1
100
AcDbLine
 39
96.0
 10
34.085854
 20
35.79173
 30
0.0
 11
34.121744
 21
35.84293
 31
0.0
  0
LINE
  5
6FA
100
AcDbEntity
  8
BORDER
  6
CONTINUOUS
 62
     1
100
AcDbLine
 39
96.0
 10
32.651774
 20
33.74393
 30
0.0
 11
32.687664
 21
33.79503
 31
0.0
  0
LINE
  5
6FB
100
AcDbEntity
  8
BORDER
  6
CONTINUOUS
 62
     1
100
AcDbLine
 39
96.0
 10
32.037754
 20
37.22573
 30
0.0
 11
32.073644
 21
37.27693
 31
0.0
  0
LINE
  5
6FC
100
AcDbEntity
  8
BORDER
  6
CONTINUOUS
 62
     1
100
AcDbLine
 39
96.0
 10
36.695234
 20
26.97693
 30
0.0
 11
36.754064
 21
26.99829
 31
0.0
  0
LINE
  5
6FD
100
AcDbEntity
  8
BORDER
  6
CONTINUOUS
 62
     1
100
AcDbLine
 39
96.0
 10
35.604244
 20
28.14493
 30
0.0
 11
35.663074
 21
28.16633
 31
0.0
  0
LINE
  5
6FE
100
AcDbEntity
  8
BORDER
  6
CONTINUOUS
 62
     1
100
AcDbLine
 39
96.0
 10
33.491124
 20
28.47103
 30
0.0
 11
33.549964
 21
28.49243
 31
0.0
  0
LINE
  5
6FF
100
AcDbEntity
  8
BORDER
  6
CONTINUOUS
 62
     1
100
AcDbLine
 39
96.0
 10
37.334874
 20
32.53043
 30
0.0
 11
37.393714
 21
32.55173
 31
0.0
  0
LINE
  5
700
100
AcDbEntity
  8
BORDER
  6
CONTINUOUS
 62
     1
100
AcDbLine
 39
96.0
 10
34.985514
 20
31.67533
 30
0.0
 11
35.044354
 21
31.69673
 31
0.0
  0
LINE
  5
701
100
AcDbEntity
  8
BORDER
  6
CONTINUOUS
 62
     1
100
AcDbLine
 39
96.0
 10
32.636144
 20
30.82033
 30
0.0
 11
32.694984
 21
30.84163
 31
0.0
  0
LINE
  5
702
100
AcDbEntity
  8
BORDER
  6
CONTINUOUS
 62
     1
100
AcDbLine
 39
96.0
 10
36.479894
 20
34.87963
 30
0.0
 11
36.538734
 21
34.90103
 31
0.0
  0
LINE
  5
703
100
AcDbEntity
  8
BORDER
  6
CONTINUOUS
 62
     1
100
AcDbLine
 39
96.0
 10
34.130534
 20
34.02463
 30
0.0
 11
34.189374
 21
34.04593
 31
0.0
  0
LINE
  5
704
100
AcDbEntity
  8
BORDER
  6
CONTINUOUS
 62
     1
100
AcDbLine
 39
96.0
 10
31.781164
 20
33.16953
 30
0.0
 11
31.840004
 21
33.19093
 31
0.0
  0
LINE
  5
705
100
AcDbEntity
  8
BORDER
  6
CONTINUOUS
 62
     1
100
AcDbLine
 39
96.0
 10
33.275554
 20
36.37393
 30
0.0
 11
33.334394
 21
36.39523
 31
0.0
  0
LINE
  5
706
100
AcDbEntity
  8
BORDER
  6
CONTINUOUS
 62
     3
100
AcDbLine
 39
96.0
 10
37.497724
 20
24.68439
 30
0.0
 11
39.372724
 21
24.68439
 31
0.0
  0
LINE
  5
707
100
AcDbEntity
  8
BORDER
  6
CONTINUOUS
 62
     3
100
AcDbLine
 39
96.0
 10
37.497724
 20
39.68443
 30
0.0
 11
29.372724
 21
39.68443
 31
0.0
  0
LINE
  5
708
100
AcDbEntity
  8
BORDER
  6
CONTINUOUS
 62
     3
100
AcDbLine
 39
96.0
 10
37.497724
 20
24.68439
 30
0.0
 11
37.497724
 21
31.426042
 31
0.0
  0
LINE
  5
709
100
AcDbEntity
  8
BORDER
  6
CONTINUOUS
 62
     3
100
AcDbLine
 39
96.0
 10
31.247724
 20
39.68443
 30
0.0
 11
31.247724
 21
24.68439
 31
0.0
  0
LINE
  5
70A
100
AcDbEntity
  8
BORDER
  6
CONTINUOUS
 62
     3
100
AcDbLine
 39
96.0
 10
29.372724
 20
39.68443
 30
0.0
 11
29.372724
 21
24.68439
 31
0.0
  0
LINE
  5
70B
100
AcDbEntity
  8
BORDER
  6
CONTINUOUS
 62
     3
100
AcDbLine
 39
96.0
 10
39.372724
 20
39.68443
 30
0.0
 11
37.497724
 21
39.68443
 31
0.0
  0
LINE
  5
70C
100
AcDbEntity
  8
BORDER
  6
CONTINUOUS
 62
     3
100
AcDbLine
 39
96.0
 10
39.372724
 20
24.68439
 30
0.0
 11
39.372724
 21
39.68443
 31
0.0
  0
LINE
  5
70D
100
AcDbEntity
  8
BORDER
  6
CONTINUOUS
 62
     3
100
AcDbLine
 39
96.0
 10
29.372724
 20
24.68439
 30
0.0
 11
31.247724
 21
24.68439
 31
0.0
  0
LINE
  5
70E
100
AcDbEntity
  8
BORDER
  6
CONTINUOUS
 62
     3
100
AcDbLine
 39
96.0
 10
31.247724
 20
24.68439
 30
0.0
 11
29.372724
 21
24.68439
 31
0.0
  0
LINE
  5
70F
100
AcDbEntity
  8
BORDER
  6
CONTINUOUS
 62
     3
100
AcDbLine
 39
96.0
 10
39.372724
 20
24.68439
 30
0.0
 11
37.497724
 21
24.68439
 31
0.0
  0
LINE
  5
710
100
AcDbEntity
  8
BORDER
  6
CONTINUOUS
 62
    14
100
AcDbLine
 39
96.0
 10
68.663264
 20
40.57283
 30
0.0
 11
57.288064
 21
34.097767
 31
0.0
  0
LINE
  5
711
100
AcDbEntity
  8
BORDER
  6
CONTINUOUS
 62
    14
100
AcDbLine
 39
96.0
 10
52.300501
 20
42.425626
 30
0.0
 11
43.506194
 21
36.309235
 31
0.0
  0
LINE
  5
712
100
AcDbEntity
  8
BORDER
  6
CONTINUOUS
 62
    14
100
AcDbLine
 39
96.0
 10
50.126394
 20
32.77843
 30
0.0
 11
50.126394
 21
34.63893
 31
0.0
  0
LINE
  5
713
100
AcDbEntity
  8
BORDER
  6
CONTINUOUS
 62
    14
100
AcDbLine
 39
96.0
 10
51.898374
 20
32.77843
 30
0.0
 11
51.898374
 21
34.63893
 31
0.0
  0
LINE
  5
714
100
AcDbEntity
  8
BORDER
  6
CONTINUOUS
 62
    14
100
AcDbLine
 39
96.0
 10
53.670094
 20
32.77843
 30
0.0
 11
53.670094
 21
34.63893
 31
0.0
  0
LINE
  5
715
100
AcDbEntity
  8
BORDER
  6
CONTINUOUS
 62
    14
100
AcDbLine
 39
96.0
 10
60.757744
 20
32.77843
 30
0.0
 11
60.757744
 21
34.63893
 31
0.0
  0
LINE
  5
716
100
AcDbEntity
  8
BORDER
  6
CONTINUOUS
 62
    14
100
AcDbLine
 39
96.0
 10
58.985774
 20
32.77843
 30
0.0
 11
58.985774
 21
34.63893
 31
0.0
  0
LINE
  5
717
100
AcDbEntity
  8
BORDER
  6
CONTINUOUS
 62
    14
100
AcDbLine
 39
96.0
 10
57.214044
 20
32.77843
 30
0.0
 11
57.214044
 21
34.63893
 31
0.0
  0
LINE
  5
718
100
AcDbEntity
  8
BORDER
  6
CONTINUOUS
 62
    14
100
AcDbLine
 39
96.0
 10
55.442074
 20
32.77843
 30
0.0
 11
55.442074
 21
34.63893
 31
0.0
  0
LINE
  5
719
100
AcDbEntity
  8
BORDER
  6
CONTINUOUS
 62
     3
100
AcDbLine
 39
96.0
 10
61.353444
 20
33.13283
 30
0.0
 11
49.353444
 21
33.13283
 31
0.0
  0
LINE
  5
71A
100
AcDbEntity
  8
BORDER
  6
CONTINUOUS
 62
    14
100
AcDbLine
 39
96.0
 10
39.669269
 20
33.13283
 30
0.0
 11
41.578699
 21
35.75853
 31
0.0
  0
LINE
  5
71B
100
AcDbEntity
  8
BORDER
  6
CONTINUOUS
 62
    14
100
AcDbLine
 39
96.0
 10
54.003519
 20
39.30843
 30
0.0
 11
54.552829
 21
37.38533
 31
0.0
  0
LINE
  5
71C
100
AcDbEntity
  8
BORDER
  6
CONTINUOUS
 62
    14
100
AcDbLine
 39
96.0
 10
41.578699
 20
35.75853
 30
0.0
 11
54.003519
 21
39.30843
 31
0.0
  0
LINE
  5
71D
100
AcDbEntity
  8
BORDER
  6
CONTINUOUS
 62
    14
100
AcDbLine
 39
96.0
 10
39.669269
 20
33.13283
 30
0.0
 11
54.552829
 21
37.38533
 31
0.0
  0
LINE
  5
71E
100
AcDbEntity
  8
BORDER
  6
CONTINUOUS
 62
     3
100
AcDbLine
 39
96.0
 10
32.762124
 20
33.13283
 30
0.0
 11
39.669269
 21
33.13283
 31
0.0
  0
LINE
  5
71F
100
AcDbEntity
  8
BORDER
  6
CONTINUOUS
 62
    14
100
AcDbLine
 39
96.0
 10
12.326213
 20
43.144826
 30
0.0
 11
15.604293
 21
43.144826
 31
0.0
  0
LINE
  5
720
100
AcDbEntity
  8
BORDER
  6
CONTINUOUS
 62
    14
100
AcDbLine
 39
96.0
 10
57.012993
 20
43.056226
 30
0.0
 11
53.380673
 21
43.056226
 31
0.0
  0
LINE
  5
721
100
AcDbEntity
  8
BORDER
  6
CONTINUOUS
 62
    14
100
AcDbLine
 39
96.0
 10
65.825374
 20
36.32223
 30
0.0
 11
68.217224
 21
35.17043
 31
0.0
  0
LINE
  5
722
100
AcDbEntity
  8
BORDER
  6
CONTINUOUS
 62
    14
100
AcDbLine
 39
96.0
 10
70.432064
 20
39.51153
 30
0.0
 11
65.825374
 21
36.32223
 31
0.0
  0
LINE
  5
723
100
AcDbEntity
  8
BORDER
  6
CONTINUOUS
 62
    14
100
AcDbLine
 39
96.0
 10
68.217224
 20
40.84053
 30
0.0
 11
70.432064
 21
39.51153
 31
0.0
  0
LINE
  5
724
100
AcDbEntity
  8
BORDER
  6
CONTINUOUS
 62
    14
100
AcDbLine
 39
96.0
 10
68.217224
 20
40.84053
 30
0.0
 11
68.217224
 21
44.56143
 31
0.0
  0
LINE
  5
725
100
AcDbEntity
  8
BORDER
  6
CONTINUOUS
 62
    14
100
AcDbLine
 39
96.0
 10
68.217224
 20
32.06973
 30
0.0
 11
68.217224
 21
35.17043
 31
0.0
  0
LINE
  5
726
100
AcDbEntity
  8
BORDER
  6
CONTINUOUS
 62
    14
100
AcDbLine
 39
96.0
 10
39.372724
 20
33.43443
 30
0.0
 11
39.888595
 21
33.43443
 31
0.0
  0
LINE
  5
727
100
AcDbEntity
  8
BORDER
  6
CONTINUOUS
 62
    14
100
AcDbLine
 39
96.0
 10
14.185593
 20
42.425626
 30
0.0
 11
54.117035
 21
42.425626
 31
0.0
  0
LINE
  5
728
100
AcDbEntity
  8
BORDER
  6
CONTINUOUS
 62
    11
100
AcDbLine
 39
96.0
 10
13.586953
 20
43.925626
 30
0.0
 11
14.336953
 21
44.675626
 31
0.0
  0
LINE
  5
729
100
AcDbEntity
  8
BORDER
  6
CONTINUOUS
 62
    14
100
AcDbLine
 39
96.0
 10
14.185593
 20
43.925626
 30
0.0
 11
12.685593
 21
34.675626
 31
0.0
  0
LINE
  5
72A
100
AcDbEntity
  8
BORDER
  6
CONTINUOUS
 62
    14
100
AcDbLine
 39
96.0
 10
12.685593
 20
43.925626
 30
0.0
 11
14.185593
 21
34.675626
 31
0.0
  0
LINE
  5
72B
100
AcDbEntity
  8
BORDER
  6
CONTINUOUS
 62
    14
100
AcDbLine
 39
96.0
 10
14.185593
 20
34.675626
 30
0.0
 11
14.185593
 21
43.925626
 31
0.0
  0
LINE
  5
72C
100
AcDbEntity
  8
BORDER
  6
CONTINUOUS
 62
    14
100
AcDbLine
 39
96.0
 10
12.685593
 20
34.675626
 30
0.0
 11
14.185593
 21
34.675626
 31
0.0
  0
LINE
  5
72D
100
AcDbEntity
  8
BORDER
  6
CONTINUOUS
 62
    14
100
AcDbLine
 39
96.0
 10
12.685593
 20
44.675626
 30
0.0
 11
12.685593
 21
34.675626
 31
0.0
  0
LINE
  5
72E
100
AcDbEntity
  8
BORDER
  6
CONTINUOUS
 62
    11
100
AcDbLine
 39
96.0
 10
34.259293
 20
44.925626
 30
0.0
 11
34.259293
 21
41.488126
 31
0.0
  0
LINE
  5
72F
100
AcDbEntity
  8
BORDER
  6
CONTINUOUS
 62
    11
100
AcDbLine
 39
96.0
 10
12.685593
 20
44.300626
 30
0.0
 11
68.530093
 21
44.300626
 31
0.0
  0
LINE
  5
730
100
AcDbEntity
  8
BORDER
  6
CONTINUOUS
 62
    11
100
AcDbLine
 39
96.0
 10
67.277403
 20
43.925626
 30
0.0
 11
68.027403
 21
44.675626
 31
0.0
  0
LINE
  5
731
100
AcDbEntity
  8
BORDER
  6
CONTINUOUS
 62
    11
100
AcDbLine
 39
96.0
 10
65.289123
 20
43.925626
 30
0.0
 11
66.039123
 21
44.675626
 31
0.0
  0
LINE
  5
732
100
AcDbEntity
  8
BORDER
  6
CONTINUOUS
 62
    11
100
AcDbLine
 39
96.0
 10
63.300843
 20
43.925626
 30
0.0
 11
64.050843
 21
44.675626
 31
0.0
  0
LINE
  5
733
100
AcDbEntity
  8
BORDER
  6
CONTINUOUS
 62
    11
100
AcDbLine
 39
96.0
 10
61.312553
 20
43.925626
 30
0.0
 11
62.062553
 21
44.675626
 31
0.0
  0
LINE
  5
734
100
AcDbEntity
  8
BORDER
  6
CONTINUOUS
 62
    11
100
AcDbLine
 39
96.0
 10
59.323303
 20
43.925626
 30
0.0
 11
60.073303
 21
44.675626
 31
0.0
  0
LINE
  5
735
100
AcDbEntity
  8
BORDER
  6
CONTINUOUS
 62
    11
100
AcDbLine
 39
96.0
 10
57.335013
 20
43.925626
 30
0.0
 11
58.085993
 21
44.675626
 31
0.0
  0
LINE
  5
736
100
AcDbEntity
  8
BORDER
  6
CONTINUOUS
 62
    11
100
AcDbLine
 39
96.0
 10
55.346733
 20
43.925626
 30
0.0
 11
56.096733
 21
44.675626
 31
0.0
  0
LINE
  5
737
100
AcDbEntity
  8
BORDER
  6
CONTINUOUS
 62
    11
100
AcDbLine
 39
96.0
 10
53.358453
 20
43.925626
 30
0.0
 11
54.108453
 21
44.675626
 31
0.0
  0
LINE
  5
738
100
AcDbEntity
  8
BORDER
  6
CONTINUOUS
 62
    11
100
AcDbLine
 39
96.0
 10
51.369193
 20
43.925626
 30
0.0
 11
52.119193
 21
44.675626
 31
0.0
  0
LINE
  5
739
100
AcDbEntity
  8
BORDER
  6
CONTINUOUS
 62
    11
100
AcDbLine
 39
96.0
 10
49.380913
 20
43.925626
 30
0.0
 11
50.131893
 21
44.675626
 31
0.0
  0
LINE
  5
73A
100
AcDbEntity
  8
BORDER
  6
CONTINUOUS
 62
    11
100
AcDbLine
 39
96.0
 10
47.392633
 20
43.925626
 30
0.0
 11
48.142633
 21
44.675626
 31
0.0
  0
LINE
  5
73B
100
AcDbEntity
  8
BORDER
  6
CONTINUOUS
 62
    11
100
AcDbLine
 39
96.0
 10
45.404353
 20
43.925626
 30
0.0
 11
46.154353
 21
44.675626
 31
0.0
  0
LINE
  5
73C
100
AcDbEntity
  8
BORDER
  6
CONTINUOUS
 62
    11
100
AcDbLine
 39
96.0
 10
43.415083
 20
43.925626
 30
0.0
 11
44.165083
 21
44.675626
 31
0.0
  0
LINE
  5
73D
100
AcDbEntity
  8
BORDER
  6
CONTINUOUS
 62
    11
100
AcDbLine
 39
96.0
 10
41.427773
 20
43.925626
 30
0.0
 11
42.177773
 21
44.675626
 31
0.0
  0
LINE
  5
73E
100
AcDbEntity
  8
BORDER
  6
CONTINUOUS
 62
    11
100
AcDbLine
 39
96.0
 10
39.438523
 20
43.925626
 30
0.0
 11
40.188523
 21
44.675626
 31
0.0
  0
LINE
  5
73F
100
AcDbEntity
  8
BORDER
  6
CONTINUOUS
 62
    11
100
AcDbLine
 39
96.0
 10
37.450233
 20
43.925626
 30
0.0
 11
38.200233
 21
44.675626
 31
0.0
  0
LINE
  5
740
100
AcDbEntity
  8
BORDER
  6
CONTINUOUS
 62
    11
100
AcDbLine
 39
96.0
 10
35.460983
 20
43.925626
 30
0.0
 11
36.211953
 21
44.675626
 31
0.0
  0
LINE
  5
741
100
AcDbEntity
  8
BORDER
  6
CONTINUOUS
 62
    11
100
AcDbLine
 39
96.0
 10
33.473673
 20
43.925626
 30
0.0
 11
34.223673
 21
44.675626
 31
0.0
  0
LINE
  5
742
100
AcDbEntity
  8
BORDER
  6
CONTINUOUS
 62
    11
100
AcDbLine
 39
96.0
 10
31.484413
 20
43.925626
 30
0.0
 11
32.234413
 21
44.675626
 31
0.0
  0
LINE
  5
743
100
AcDbEntity
  8
BORDER
  6
CONTINUOUS
 62
    11
100
AcDbLine
 39
96.0
 10
29.496133
 20
43.925626
 30
0.0
 11
30.246133
 21
44.675626
 31
0.0
  0
LINE
  5
744
100
AcDbEntity
  8
BORDER
  6
CONTINUOUS
 62
    11
100
AcDbLine
 39
96.0
 10
27.506873
 20
43.925626
 30
0.0
 11
28.257853
 21
44.675626
 31
0.0
  0
LINE
  5
745
100
AcDbEntity
  8
BORDER
  6
CONTINUOUS
 62
    11
100
AcDbLine
 39
96.0
 10
25.519573
 20
43.925626
 30
0.0
 11
26.269573
 21
44.675626
 31
0.0
  0
LINE
  5
746
100
AcDbEntity
  8
BORDER
  6
CONTINUOUS
 62
    11
100
AcDbLine
 39
96.0
 10
23.530313
 20
43.925626
 30
0.0
 11
24.280313
 21
44.675626
 31
0.0
  0
LINE
  5
747
100
AcDbEntity
  8
BORDER
  6
CONTINUOUS
 62
    11
100
AcDbLine
 39
96.0
 10
21.542033
 20
43.925626
 30
0.0
 11
22.292033
 21
44.675626
 31
0.0
  0
LINE
  5
748
100
AcDbEntity
  8
BORDER
  6
CONTINUOUS
 62
    11
100
AcDbLine
 39
96.0
 10
19.553753
 20
43.925626
 30
0.0
 11
20.303753
 21
44.675626
 31
0.0
  0
LINE
  5
749
100
AcDbEntity
  8
BORDER
  6
CONTINUOUS
 62
    11
100
AcDbLine
 39
96.0
 10
17.565473
 20
43.925626
 30
0.0
 11
18.315473
 21
44.675626
 31
0.0
  0
LINE
  5
74A
100
AcDbEntity
  8
BORDER
  6
CONTINUOUS
 62
    11
100
AcDbLine
 39
96.0
 10
15.576213
 20
43.925626
 30
0.0
 11
16.326213
 21
44.675626
 31
0.0
  0
LINE
  5
74B
100
AcDbEntity
  8
BORDER
  6
CONTINUOUS
 62
    11
100
AcDbLine
 39
96.0
 10
56.435603
 20
43.925626
 30
0.0
 11
54.935603
 21
40.425626
 31
0.0
  0
LINE
  5
74C
100
AcDbEntity
  8
BORDER
  6
CONTINUOUS
 62
    11
100
AcDbLine
 39
96.0
 10
56.435603
 20
40.425626
 30
0.0
 11
54.935603
 21
43.925626
 31
0.0
  0
LINE
  5
74D
100
AcDbEntity
  8
BORDER
  6
CONTINUOUS
 62
    11
100
AcDbLine
 39
96.0
 10
54.935603
 20
40.425626
 30
0.0
 11
56.435603
 21
40.425626
 31
0.0
  0
LINE
  5
74E
100
AcDbEntity
  8
BORDER
  6
CONTINUOUS
 62
    11
100
AcDbLine
 39
96.0
 10
56.435603
 20
17.93439
 30
0.0
 11
54.935603
 21
14.43439
 31
0.0
  0
LINE
  5
74F
100
AcDbEntity
  8
BORDER
  6
CONTINUOUS
 62
    11
100
AcDbLine
 39
96.0
 10
54.935603
 20
17.93439
 30
0.0
 11
56.435603
 21
14.43439
 31
0.0
  0
LINE
  5
750
100
AcDbEntity
  8
BORDER
  6
CONTINUOUS
 62
    11
100
AcDbLine
 39
96.0
 10
54.935603
 20
17.93439
 30
0.0
 11
56.435603
 21
17.93439
 31
0.0
  0
LINE
  5
751
100
AcDbEntity
  8
BORDER
  6
CONTINUOUS
 62
    11
100
AcDbLine
 39
96.0
 10
54.935603
 20
14.43439
 30
0.0
 11
56.435603
 21
14.43439
 31
0.0
  0
LINE
  5
752
100
AcDbEntity
  8
BORDER
  6
CONTINUOUS
 62
    11
100
AcDbLine
 39
96.0
 10
56.435603
 20
43.925626
 30
0.0
 11
56.435603
 21
14.43439
 31
0.0
  0
LINE
  5
753
100
AcDbEntity
  8
BORDER
  6
CONTINUOUS
 62
    11
100
AcDbLine
 39
96.0
 10
54.935603
 20
43.925626
 30
0.0
 11
54.935603
 21
14.43439
 31
0.0
  0
LINE
  5
754
100
AcDbEntity
  8
BORDER
  6
CONTINUOUS
 62
     3
100
AcDbLine
 39
96.0
 10
34.657723
 20
42.371526
 30
0.0
 11
34.657723
 21
32.392126
 31
0.0
  0
LINE
  5
755
100
AcDbEntity
  8
BORDER
  6
CONTINUOUS
 62
    11
100
AcDbLine
 39
96.0
 10
35.157723
 20
41.848826
 30
0.0
 11
35.157723
 21
42.411326
 31
0.0
  0
LINE
  5
756
100
AcDbEntity
  8
BORDER
  6
CONTINUOUS
 62
    11
100
AcDbLine
 39
96.0
 10
34.220223
 20
41.848826
 30
0.0
 11
35.157723
 21
41.848826
 31
0.0
  0
LINE
  5
757
100
AcDbEntity
  8
BORDER
  6
CONTINUOUS
 62
    11
100
AcDbLine
 39
96.0
 10
34.220223
 20
42.411326
 30
0.0
 11
34.220223
 21
41.848826
 31
0.0
  0
LINE
  5
758
100
AcDbEntity
  8
BORDER
  6
CONTINUOUS
 62
    11
100
AcDbLine
 39
96.0
 10
12.685593
 20
44.675626
 30
0.0
 11
68.530093
 21
44.675626
 31
0.0
  0
LINE
  5
759
100
AcDbEntity
  8
BORDER
  6
CONTINUOUS
 62
    11
100
AcDbLine
 39
96.0
 10
12.685593
 20
43.925626
 30
0.0
 11
68.530093
 21
43.925626
 31
0.0
  0
LINE
  5
75A
100
AcDbEntity
  8
BORDER
  6
CONTINUOUS
 62
    11
100
AcDbLine
 39
96.0
 10
37.685593
 20
39.68443
 30
0.0
 11
31.685593
 21
42.411326
 31
0.0
  0
LINE
  5
75B
100
AcDbEntity
  8
BORDER
  6
CONTINUOUS
 62
    11
100
AcDbLine
 39
96.0
 10
31.685593
 20
39.68443
 30
0.0
 11
37.685593
 21
42.411326
 31
0.0
  0
LINE
  5
75C
100
AcDbEntity
  8
BORDER
  6
CONTINUOUS
 62
    11
100
AcDbLine
 39
96.0
 10
31.685593
 20
42.411326
 30
0.0
 11
31.685593
 21
39.68443
 31
0.0
  0
LINE
  5
75D
100
AcDbEntity
  8
BORDER
  6
CONTINUOUS
 62
    11
100
AcDbLine
 39
96.0
 10
37.685593
 20
39.68443
 30
0.0
 11
37.685593
 21
42.411326
 31
0.0
  0
TEXT
  5
75E
100
AcDbEntity
  8
BORDER
  6
CONTINUOUS
 62
    15
100
AcDbText
 10
1.298875
 20
5.250961
 30
0.0
 40
1.124955
  1
(MIN. #4 @ 30" O.C.)
  7
ROMAN
100
AcDbText
  0
TEXT
  5
75F
100
AcDbEntity
  8
BORDER
  6
CONTINUOUS
 62
    15
100
AcDbText
 10
8.567775
 20
7.129995
 30
0.0
 40
1.124955
  1
HORIZ. REINF.
  7
ROMAN
100
AcDbText
  0
TEXT
  5
760
100
AcDbEntity
  8
BORDER
  6
CONTINUOUS
 62
    15
100
AcDbText
 10
10.011985
 20
14.832035
 30
0.0
 40
1.124955
  1
VERT. REINF.
  7
ROMAN
100
AcDbText
  0
TEXT
  5
761
100
AcDbEntity
  8
BORDER
  6
CONTINUOUS
 62
    15
100
AcDbText
 10
1.811411
 20
12.975229
 30
0.0
 40
1.124955
  1
(MIN. #4 @ 30" O.C.
  7
ROMAN
100
AcDbText
  0
TEXT
  5
762
100
AcDbEntity
  8
BORDER
  6
CONTINUOUS
 62
    15
100
AcDbText
 10
-0.214277
 20
10.845453
 30
0.0
 40
1.124955
  1
REQUIRED, PER DESIGN)
  7
ROMAN
100
AcDbText
  0
TEXT
  5
763
100
AcDbEntity
  8
BORDER
  6
CONTINUOUS
 62
    15
100
AcDbText
 10
-0.163848
 20
3.255985
 30
0.0
 40
1.124955
  1
REQUIRED, PER DESIGN)
  7
ROMAN
100
AcDbText
  0
TEXT
  5
764
100
AcDbEntity
  8
BORDER
  6
CONTINUOUS
 62
    11
100
AcDbText
 10
8.553034
 20
21.260544
 30
0.0
 40
1.125
  1
NOTCH PANEL
  7
ROMAN
100
AcDbText
  0
TEXT
  5
765
100
AcDbEntity
  8
BORDER
  6
CONTINUOUS
 62
    11
100
AcDbText
 10
8.553034
 20
19.60925
 30
0.0
 40
1.125
  1
@ ANCHORAGE
  7
ROMAN
100
AcDbText
  0
TEXT
  5
766
100
AcDbEntity
  8
BORDER
  6
CONTINUOUS
 62
    11
100
AcDbText
 10
9.264164
 20
24.471385
 30
0.0
 40
1.125
  1
@ 45" O.C.)
  7
ROMAN
100
AcDbText
  0
TEXT
  5
767
100
AcDbEntity
  8
BORDER
  6
CONTINUOUS
 62
    11
100
AcDbText
 10
9.264164
 20
26.458153
 30
0.0
 40
1.125
  1
(MIN. 1/2"%%C A.B. 
  7
ROMAN
100
AcDbText
  0
TEXT
  5
768
100
AcDbEntity
  8
BORDER
  6
CONTINUOUS
 62
    11
100
AcDbText
 10
9.264164
 20
28.386863
 30
0.0
 40
1.125
  1
ANCHOR BOLTS
  7
ROMAN
100
AcDbText
  0
TEXT
  5
769
100
AcDbEntity
  8
BORDER
  6
CONTINUOUS
 62
    11
100
AcDbText
 10
9.264164
 20
30.315573
 30
0.0
 40
1.125
  1
COUNTERSUNK
  7
ROMAN
100
AcDbText
  0
TEXT
  5
76A
100
AcDbEntity
  8
BORDER
  6
CONTINUOUS
 62
    11
100
AcDbText
 10
9.264164
 20
32.244293
 30
0.0
 40
1.125
  1
4x PL. WITH
  7
ROMAN
100
AcDbText
  0
TEXT
  5
76B
100
AcDbEntity
  8
BORDER
  6
CONTINUOUS
 62
    11
100
AcDbText
 10
62.433284
 20
14.66217
 30
0.0
 40
1.125
  1
PREFAB. TRUSSES
  7
ROMAN
100
AcDbText
  0
TEXT
  5
76C
100
AcDbEntity
  8
BORDER
  6
CONTINUOUS
 62
    11
100
AcDbText
 10
63.319024
 20
21.92688
 30
0.0
 40
1.125
  1
STRAP 
  7
ROMAN
100
AcDbText
  0
LINE
  5
76D
100
AcDbEntity
  8
BORDER
  6
CONTINUOUS
 62
    14
100
AcDbLine
 10
67.571714
 20
27.95123
 30
0.0
 11
65.799744
 21
27.95123
 31
0.0
  0
LINE
  5
76E
100
AcDbEntity
  8
BORDER
  6
CONTINUOUS
 62
    15
100
AcDbLine
 10
42.942544
 20
5.59411
 30
0.0
 11
40.342204
 21
7.28442
 31
0.0
  0
TEXT
  5
76F
100
AcDbEntity
  8
BORDER
  6
CONTINUOUS
 62
    11
100
AcDbText
 10
44.183024
 20
4.70813
 30
0.0
 40
1.125
  1
RASTRA WALL
  7
ROMAN
100
AcDbText
  0
LINE
  5
770
100
AcDbEntity
  8
BORDER
  6
CONTINUOUS
 62
    15
100
AcDbLine
 10
44.005774
 20
5.59411
 30
0.0
 11
42.942544
 21
5.59411
 31
0.0
  0
LEADER
  5
771
100
AcDbEntity
  8
BORDER
  6
CONTINUOUS
 62
    11
100
AcDbLeader
  3
STANDARD
 76
     3
 10
36.421663
 20
33.889685
 30
0.0
 10
45.786797
 20
52.980038
 30
0.0
 10
47.673952
 20
52.980038
 30
0.0
 77
    11
211
-1.0
221
0.0
231
0.0
1001
ACAD
1000
DSTYLE
1002
{
1070
    78
1070
     1
1070
   140
1040
6.0
1070
    73
1070
     0
1070
    77
1070
     1
1070
   173
1070
     1
1070
    42
1040
6.0
1070
    44
1040
0.0
1070
    43
1040
24.0
1070
   141
1040
3.0
1070
     7
1000
_CLOSEDBLANK
1070
     6
1000
_CLOSEDBLANK
1070
    41
1040
1.5
1002
}
  0
LINE
  5
772
100
AcDbEntity
  8
0
  6
HIDDEN
 62
    13
100
AcDbLine
 39
96.0
 10
37.497724
 20
34.43798
 30
0.0
 11
37.497724
 21
31.426042
 31
0.0
  0
LINE
  5
773
100
AcDbEntity
  8
BORDER
  6
CONTINUOUS
 62
    11
100
AcDbLine
 10
20.973272
 20
32.931793
 30
0.0
 11
31.306567
 21
39.085393
 31
0.0
  0
LEADER
  5
774
100
AcDbEntity
  8
RF-SW
 62
    13
100
AcDbLeader
  3
ARCHITECTURAL
 76
     3
 10
34.592215
 20
15.370731
 30
0.0
 10
22.935716
 20
7.33089
 30
0.0
 10
21.146447
 20
7.33089
 30
0.0
 77
    13
1001
ACAD
1000
DSTYLE
1002
{
1070
    40
1040
12.0
1070
   173
1070
     1
1070
     7
1000
_CLOSEDBLANK
1070
     6
1000
_CLOSEDBLANK
1002
}
  0
LEADER
  5
775
100
AcDbEntity
  8
RF-SW
 62
    13
100
AcDbLeader
  3
ARCHITECTURAL
 76
     3
 10
33.651493
 20
22.70387
 30
0.0
 10
22.465355
 20
15.628711
 30
0.0
 10
20.676086
 20
15.628711
 30
0.0
 77
    13
1001
ACAD
1000
DSTYLE
1002
{
1070
    40
1040
12.0
1070
   173
1070
     1
1070
     7
1000
_CLOSEDBLANK
1070
     6
1000
_CLOSEDBLANK
1002
}
  0
LEADER
  5
776
100
AcDbEntity
  8
BORDER
  6
CONTINUOUS
 62
    11
100
AcDbLeader
  3
STANDARD
 76
     3
 10
37.5034
 20
32.53043
 30
0.0
 10
22.148648
 20
21.882837
 30
0.0
 10
20.261493
 20
21.882837
 30
0.0
 77
    11
1001
ACAD
1000
DSTYLE
1002
{
1070
    78
1070
     1
1070
   140
1040
6.0
1070
    73
1070
     0
1070
    77
1070
     1
1070
   173
1070
     1
1070
    42
1040
6.0
1070
    44
1040
0.0
1070
    43
1040
24.0
1070
   141
1040
3.0
1070
     7
1000
_CLOSEDBLANK
1070
     6
1000
_CLOSEDBLANK
1070
    41
1040
1.5
1002
}
  0
LINE
  5
777
100
AcDbEntity
  8
BORDER
  6
CONTINUOUS
 62
    11
100
AcDbLine
 10
20.285772
 20
32.931793
 30
0.0
 11
20.973272
 21
32.931793
 31
0.0
  0
LINE
  5
778
100
AcDbEntity
  8
BORDER
  6
CONTINUOUS
 62
    15
100
AcDbLine
 10
40.546544
 20
7.59881
 30
0.0
 11
40.137854
 21
6.97003
 31
0.0
  0
LINE
  5
779
100
AcDbEntity
  8
BORDER
  6
CONTINUOUS
 62
    15
100
AcDbLine
 10
39.398844
 20
7.89752
 30
0.0
 11
40.137854
 21
6.97003
 31
0.0
  0
LINE
  5
77A
100
AcDbEntity
  8
BORDER
  6
CONTINUOUS
 62
    15
100
AcDbLine
 10
39.398844
 20
7.89752
 30
0.0
 11
40.546544
 21
7.59881
 31
0.0
  0
TEXT
  5
77B
100
AcDbEntity
  8
BORDER
  6
CONTINUOUS
 62
    11
100
AcDbText
 10
21.934504
 20
51.321489
 30
0.0
 40
1.125
  1
TRANSVERSE MEMBER
  7
ROMAN
100
AcDbText
  0
TEXT
  5
77C
100
AcDbEntity
  8
BORDER
  6
CONTINUOUS
 62
    11
100
AcDbText
 10
21.311618
 20
47.800626
 30
0.0
 40
1.125
  1
BOUND. NAIL
  7
ROMAN
100
AcDbText
  0
LEADER
  5
77D
100
AcDbEntity
  8
BORDER
  6
CONTINUOUS
 62
    11
100
AcDbLeader
  3
STANDARD
 76
     3
 10
17.565473
 20
43.925626
 30
0.0
 10
19.954151
 20
51.826264
 30
0.0
 10
21.841306
 20
51.826264
 30
0.0
 77
    11
211
-1.0
221
0.0
231
0.0
1001
ACAD
1000
DSTYLE
1002
{
1070
    78
1070
     1
1070
   140
1040
6.0
1070
    73
1070
     0
1070
    77
1070
     1
1070
   173
1070
     1
1070
    42
1040
6.0
1070
    44
1040
0.0
1070
    43
1040
24.0
1070
   141
1040
3.0
1070
     7
1000
_CLOSEDBLANK
1070
     6
1000
_CLOSEDBLANK
1070
    41
1040
1.5
1002
}
  0
LINE
  5
77E
100
AcDbEntity
  8
BORDER
  6
CONTINUOUS
 62
    11
100
AcDbLine
 10
33.002061
 20
48.363126
 30
0.0
 11
33.88416
 21
45.920862
 31
0.0
  0
LINE
  5
77F
100
AcDbEntity
  8
BORDER
  6
CONTINUOUS
 62
    11
100
AcDbLine
 10
32.255472
 20
39.690564
 30
0.0
 11
31.101007
 21
39.415761
 31
0.0
  0
LINE
  5
780
100
AcDbEntity
  8
BORDER
  6
CONTINUOUS
 62
    11
100
AcDbLine
 10
32.255472
 20
39.690564
 30
0.0
 11
31.497459
 21
38.778599
 31
0.0
  0
LINE
  5
781
100
AcDbEntity
  8
BORDER
  6
CONTINUOUS
 62
    11
100
AcDbLine
 10
31.497459
 20
38.778599
 30
0.0
 11
31.101007
 21
39.415761
 31
0.0
  0
LINE
  5
782
100
AcDbEntity
  8
BORDER
  6
CONTINUOUS
 62
    11
100
AcDbLine
 10
34.266133
 20
44.863126
 30
0.0
 11
34.237374
 21
46.048175
 31
0.0
  0
LINE
  5
783
100
AcDbEntity
  8
BORDER
  6
CONTINUOUS
 62
    11
100
AcDbLine
 10
34.237374
 20
46.048175
 30
0.0
 11
33.531008
 21
45.793629
 31
0.0
  0
LINE
  5
784
100
AcDbEntity
  8
BORDER
  6
CONTINUOUS
 62
    11
100
AcDbLine
 10
34.266133
 20
44.863126
 30
0.0
 11
33.531008
 21
45.793629
 31
0.0
  0
LINE
  5
785
100
AcDbEntity
  8
BORDER
  6
CONTINUOUS
 62
    11
100
AcDbLine
 10
32.253583
 20
48.363126
 30
0.0
 11
33.002061
 21
48.363126
 31
0.0
  0
LINE
  5
786
100
AcDbEntity
  8
BORDER
  6
CONTINUOUS
 62
    14
100
AcDbLine
 10
42.322424
 20
34.12333
 30
0.0
 11
42.053144
 21
32.96843
 31
0.0
  0
LINE
  5
787
100
AcDbEntity
  8
BORDER
  6
CONTINUOUS
 62
    14
100
AcDbLine
 10
42.322424
 20
34.12333
 30
0.0
 11
42.799964
 21
33.03783
 31
0.0
  0
TEXT
  5
788
100
AcDbEntity
  8
BORDER
  6
CONTINUOUS
 62
    11
100
AcDbText
 10
43.651284
 20
26.37707
 30
0.0
 40
1.125
  1
ANCHORAGE
  7
ROMAN
100
AcDbText
  0
TEXT
  5
789
100
AcDbEntity
  8
BORDER
  6
CONTINUOUS
 62
    11
100
AcDbText
 10
43.651284
 20
28.3056
 30
0.0
 40
1.125
  1
WALL/ROOF
  7
ROMAN
100
AcDbText
  0
LINE
  5
78A
100
AcDbEntity
  8
BORDER
  6
CONTINUOUS
 62
    14
100
AcDbLine
 10
42.799964
 20
33.03783
 30
0.0
 11
42.053144
 21
32.96843
 31
0.0
  0
LINE
  5
78B
100
AcDbEntity
  8
BORDER
  6
CONTINUOUS
 62
    14
100
AcDbLine
 10
42.794834
 20
29.04393
 30
0.0
 11
42.426674
 21
33.00313
 31
0.0
  0
LINE
  5
78C
100
AcDbEntity
  8
BORDER
  6
CONTINUOUS
 62
    14
100
AcDbLine
 10
43.326334
 20
29.04393
 30
0.0
 11
42.794834
 21
29.04393
 31
0.0
  0
LINE
  5
78D
100
AcDbEntity
  8
BORDER
  6
CONTINUOUS
 62
    14
100
AcDbLine
 10
60.484064
 20
15.37091
 30
0.0
 11
57.112974
 21
16.58453
 31
0.0
  0
LINE
  5
78E
100
AcDbEntity
  8
BORDER
  6
CONTINUOUS
 62
    14
100
AcDbLine
 10
56.054374
 20
16.96564
 30
0.0
 11
56.985774
 21
16.23175
 31
0.0
  0
LINE
  5
78F
100
AcDbEntity
  8
BORDER
  6
CONTINUOUS
 62
    14
100
AcDbLine
 10
56.054374
 20
16.96564
 30
0.0
 11
57.239924
 21
16.93744
 31
0.0
  0
LINE
  5
790
100
AcDbEntity
  8
BORDER
  6
CONTINUOUS
 62
    14
100
AcDbLine
 10
57.239924
 20
16.93744
 30
0.0
 11
56.985774
 21
16.23175
 31
0.0
  0
LINE
  5
791
100
AcDbEntity
  8
BORDER
  6
CONTINUOUS
 62
    14
100
AcDbLine
 10
62.256034
 20
15.19378
 30
0.0
 11
60.484064
 21
15.37091
 31
0.0
  0
LINE
  5
792
100
AcDbEntity
  8
BORDER
  6
CONTINUOUS
 62
    14
100
AcDbLine
 10
61.547294
 20
22.63568
 30
0.0
 11
58.364674
 21
32.02423
 31
0.0
  0
LINE
  5
793
100
AcDbEntity
  8
BORDER
  6
CONTINUOUS
 62
    14
100
AcDbLine
 10
58.719904
 20
32.14463
 30
0.0
 11
58.009454
 21
31.90383
 31
0.0
  0
LINE
  5
794
100
AcDbEntity
  8
BORDER
  6
CONTINUOUS
 62
    14
100
AcDbLine
 10
58.003354
 20
33.08963
 30
0.0
 11
58.009454
 21
31.90383
 31
0.0
  0
LINE
  5
795
100
AcDbEntity
  8
BORDER
  6
CONTINUOUS
 62
    14
100
AcDbLine
 10
58.003354
 20
33.08963
 30
0.0
 11
58.719904
 21
32.14463
 31
0.0
  0
LINE
  5
796
100
AcDbEntity
  8
BORDER
  6
CONTINUOUS
 62
    14
100
AcDbLine
 10
62.787534
 20
22.63568
 30
0.0
 11
61.547294
 21
22.63568
 31
0.0
  0
LINE
  5
797
100
AcDbEntity
  8
BORDER
  6
CONTINUOUS
 62
    14
100
AcDbLine
 10
64.590024
 20
32.33973
 30
0.0
 11
63.885914
 21
32.08153
 31
0.0
  0
LINE
  5
798
100
AcDbEntity
  8
BORDER
  6
CONTINUOUS
 62
    14
100
AcDbLine
 10
63.850764
 20
33.26693
 30
0.0
 11
63.885914
 21
32.08153
 31
0.0
  0
LINE
  5
799
100
AcDbEntity
  8
BORDER
  6
CONTINUOUS
 62
    14
100
AcDbLine
 10
63.850764
 20
33.26693
 30
0.0
 11
64.590024
 21
32.33973
 31
0.0
  0
LINE
  5
79A
100
AcDbEntity
  8
BORDER
  6
CONTINUOUS
 62
    14
100
AcDbLine
 10
65.799744
 20
27.95123
 30
0.0
 11
64.237974
 21
32.21063
 31
0.0
  0
TEXT
  5
79B
100
AcDbEntity
  8
BORDER
  6
CONTINUOUS
 62
    11
100
AcDbText
 10
47.770518
 20
52.43214
 30
0.0
 40
1.125
  1
CHORD REINF.
  7
ROMAN
100
AcDbText
  0
TEXT
  5
79C
100
AcDbEntity
  8
BORDER
  6
CONTINUOUS
 62
    11
100
AcDbText
 10
67.925964
 20
25.616798
 30
0.0
 40
1.125
  1
& ANCHORAGE
  7
ROMAN
100
AcDbText
  0
TEXT
  5
79D
100
AcDbEntity
  8
BORDER
  6
CONTINUOUS
 62
    11
100
AcDbText
 10
67.925964
 20
27.41974
 30
0.0
 40
1.125
  1
2 X BLK'G @ STRAP
  7
ROMAN
100
AcDbText
  0
ENDBLK
  5
79F
100
AcDbEntity
  8
0
100
AcDbBlockEnd
  0
ENDSEC
  0
SECTION
  2
ENTITIES
  0
TEXT
  5
2D
100
AcDbEntity
  8
DRAWING
100
AcDbText
 10
6.440009
 20
9.961431
 30
0.0
 40
2.8
  1
ANCHORAGE OF RASTRA WALL
  7
TITLE
 72
     1
 11
40.040009
 21
9.961431
 31
0.0
100
AcDbText
  0
TEXT
  5
3E1
100
AcDbEntity
  8
DRAWING
100
AcDbText
 10
30.173342
 20
4.961431
 30
0.0
 40
2.8
  1
TO ROOF
  7
TITLE
 72
     1
 11
40.040009
 21
4.961431
 31
0.0
100
AcDbText
  0
LINE
  5
7A2
100
AcDbEntity
  8
BORDER
  6
CONTINUOUS
 62
    14
100
AcDbLine
 39
96.0
 10
58.869823
 20
63.068145
 30
0.0
 11
58.945729
 21
63.068145
 31
0.0
  0
LINE
  5
7A3
100
AcDbEntity
  8
BORDER
  6
CONTINUOUS
 62
     7
100
AcDbLine
 39
96.0
 10
61.961934
 20
54.076949
 30
0.0
 11
72.22735
 21
54.076949
 31
0.0
  0
LINE
  5
7A4
100
AcDbEntity
  8
0
  6
CONTINUOUS
100
AcDbLine
 39
96.0
 10
62.050644
 20
53.988293
 30
0.0
 11
60.521635
 21
53.988293
 31
0.0
  0
LINE
  5
7A5
100
AcDbEntity
  8
0
  6
CONTINUOUS
100
AcDbLine
 39
96.0
 10
61.264297
 20
54.774159
 30
0.0
 11
62.050644
 21
53.988293
 31
0.0
  0
LINE
  5
7A6
100
AcDbEntity
  8
0
  6
CONTINUOUS
100
AcDbLine
 39
96.0
 10
60.521635
 20
64.684804
 30
0.0
 11
59.735288
 21
64.684804
 31
0.0
  0
LINE
  5
7A7
100
AcDbEntity
  8
0
  6
CONTINUOUS
100
AcDbLine
 39
96.0
 10
60.521635
 20
53.988293
 30
0.0
 11
60.521635
 21
64.684804
 31
0.0
  0
LINE
  5
7A8
100
AcDbEntity
  8
0
  6
CONTINUOUS
100
AcDbLine
 39
96.0
 10
60.521635
 20
64.489895
 30
0.0
 11
61.264297
 21
63.724301
 31
0.0
  0
LINE
  5
7A9
100
AcDbEntity
  8
0
  6
CONTINUOUS
100
AcDbLine
 39
96.0
 10
61.264297
 20
63.724301
 30
0.0
 11
61.264297
 21
54.774159
 31
0.0
  0
LINE
  5
7AA
100
AcDbEntity
  8
0
  6
CONTINUOUS
100
AcDbLine
 39
96.0
 10
58.869823
 20
64.684804
 30
0.0
 11
59.656171
 21
64.684804
 31
0.0
  0
LINE
  5
7AB
100
AcDbEntity
  8
0
  6
CONTINUOUS
100
AcDbLine
 39
96.0
 10
58.869823
 20
53.988293
 30
0.0
 11
58.869823
 21
64.684804
 31
0.0
  0
LINE
  5
7AC
100
AcDbEntity
  8
0
  6
CONTINUOUS
100
AcDbLine
 39
96.0
 10
57.340815
 20
53.988293
 30
0.0
 11
58.869823
 21
53.988293
 31
0.0
  0
LINE
  5
7AD
100
AcDbEntity
  8
0
  6
CONTINUOUS
100
AcDbLine
 39
96.0
 10
58.127162
 20
54.774159
 30
0.0
 11
57.340815
 21
53.988293
 31
0.0
  0
LINE
  5
7AE
100
AcDbEntity
  8
0
  6
CONTINUOUS
100
AcDbLine
 39
96.0
 10
58.127162
 20
63.724301
 30
0.0
 11
58.127162
 21
54.774159
 31
0.0
  0
LINE
  5
7AF
100
AcDbEntity
  8
0
  6
CONTINUOUS
100
AcDbLine
 39
96.0
 10
58.869823
 20
64.489895
 30
0.0
 11
58.127162
 21
63.724301
 31
0.0
  0
ARC
  5
7B0
100
AcDbEntity
  8
BORDER
  6
CONTINUOUS
 62
     3
100
AcDbCircle
 39
96.0
 10
38.38285
 20
60.231249
 30
0.0
 40
3.0
100
AcDbArc
 50
180.0
 51
0.0
  0
ARC
  5
7B1
100
AcDbEntity
  8
BORDER
  6
CONTINUOUS
 62
     3
100
AcDbCircle
 39
96.0
 10
38.38285
 20
45.326909
 30
0.0
 40
3.0
100
AcDbArc
 50
0.0
 51
180.0
  0
LINE
  5
7B2
100
AcDbEntity
  8
0
  6
CONTINUOUS
 62
     7
100
AcDbLine
 39
96.0
 10
37.011891
 20
54.532204
 30
0.0
 11
40.431789
 21
54.532204
 31
0.0
  0
CIRCLE
  5
7B3
100
AcDbEntity
  8
BORDER
  6
CONTINUOUS
 62
     7
100
AcDbCircle
 39
96.0
 10
39.641052
 20
54.517749
 30
0.0
 40
0.375
  0
LINE
  5
7B4
100
AcDbEntity
  8
BORDER
  6
CONTINUOUS
 62
     7
100
AcDbLine
 39
96.0
 10
44.426636
 20
54.802896
 30
0.0
 11
43.38285
 21
54.076949
 31
0.0
  0
LINE
  5
7B5
100
AcDbEntity
  8
BORDER
  6
CONTINUOUS
 62
     3
100
AcDbLine
 39
96.0
 10
41.50785
 20
55.080498
 30
0.0
 11
41.50785
 21
60.326949
 31
0.0
  0
LINE
  5
7B6
100
AcDbEntity
  8
BORDER
  6
CONTINUOUS
 62
     3
100
AcDbLine
 39
96.0
 10
41.50785
 20
52.06856
 30
0.0
 11
43.38285
 21
52.06856
 31
0.0
  0
LINE
  5
7B7
100
AcDbEntity
  8
BORDER
  6
CONTINUOUS
 62
     3
100
AcDbLine
 39
96.0
 10
41.50785
 20
55.080498
 30
0.0
 11
43.38285
 21
55.080498
 31
0.0
  0
LINE
  5
7B8
100
AcDbEntity
  8
BORDER
  6
CONTINUOUS
 62
     7
100
AcDbLine
 39
96.0
 10
44.734982
 20
54.076949
 30
0.0
 11
57.429525
 21
54.076949
 31
0.0
  0
LINE
  5
7B9
100
AcDbEntity
  8
BORDER
  6
CONTINUOUS
 62
     3
100
AcDbLine
 39
96.0
 10
37.105149
 20
63.030345
 30
0.0
 11
40.605149
 21
64.530345
 31
0.0
  0
LINE
  5
7BA
100
AcDbEntity
  8
BORDER
  6
CONTINUOUS
 62
     7
100
AcDbLine
 39
96.0
 10
37.105149
 20
63.030345
 30
0.0
 11
40.605149
 21
63.030345
 31
0.0
  0
LINE
  5
7BB
100
AcDbEntity
  8
BORDER
  6
CONTINUOUS
 62
     7
100
AcDbLine
 39
96.0
 10
37.105149
 20
64.530345
 30
0.0
 11
37.105149
 21
63.030345
 31
0.0
  0
LINE
  5
7BC
100
AcDbEntity
  8
BORDER
  6
CONTINUOUS
 62
     7
100
AcDbLine
 39
96.0
 10
40.605149
 20
64.530345
 30
0.0
 11
37.105149
 21
64.530345
 31
0.0
  0
LINE
  5
7BD
100
AcDbEntity
  8
BORDER
  6
CONTINUOUS
 62
     7
100
AcDbLine
 39
96.0
 10
40.605149
 20
63.030345
 30
0.0
 11
40.605149
 21
64.530345
 31
0.0
  0
CIRCLE
  5
7BE
100
AcDbEntity
  8
BORDER
  6
CONTINUOUS
 62
     7
100
AcDbCircle
 39
96.0
 10
37.51166
 20
54.517749
 30
0.0
 40
0.375
  0
CIRCLE
  5
7BF
100
AcDbEntity
  8
BORDER
  6
CONTINUOUS
 62
     7
100
AcDbCircle
 39
96.0
 10
37.98416
 20
43.262449
 30
0.0
 40
0.375
  0
CIRCLE
  5
7C0
100
AcDbEntity
  8
BORDER
  6
CONTINUOUS
 62
     7
100
AcDbCircle
 39
96.0
 10
37.98416
 20
28.262449
 30
0.0
 40
0.375
  0
LINE
  5
7C1
100
AcDbEntity
  8
BORDER
  6
CONTINUOUS
 62
     7
100
AcDbLine
 39
96.0
 10
38.59525
 20
59.636449
 30
0.0
 11
38.59525
 21
22.049069
 31
0.0
  0
LINE
  5
7C2
100
AcDbEntity
  8
BORDER
  6
CONTINUOUS
 62
     3
100
AcDbLine
 39
96.0
 10
38.667849
 20
53.034645
 30
0.0
 11
40.118779
 21
53.034645
 31
0.0
  0
LINE
  5
7C3
100
AcDbEntity
  8
BORDER
  6
CONTINUOUS
 62
     3
100
AcDbLine
 39
96.0
 10
36.77225
 20
53.775349
 30
0.0
 11
36.77225
 21
55.120149
 31
0.0
  0
LINE
  5
7C4
100
AcDbEntity
  8
BORDER
  6
CONTINUOUS
 62
     3
100
AcDbLine
 39
96.0
 10
39.43631
 20
20.642519
 30
0.0
 11
40.08621
 21
22.296269
 31
0.0
  0
LINE
  5
7C5
100
AcDbEntity
  8
BORDER
  6
CONTINUOUS
 62
     3
100
AcDbLine
 39
96.0
 10
37.48734
 20
23.950009
 30
0.0
 11
39.43631
 21
20.642519
 31
0.0
  0
LINE
  5
7C6
100
AcDbEntity
  8
BORDER
  6
CONTINUOUS
 62
     3
100
AcDbLine
 39
96.0
 10
36.66043
 20
22.296269
 30
0.0
 11
37.48734
 21
23.950009
 31
0.0
  0
LINE
  5
7C7
100
AcDbEntity
  8
BORDER
  6
CONTINUOUS
 62
     3
100
AcDbLine
 39
96.0
 10
36.66043
 20
22.296269
 30
0.0
 11
32.23075
 21
22.296269
 31
0.0
  0
LINE
  5
7C8
100
AcDbEntity
  8
BORDER
  6
CONTINUOUS
 62
     3
100
AcDbLine
 39
96.0
 10
44.5159
 20
22.296269
 30
0.0
 11
40.08621
 21
22.296269
 31
0.0
  0
LINE
  5
7C9
100
AcDbEntity
  8
BORDER
  6
CONTINUOUS
 62
    10
100
AcDbLine
 39
96.0
 10
37.48807
 20
28.066289
 30
0.0
 11
37.4744
 21
27.989319
 31
0.0
  0
LINE
  5
7CA
100
AcDbEntity
  8
BORDER
  6
CONTINUOUS
 62
    10
100
AcDbLine
 39
96.0
 10
38.63333
 20
29.039059
 30
0.0
 11
38.58841
 21
28.975039
 31
0.0
  0
LINE
  5
7CB
100
AcDbEntity
  8
BORDER
  6
CONTINUOUS
 62
    10
100
AcDbLine
 39
96.0
 10
38.90213
 20
28.206299
 30
0.0
 11
38.82865
 21
28.179569
 31
0.0
  0
LINE
  5
7CC
100
AcDbEntity
  8
BORDER
  6
CONTINUOUS
 62
     3
100
AcDbLine
 39
96.0
 10
41.50785
 20
30.326909
 30
0.0
 11
43.38285
 21
30.326909
 31
0.0
  0
LINE
  5
7CD
100
AcDbEntity
  8
BORDER
  6
CONTINUOUS
 62
     3
100
AcDbLine
 39
96.0
 10
33.38285
 20
30.326909
 30
0.0
 11
35.25785
 21
30.326909
 31
0.0
  0
LINE
  5
7CE
100
AcDbEntity
  8
BORDER
  6
CONTINUOUS
 62
     2
100
AcDbLine
 39
96.0
 10
42.97025
 20
22.691159
 30
0.0
 11
42.97025
 21
22.691159
 31
0.0
  0
LINE
  5
7CF
100
AcDbEntity
  8
BORDER
  6
CONTINUOUS
 62
     2
100
AcDbLine
 39
96.0
 10
42.5015
 20
22.691159
 30
0.0
 11
42.5015
 21
22.691159
 31
0.0
  0
LINE
  5
7D0
100
AcDbEntity
  8
BORDER
  6
CONTINUOUS
 62
     2
100
AcDbLine
 39
96.0
 10
42.03275
 20
22.691159
 30
0.0
 11
42.03275
 21
22.691159
 31
0.0
  0
LINE
  5
7D1
100
AcDbEntity
  8
BORDER
  6
CONTINUOUS
 62
     2
100
AcDbLine
 39
96.0
 10
41.564
 20
22.691159
 30
0.0
 11
41.564
 21
22.691159
 31
0.0
  0
LINE
  5
7D2
100
AcDbEntity
  8
BORDER
  6
CONTINUOUS
 62
     2
100
AcDbLine
 39
96.0
 10
43.20462
 20
23.159909
 30
0.0
 11
43.20462
 21
23.159909
 31
0.0
  0
LINE
  5
7D3
100
AcDbEntity
  8
BORDER
  6
CONTINUOUS
 62
     2
100
AcDbLine
 39
96.0
 10
42.73587
 20
23.159909
 30
0.0
 11
42.73587
 21
23.159909
 31
0.0
  0
LINE
  5
7D4
100
AcDbEntity
  8
BORDER
  6
CONTINUOUS
 62
     2
100
AcDbLine
 39
96.0
 10
42.26712
 20
23.159909
 30
0.0
 11
42.26712
 21
23.159909
 31
0.0
  0
LINE
  5
7D5
100
AcDbEntity
  8
BORDER
  6
CONTINUOUS
 62
     2
100
AcDbLine
 39
96.0
 10
41.79837
 20
23.159909
 30
0.0
 11
41.79837
 21
23.159909
 31
0.0
  0
LINE
  5
7D6
100
AcDbEntity
  8
BORDER
  6
CONTINUOUS
 62
     2
100
AcDbLine
 39
96.0
 10
42.97025
 20
23.628659
 30
0.0
 11
42.97025
 21
23.628659
 31
0.0
  0
LINE
  5
7D7
100
AcDbEntity
  8
BORDER
  6
CONTINUOUS
 62
     2
100
AcDbLine
 39
96.0
 10
42.5015
 20
23.628659
 30
0.0
 11
42.5015
 21
23.628659
 31
0.0
  0
LINE
  5
7D8
100
AcDbEntity
  8
BORDER
  6
CONTINUOUS
 62
     2
100
AcDbLine
 39
96.0
 10
42.03275
 20
23.628659
 30
0.0
 11
42.03275
 21
23.628659
 31
0.0
  0
LINE
  5
7D9
100
AcDbEntity
  8
BORDER
  6
CONTINUOUS
 62
     2
100
AcDbLine
 39
96.0
 10
41.564
 20
23.628659
 30
0.0
 11
41.564
 21
23.628659
 31
0.0
  0
LINE
  5
7DA
100
AcDbEntity
  8
BORDER
  6
CONTINUOUS
 62
     2
100
AcDbLine
 39
96.0
 10
43.20462
 20
24.097409
 30
0.0
 11
43.20462
 21
24.097409
 31
0.0
  0
LINE
  5
7DB
100
AcDbEntity
  8
BORDER
  6
CONTINUOUS
 62
     2
100
AcDbLine
 39
96.0
 10
42.73587
 20
24.097409
 30
0.0
 11
42.73587
 21
24.097409
 31
0.0
  0
LINE
  5
7DC
100
AcDbEntity
  8
BORDER
  6
CONTINUOUS
 62
     2
100
AcDbLine
 39
96.0
 10
42.26712
 20
24.097409
 30
0.0
 11
42.26712
 21
24.097409
 31
0.0
  0
LINE
  5
7DD
100
AcDbEntity
  8
BORDER
  6
CONTINUOUS
 62
     2
100
AcDbLine
 39
96.0
 10
41.79837
 20
24.097409
 30
0.0
 11
41.79837
 21
24.097409
 31
0.0
  0
LINE
  5
7DE
100
AcDbEntity
  8
BORDER
  6
CONTINUOUS
 62
     2
100
AcDbLine
 39
96.0
 10
42.97025
 20
24.566159
 30
0.0
 11
42.97025
 21
24.566159
 31
0.0
  0
LINE
  5
7DF
100
AcDbEntity
  8
BORDER
  6
CONTINUOUS
 62
     2
100
AcDbLine
 39
96.0
 10
42.5015
 20
24.566159
 30
0.0
 11
42.5015
 21
24.566159
 31
0.0
  0
LINE
  5
7E0
100
AcDbEntity
  8
BORDER
  6
CONTINUOUS
 62
     2
100
AcDbLine
 39
96.0
 10
42.03275
 20
24.566159
 30
0.0
 11
42.03275
 21
24.566159
 31
0.0
  0
LINE
  5
7E1
100
AcDbEntity
  8
BORDER
  6
CONTINUOUS
 62
     2
100
AcDbLine
 39
96.0
 10
41.564
 20
24.566159
 30
0.0
 11
41.564
 21
24.566159
 31
0.0
  0
LINE
  5
7E2
100
AcDbEntity
  8
BORDER
  6
CONTINUOUS
 62
     2
100
AcDbLine
 39
96.0
 10
43.20462
 20
25.034909
 30
0.0
 11
43.20462
 21
25.034909
 31
0.0
  0
LINE
  5
7E3
100
AcDbEntity
  8
BORDER
  6
CONTINUOUS
 62
     2
100
AcDbLine
 39
96.0
 10
42.73587
 20
25.034909
 30
0.0
 11
42.73587
 21
25.034909
 31
0.0
  0
LINE
  5
7E4
100
AcDbEntity
  8
BORDER
  6
CONTINUOUS
 62
     2
100
AcDbLine
 39
96.0
 10
42.26712
 20
25.034909
 30
0.0
 11
42.26712
 21
25.034909
 31
0.0
  0
LINE
  5
7E5
100
AcDbEntity
  8
BORDER
  6
CONTINUOUS
 62
     2
100
AcDbLine
 39
96.0
 10
41.79837
 20
25.034909
 30
0.0
 11
41.79837
 21
25.034909
 31
0.0
  0
LINE
  5
7E6
100
AcDbEntity
  8
BORDER
  6
CONTINUOUS
 62
     2
100
AcDbLine
 39
96.0
 10
42.97025
 20
25.503659
 30
0.0
 11
42.97025
 21
25.503659
 31
0.0
  0
LINE
  5
7E7
100
AcDbEntity
  8
BORDER
  6
CONTINUOUS
 62
     2
100
AcDbLine
 39
96.0
 10
42.5015
 20
25.503659
 30
0.0
 11
42.5015
 21
25.503659
 31
0.0
  0
LINE
  5
7E8
100
AcDbEntity
  8
BORDER
  6
CONTINUOUS
 62
     2
100
AcDbLine
 39
96.0
 10
42.03275
 20
25.503659
 30
0.0
 11
42.03275
 21
25.503659
 31
0.0
  0
LINE
  5
7E9
100
AcDbEntity
  8
BORDER
  6
CONTINUOUS
 62
     2
100
AcDbLine
 39
96.0
 10
41.564
 20
25.503659
 30
0.0
 11
41.564
 21
25.503659
 31
0.0
  0
LINE
  5
7EA
100
AcDbEntity
  8
BORDER
  6
CONTINUOUS
 62
     2
100
AcDbLine
 39
96.0
 10
43.20462
 20
25.972409
 30
0.0
 11
43.20462
 21
25.972409
 31
0.0
  0
LINE
  5
7EB
100
AcDbEntity
  8
BORDER
  6
CONTINUOUS
 62
     2
100
AcDbLine
 39
96.0
 10
42.73587
 20
25.972409
 30
0.0
 11
42.73587
 21
25.972409
 31
0.0
  0
LINE
  5
7EC
100
AcDbEntity
  8
BORDER
  6
CONTINUOUS
 62
     2
100
AcDbLine
 39
96.0
 10
42.26712
 20
25.972409
 30
0.0
 11
42.26712
 21
25.972409
 31
0.0
  0
LINE
  5
7ED
100
AcDbEntity
  8
BORDER
  6
CONTINUOUS
 62
     2
100
AcDbLine
 39
96.0
 10
41.79837
 20
25.972409
 30
0.0
 11
41.79837
 21
25.972409
 31
0.0
  0
LINE
  5
7EE
100
AcDbEntity
  8
BORDER
  6
CONTINUOUS
 62
     2
100
AcDbLine
 39
96.0
 10
42.97025
 20
26.441159
 30
0.0
 11
42.97025
 21
26.441159
 31
0.0
  0
LINE
  5
7EF
100
AcDbEntity
  8
BORDER
  6
CONTINUOUS
 62
     2
100
AcDbLine
 39
96.0
 10
42.5015
 20
26.441159
 30
0.0
 11
42.5015
 21
26.441159
 31
0.0
  0
LINE
  5
7F0
100
AcDbEntity
  8
BORDER
  6
CONTINUOUS
 62
     2
100
AcDbLine
 39
96.0
 10
42.03275
 20
26.441159
 30
0.0
 11
42.03275
 21
26.441159
 31
0.0
  0
LINE
  5
7F1
100
AcDbEntity
  8
BORDER
  6
CONTINUOUS
 62
     2
100
AcDbLine
 39
96.0
 10
41.564
 20
26.441159
 30
0.0
 11
41.564
 21
26.441159
 31
0.0
  0
LINE
  5
7F2
100
AcDbEntity
  8
BORDER
  6
CONTINUOUS
 62
     2
100
AcDbLine
 39
96.0
 10
43.20462
 20
26.909909
 30
0.0
 11
43.20462
 21
26.909909
 31
0.0
  0
LINE
  5
7F3
100
AcDbEntity
  8
BORDER
  6
CONTINUOUS
 62
     2
100
AcDbLine
 39
96.0
 10
42.73587
 20
26.909909
 30
0.0
 11
42.73587
 21
26.909909
 31
0.0
  0
LINE
  5
7F4
100
AcDbEntity
  8
BORDER
  6
CONTINUOUS
 62
     2
100
AcDbLine
 39
96.0
 10
42.26712
 20
26.909909
 30
0.0
 11
42.26712
 21
26.909909
 31
0.0
  0
LINE
  5
7F5
100
AcDbEntity
  8
BORDER
  6
CONTINUOUS
 62
     2
100
AcDbLine
 39
96.0
 10
41.79837
 20
26.909909
 30
0.0
 11
41.79837
 21
26.909909
 31
0.0
  0
LINE
  5
7F6
100
AcDbEntity
  8
BORDER
  6
CONTINUOUS
 62
     2
100
AcDbLine
 39
96.0
 10
42.97025
 20
27.378659
 30
0.0
 11
42.97025
 21
27.378659
 31
0.0
  0
LINE
  5
7F7
100
AcDbEntity
  8
BORDER
  6
CONTINUOUS
 62
     2
100
AcDbLine
 39
96.0
 10
42.5015
 20
27.378659
 30
0.0
 11
42.5015
 21
27.378659
 31
0.0
  0
LINE
  5
7F8
100
AcDbEntity
  8
BORDER
  6
CONTINUOUS
 62
     2
100
AcDbLine
 39
96.0
 10
42.03275
 20
27.378659
 30
0.0
 11
42.03275
 21
27.378659
 31
0.0
  0
LINE
  5
7F9
100
AcDbEntity
  8
BORDER
  6
CONTINUOUS
 62
     2
100
AcDbLine
 39
96.0
 10
41.564
 20
27.378659
 30
0.0
 11
41.564
 21
27.378659
 31
0.0
  0
LINE
  5
7FA
100
AcDbEntity
  8
BORDER
  6
CONTINUOUS
 62
     2
100
AcDbLine
 39
96.0
 10
43.20462
 20
27.847409
 30
0.0
 11
43.20462
 21
27.847409
 31
0.0
  0
LINE
  5
7FB
100
AcDbEntity
  8
BORDER
  6
CONTINUOUS
 62
     2
100
AcDbLine
 39
96.0
 10
42.73587
 20
27.847409
 30
0.0
 11
42.73587
 21
27.847409
 31
0.0
  0
LINE
  5
7FC
100
AcDbEntity
  8
BORDER
  6
CONTINUOUS
 62
     2
100
AcDbLine
 39
96.0
 10
42.26712
 20
27.847409
 30
0.0
 11
42.26712
 21
27.847409
 31
0.0
  0
LINE
  5
7FD
100
AcDbEntity
  8
BORDER
  6
CONTINUOUS
 62
     2
100
AcDbLine
 39
96.0
 10
41.79837
 20
27.847409
 30
0.0
 11
41.79837
 21
27.847409
 31
0.0
  0
LINE
  5
7FE
100
AcDbEntity
  8
BORDER
  6
CONTINUOUS
 62
     2
100
AcDbLine
 39
96.0
 10
42.97025
 20
28.316159
 30
0.0
 11
42.97025
 21
28.316159
 31
0.0
  0
LINE
  5
7FF
100
AcDbEntity
  8
BORDER
  6
CONTINUOUS
 62
     2
100
AcDbLine
 39
96.0
 10
42.5015
 20
28.316159
 30
0.0
 11
42.5015
 21
28.316159
 31
0.0
  0
LINE
  5
800
100
AcDbEntity
  8
BORDER
  6
CONTINUOUS
 62
     2
100
AcDbLine
 39
96.0
 10
42.03275
 20
28.316159
 30
0.0
 11
42.03275
 21
28.316159
 31
0.0
  0
LINE
  5
801
100
AcDbEntity
  8
BORDER
  6
CONTINUOUS
 62
     2
100
AcDbLine
 39
96.0
 10
41.564
 20
28.316159
 30
0.0
 11
41.564
 21
28.316159
 31
0.0
  0
LINE
  5
802
100
AcDbEntity
  8
BORDER
  6
CONTINUOUS
 62
     2
100
AcDbLine
 39
96.0
 10
43.20462
 20
28.784909
 30
0.0
 11
43.20462
 21
28.784909
 31
0.0
  0
LINE
  5
803
100
AcDbEntity
  8
BORDER
  6
CONTINUOUS
 62
     2
100
AcDbLine
 39
96.0
 10
42.73587
 20
28.784909
 30
0.0
 11
42.73587
 21
28.784909
 31
0.0
  0
LINE
  5
804
100
AcDbEntity
  8
BORDER
  6
CONTINUOUS
 62
     2
100
AcDbLine
 39
96.0
 10
42.26712
 20
28.784909
 30
0.0
 11
42.26712
 21
28.784909
 31
0.0
  0
LINE
  5
805
100
AcDbEntity
  8
BORDER
  6
CONTINUOUS
 62
     2
100
AcDbLine
 39
96.0
 10
41.79837
 20
28.784909
 30
0.0
 11
41.79837
 21
28.784909
 31
0.0
  0
LINE
  5
806
100
AcDbEntity
  8
BORDER
  6
CONTINUOUS
 62
     2
100
AcDbLine
 39
96.0
 10
42.97025
 20
29.253659
 30
0.0
 11
42.97025
 21
29.253659
 31
0.0
  0
LINE
  5
807
100
AcDbEntity
  8
BORDER
  6
CONTINUOUS
 62
     2
100
AcDbLine
 39
96.0
 10
42.5015
 20
29.253659
 30
0.0
 11
42.5015
 21
29.253659
 31
0.0
  0
LINE
  5
808
100
AcDbEntity
  8
BORDER
  6
CONTINUOUS
 62
     2
100
AcDbLine
 39
96.0
 10
42.03275
 20
29.253659
 30
0.0
 11
42.03275
 21
29.253659
 31
0.0
  0
LINE
  5
809
100
AcDbEntity
  8
BORDER
  6
CONTINUOUS
 62
     2
100
AcDbLine
 39
96.0
 10
41.564
 20
29.253659
 30
0.0
 11
41.564
 21
29.253659
 31
0.0
  0
LINE
  5
80A
100
AcDbEntity
  8
BORDER
  6
CONTINUOUS
 62
     2
100
AcDbLine
 39
96.0
 10
43.20462
 20
29.722409
 30
0.0
 11
43.20462
 21
29.722409
 31
0.0
  0
LINE
  5
80B
100
AcDbEntity
  8
BORDER
  6
CONTINUOUS
 62
     2
100
AcDbLine
 39
96.0
 10
42.73587
 20
29.722409
 30
0.0
 11
42.73587
 21
29.722409
 31
0.0
  0
LINE
  5
80C
100
AcDbEntity
  8
BORDER
  6
CONTINUOUS
 62
     2
100
AcDbLine
 39
96.0
 10
42.26712
 20
29.722409
 30
0.0
 11
42.26712
 21
29.722409
 31
0.0
  0
LINE
  5
80D
100
AcDbEntity
  8
BORDER
  6
CONTINUOUS
 62
     2
100
AcDbLine
 39
96.0
 10
41.79837
 20
29.722409
 30
0.0
 11
41.79837
 21
29.722409
 31
0.0
  0
LINE
  5
80E
100
AcDbEntity
  8
BORDER
  6
CONTINUOUS
 62
     2
100
AcDbLine
 39
96.0
 10
42.97025
 20
30.191159
 30
0.0
 11
42.97025
 21
30.191159
 31
0.0
  0
LINE
  5
80F
100
AcDbEntity
  8
BORDER
  6
CONTINUOUS
 62
     2
100
AcDbLine
 39
96.0
 10
42.5015
 20
30.191159
 30
0.0
 11
42.5015
 21
30.191159
 31
0.0
  0
LINE
  5
810
100
AcDbEntity
  8
BORDER
  6
CONTINUOUS
 62
     2
100
AcDbLine
 39
96.0
 10
42.03275
 20
30.191159
 30
0.0
 11
42.03275
 21
30.191159
 31
0.0
  0
LINE
  5
811
100
AcDbEntity
  8
BORDER
  6
CONTINUOUS
 62
     2
100
AcDbLine
 39
96.0
 10
41.564
 20
30.191159
 30
0.0
 11
41.564
 21
30.191159
 31
0.0
  0
LINE
  5
812
100
AcDbEntity
  8
BORDER
  6
CONTINUOUS
 62
     2
100
AcDbLine
 39
96.0
 10
35.0015
 20
22.691159
 30
0.0
 11
35.0015
 21
22.691159
 31
0.0
  0
LINE
  5
813
100
AcDbEntity
  8
BORDER
  6
CONTINUOUS
 62
     2
100
AcDbLine
 39
96.0
 10
34.53275
 20
22.691159
 30
0.0
 11
34.53275
 21
22.691159
 31
0.0
  0
LINE
  5
814
100
AcDbEntity
  8
BORDER
  6
CONTINUOUS
 62
     2
100
AcDbLine
 39
96.0
 10
34.064
 20
22.691159
 30
0.0
 11
34.064
 21
22.691159
 31
0.0
  0
LINE
  5
815
100
AcDbEntity
  8
BORDER
  6
CONTINUOUS
 62
     2
100
AcDbLine
 39
96.0
 10
33.59525
 20
22.691159
 30
0.0
 11
33.59525
 21
22.691159
 31
0.0
  0
LINE
  5
816
100
AcDbEntity
  8
BORDER
  6
CONTINUOUS
 62
     2
100
AcDbLine
 39
96.0
 10
35.23587
 20
23.159909
 30
0.0
 11
35.23587
 21
23.159909
 31
0.0
  0
LINE
  5
817
100
AcDbEntity
  8
BORDER
  6
CONTINUOUS
 62
     2
100
AcDbLine
 39
96.0
 10
34.76712
 20
23.159909
 30
0.0
 11
34.76712
 21
23.159909
 31
0.0
  0
LINE
  5
818
100
AcDbEntity
  8
BORDER
  6
CONTINUOUS
 62
     2
100
AcDbLine
 39
96.0
 10
34.29837
 20
23.159909
 30
0.0
 11
34.29837
 21
23.159909
 31
0.0
  0
LINE
  5
819
100
AcDbEntity
  8
BORDER
  6
CONTINUOUS
 62
     2
100
AcDbLine
 39
96.0
 10
33.82962
 20
23.159909
 30
0.0
 11
33.82962
 21
23.159909
 31
0.0
  0
LINE
  5
81A
100
AcDbEntity
  8
BORDER
  6
CONTINUOUS
 62
     2
100
AcDbLine
 39
96.0
 10
35.0015
 20
23.628659
 30
0.0
 11
35.0015
 21
23.628659
 31
0.0
  0
LINE
  5
81B
100
AcDbEntity
  8
BORDER
  6
CONTINUOUS
 62
     2
100
AcDbLine
 39
96.0
 10
34.53275
 20
23.628659
 30
0.0
 11
34.53275
 21
23.628659
 31
0.0
  0
LINE
  5
81C
100
AcDbEntity
  8
BORDER
  6
CONTINUOUS
 62
     2
100
AcDbLine
 39
96.0
 10
34.064
 20
23.628659
 30
0.0
 11
34.064
 21
23.628659
 31
0.0
  0
LINE
  5
81D
100
AcDbEntity
  8
BORDER
  6
CONTINUOUS
 62
     2
100
AcDbLine
 39
96.0
 10
33.59525
 20
23.628659
 30
0.0
 11
33.59525
 21
23.628659
 31
0.0
  0
LINE
  5
81E
100
AcDbEntity
  8
BORDER
  6
CONTINUOUS
 62
     2
100
AcDbLine
 39
96.0
 10
35.23587
 20
24.097409
 30
0.0
 11
35.23587
 21
24.097409
 31
0.0
  0
LINE
  5
81F
100
AcDbEntity
  8
BORDER
  6
CONTINUOUS
 62
     2
100
AcDbLine
 39
96.0
 10
34.76712
 20
24.097409
 30
0.0
 11
34.76712
 21
24.097409
 31
0.0
  0
LINE
  5
820
100
AcDbEntity
  8
BORDER
  6
CONTINUOUS
 62
     2
100
AcDbLine
 39
96.0
 10
34.29837
 20
24.097409
 30
0.0
 11
34.29837
 21
24.097409
 31
0.0
  0
LINE
  5
821
100
AcDbEntity
  8
BORDER
  6
CONTINUOUS
 62
     2
100
AcDbLine
 39
96.0
 10
33.82962
 20
24.097409
 30
0.0
 11
33.82962
 21
24.097409
 31
0.0
  0
LINE
  5
822
100
AcDbEntity
  8
BORDER
  6
CONTINUOUS
 62
     2
100
AcDbLine
 39
96.0
 10
35.0015
 20
24.566159
 30
0.0
 11
35.0015
 21
24.566159
 31
0.0
  0
LINE
  5
823
100
AcDbEntity
  8
BORDER
  6
CONTINUOUS
 62
     2
100
AcDbLine
 39
96.0
 10
34.53275
 20
24.566159
 30
0.0
 11
34.53275
 21
24.566159
 31
0.0
  0
LINE
  5
824
100
AcDbEntity
  8
BORDER
  6
CONTINUOUS
 62
     2
100
AcDbLine
 39
96.0
 10
34.064
 20
24.566159
 30
0.0
 11
34.064
 21
24.566159
 31
0.0
  0
LINE
  5
825
100
AcDbEntity
  8
BORDER
  6
CONTINUOUS
 62
     2
100
AcDbLine
 39
96.0
 10
33.59525
 20
24.566159
 30
0.0
 11
33.59525
 21
24.566159
 31
0.0
  0
LINE
  5
826
100
AcDbEntity
  8
BORDER
  6
CONTINUOUS
 62
     2
100
AcDbLine
 39
96.0
 10
35.23587
 20
25.034909
 30
0.0
 11
35.23587
 21
25.034909
 31
0.0
  0
LINE
  5
827
100
AcDbEntity
  8
BORDER
  6
CONTINUOUS
 62
     2
100
AcDbLine
 39
96.0
 10
34.76712
 20
25.034909
 30
0.0
 11
34.76712
 21
25.034909
 31
0.0
  0
LINE
  5
828
100
AcDbEntity
  8
BORDER
  6
CONTINUOUS
 62
     2
100
AcDbLine
 39
96.0
 10
34.29837
 20
25.034909
 30
0.0
 11
34.29837
 21
25.034909
 31
0.0
  0
LINE
  5
829
100
AcDbEntity
  8
BORDER
  6
CONTINUOUS
 62
     2
100
AcDbLine
 39
96.0
 10
33.82962
 20
25.034909
 30
0.0
 11
33.82962
 21
25.034909
 31
0.0
  0
LINE
  5
82A
100
AcDbEntity
  8
BORDER
  6
CONTINUOUS
 62
     2
100
AcDbLine
 39
96.0
 10
35.0015
 20
25.503659
 30
0.0
 11
35.0015
 21
25.503659
 31
0.0
  0
LINE
  5
82B
100
AcDbEntity
  8
BORDER
  6
CONTINUOUS
 62
     2
100
AcDbLine
 39
96.0
 10
34.53275
 20
25.503659
 30
0.0
 11
34.53275
 21
25.503659
 31
0.0
  0
LINE
  5
82C
100
AcDbEntity
  8
BORDER
  6
CONTINUOUS
 62
     2
100
AcDbLine
 39
96.0
 10
34.064
 20
25.503659
 30
0.0
 11
34.064
 21
25.503659
 31
0.0
  0
LINE
  5
82D
100
AcDbEntity
  8
BORDER
  6
CONTINUOUS
 62
     2
100
AcDbLine
 39
96.0
 10
33.59525
 20
25.503659
 30
0.0
 11
33.59525
 21
25.503659
 31
0.0
  0
LINE
  5
82E
100
AcDbEntity
  8
BORDER
  6
CONTINUOUS
 62
     2
100
AcDbLine
 39
96.0
 10
35.23587
 20
25.972409
 30
0.0
 11
35.23587
 21
25.972409
 31
0.0
  0
LINE
  5
82F
100
AcDbEntity
  8
BORDER
  6
CONTINUOUS
 62
     2
100
AcDbLine
 39
96.0
 10
34.76712
 20
25.972409
 30
0.0
 11
34.76712
 21
25.972409
 31
0.0
  0
LINE
  5
830
100
AcDbEntity
  8
BORDER
  6
CONTINUOUS
 62
     2
100
AcDbLine
 39
96.0
 10
34.29837
 20
25.972409
 30
0.0
 11
34.29837
 21
25.972409
 31
0.0
  0
LINE
  5
831
100
AcDbEntity
  8
BORDER
  6
CONTINUOUS
 62
     2
100
AcDbLine
 39
96.0
 10
33.82962
 20
25.972409
 30
0.0
 11
33.82962
 21
25.972409
 31
0.0
  0
LINE
  5
832
100
AcDbEntity
  8
BORDER
  6
CONTINUOUS
 62
     2
100
AcDbLine
 39
96.0
 10
35.0015
 20
26.441159
 30
0.0
 11
35.0015
 21
26.441159
 31
0.0
  0
LINE
  5
833
100
AcDbEntity
  8
BORDER
  6
CONTINUOUS
 62
     2
100
AcDbLine
 39
96.0
 10
34.53275
 20
26.441159
 30
0.0
 11
34.53275
 21
26.441159
 31
0.0
  0
LINE
  5
834
100
AcDbEntity
  8
BORDER
  6
CONTINUOUS
 62
     2
100
AcDbLine
 39
96.0
 10
34.064
 20
26.441159
 30
0.0
 11
34.064
 21
26.441159
 31
0.0
  0
LINE
  5
835
100
AcDbEntity
  8
BORDER
  6
CONTINUOUS
 62
     2
100
AcDbLine
 39
96.0
 10
33.59525
 20
26.441159
 30
0.0
 11
33.59525
 21
26.441159
 31
0.0
  0
LINE
  5
836
100
AcDbEntity
  8
BORDER
  6
CONTINUOUS
 62
     2
100
AcDbLine
 39
96.0
 10
35.23587
 20
26.909909
 30
0.0
 11
35.23587
 21
26.909909
 31
0.0
  0
LINE
  5
837
100
AcDbEntity
  8
BORDER
  6
CONTINUOUS
 62
     2
100
AcDbLine
 39
96.0
 10
34.76712
 20
26.909909
 30
0.0
 11
34.76712
 21
26.909909
 31
0.0
  0
LINE
  5
838
100
AcDbEntity
  8
BORDER
  6
CONTINUOUS
 62
     2
100
AcDbLine
 39
96.0
 10
34.29837
 20
26.909909
 30
0.0
 11
34.29837
 21
26.909909
 31
0.0
  0
LINE
  5
839
100
AcDbEntity
  8
BORDER
  6
CONTINUOUS
 62
     2
100
AcDbLine
 39
96.0
 10
33.82962
 20
26.909909
 30
0.0
 11
33.82962
 21
26.909909
 31
0.0
  0
LINE
  5
83A
100
AcDbEntity
  8
BORDER
  6
CONTINUOUS
 62
     2
100
AcDbLine
 39
96.0
 10
35.0015
 20
27.378659
 30
0.0
 11
35.0015
 21
27.378659
 31
0.0
  0
LINE
  5
83B
100
AcDbEntity
  8
BORDER
  6
CONTINUOUS
 62
     2
100
AcDbLine
 39
96.0
 10
34.53275
 20
27.378659
 30
0.0
 11
34.53275
 21
27.378659
 31
0.0
  0
LINE
  5
83C
100
AcDbEntity
  8
BORDER
  6
CONTINUOUS
 62
     2
100
AcDbLine
 39
96.0
 10
34.064
 20
27.378659
 30
0.0
 11
34.064
 21
27.378659
 31
0.0
  0
LINE
  5
83D
100
AcDbEntity
  8
BORDER
  6
CONTINUOUS
 62
     2
100
AcDbLine
 39
96.0
 10
33.59525
 20
27.378659
 30
0.0
 11
33.59525
 21
27.378659
 31
0.0
  0
LINE
  5
83E
100
AcDbEntity
  8
BORDER
  6
CONTINUOUS
 62
     2
100
AcDbLine
 39
96.0
 10
35.23587
 20
27.847409
 30
0.0
 11
35.23587
 21
27.847409
 31
0.0
  0
LINE
  5
83F
100
AcDbEntity
  8
BORDER
  6
CONTINUOUS
 62
     2
100
AcDbLine
 39
96.0
 10
34.76712
 20
27.847409
 30
0.0
 11
34.76712
 21
27.847409
 31
0.0
  0
LINE
  5
840
100
AcDbEntity
  8
BORDER
  6
CONTINUOUS
 62
     2
100
AcDbLine
 39
96.0
 10
34.29837
 20
27.847409
 30
0.0
 11
34.29837
 21
27.847409
 31
0.0
  0
LINE
  5
841
100
AcDbEntity
  8
BORDER
  6
CONTINUOUS
 62
     2
100
AcDbLine
 39
96.0
 10
33.82962
 20
27.847409
 30
0.0
 11
33.82962
 21
27.847409
 31
0.0
  0
LINE
  5
842
100
AcDbEntity
  8
BORDER
  6
CONTINUOUS
 62
     2
100
AcDbLine
 39
96.0
 10
35.0015
 20
28.316159
 30
0.0
 11
35.0015
 21
28.316159
 31
0.0
  0
LINE
  5
843
100
AcDbEntity
  8
BORDER
  6
CONTINUOUS
 62
     2
100
AcDbLine
 39
96.0
 10
34.53275
 20
28.316159
 30
0.0
 11
34.53275
 21
28.316159
 31
0.0
  0
LINE
  5
844
100
AcDbEntity
  8
BORDER
  6
CONTINUOUS
 62
     2
100
AcDbLine
 39
96.0
 10
34.064
 20
28.316159
 30
0.0
 11
34.064
 21
28.316159
 31
0.0
  0
LINE
  5
845
100
AcDbEntity
  8
BORDER
  6
CONTINUOUS
 62
     2
100
AcDbLine
 39
96.0
 10
33.59525
 20
28.316159
 30
0.0
 11
33.59525
 21
28.316159
 31
0.0
  0
LINE
  5
846
100
AcDbEntity
  8
BORDER
  6
CONTINUOUS
 62
     2
100
AcDbLine
 39
96.0
 10
35.23587
 20
28.784909
 30
0.0
 11
35.23587
 21
28.784909
 31
0.0
  0
LINE
  5
847
100
AcDbEntity
  8
BORDER
  6
CONTINUOUS
 62
     2
100
AcDbLine
 39
96.0
 10
34.76712
 20
28.784909
 30
0.0
 11
34.76712
 21
28.784909
 31
0.0
  0
LINE
  5
848
100
AcDbEntity
  8
BORDER
  6
CONTINUOUS
 62
     2
100
AcDbLine
 39
96.0
 10
34.29837
 20
28.784909
 30
0.0
 11
34.29837
 21
28.784909
 31
0.0
  0
LINE
  5
849
100
AcDbEntity
  8
BORDER
  6
CONTINUOUS
 62
     2
100
AcDbLine
 39
96.0
 10
33.82962
 20
28.784909
 30
0.0
 11
33.82962
 21
28.784909
 31
0.0
  0
LINE
  5
84A
100
AcDbEntity
  8
BORDER
  6
CONTINUOUS
 62
     2
100
AcDbLine
 39
96.0
 10
35.0015
 20
29.253659
 30
0.0
 11
35.0015
 21
29.253659
 31
0.0
  0
LINE
  5
84B
100
AcDbEntity
  8
BORDER
  6
CONTINUOUS
 62
     2
100
AcDbLine
 39
96.0
 10
34.53275
 20
29.253659
 30
0.0
 11
34.53275
 21
29.253659
 31
0.0
  0
LINE
  5
84C
100
AcDbEntity
  8
BORDER
  6
CONTINUOUS
 62
     2
100
AcDbLine
 39
96.0
 10
34.064
 20
29.253659
 30
0.0
 11
34.064
 21
29.253659
 31
0.0
  0
LINE
  5
84D
100
AcDbEntity
  8
BORDER
  6
CONTINUOUS
 62
     2
100
AcDbLine
 39
96.0
 10
33.59525
 20
29.253659
 30
0.0
 11
33.59525
 21
29.253659
 31
0.0
  0
LINE
  5
84E
100
AcDbEntity
  8
BORDER
  6
CONTINUOUS
 62
     2
100
AcDbLine
 39
96.0
 10
35.23587
 20
29.722409
 30
0.0
 11
35.23587
 21
29.722409
 31
0.0
  0
LINE
  5
84F
100
AcDbEntity
  8
BORDER
  6
CONTINUOUS
 62
     2
100
AcDbLine
 39
96.0
 10
34.76712
 20
29.722409
 30
0.0
 11
34.76712
 21
29.722409
 31
0.0
  0
LINE
  5
850
100
AcDbEntity
  8
BORDER
  6
CONTINUOUS
 62
     2
100
AcDbLine
 39
96.0
 10
34.29837
 20
29.722409
 30
0.0
 11
34.29837
 21
29.722409
 31
0.0
  0
LINE
  5
851
100
AcDbEntity
  8
BORDER
  6
CONTINUOUS
 62
     2
100
AcDbLine
 39
96.0
 10
33.82962
 20
29.722409
 30
0.0
 11
33.82962
 21
29.722409
 31
0.0
  0
LINE
  5
852
100
AcDbEntity
  8
BORDER
  6
CONTINUOUS
 62
     2
100
AcDbLine
 39
96.0
 10
35.0015
 20
30.191159
 30
0.0
 11
35.0015
 21
30.191159
 31
0.0
  0
LINE
  5
853
100
AcDbEntity
  8
BORDER
  6
CONTINUOUS
 62
     2
100
AcDbLine
 39
96.0
 10
34.53275
 20
30.191159
 30
0.0
 11
34.53275
 21
30.191159
 31
0.0
  0
LINE
  5
854
100
AcDbEntity
  8
BORDER
  6
CONTINUOUS
 62
     2
100
AcDbLine
 39
96.0
 10
34.064
 20
30.191159
 30
0.0
 11
34.064
 21
30.191159
 31
0.0
  0
LINE
  5
855
100
AcDbEntity
  8
BORDER
  6
CONTINUOUS
 62
     2
100
AcDbLine
 39
96.0
 10
33.59525
 20
30.191159
 30
0.0
 11
33.59525
 21
30.191159
 31
0.0
  0
LINE
  5
856
100
AcDbEntity
  8
BORDER
  6
CONTINUOUS
 62
     1
100
AcDbLine
 39
96.0
 10
40.28983
 20
27.460759
 30
0.0
 11
40.30057
 21
27.522339
 31
0.0
  0
LINE
  5
857
100
AcDbEntity
  8
BORDER
  6
CONTINUOUS
 62
     1
100
AcDbLine
 39
96.0
 10
39.85575
 20
24.998719
 30
0.0
 11
39.86649
 21
25.060299
 31
0.0
  0
LINE
  5
858
100
AcDbEntity
  8
BORDER
  6
CONTINUOUS
 62
     1
100
AcDbLine
 39
96.0
 10
39.42166
 20
22.536679
 30
0.0
 11
39.43241
 21
22.598269
 31
0.0
  0
LINE
  5
859
100
AcDbEntity
  8
BORDER
  6
CONTINUOUS
 62
     1
100
AcDbLine
 39
96.0
 10
37.39408
 20
25.432799
 30
0.0
 11
37.40482
 21
25.494389
 31
0.0
  0
LINE
  5
85A
100
AcDbEntity
  8
BORDER
  6
CONTINUOUS
 62
     1
100
AcDbLine
 39
96.0
 10
36.95999
 20
22.970769
 30
0.0
 11
36.97074
 21
23.032349
 31
0.0
  0
LINE
  5
85B
100
AcDbEntity
  8
BORDER
  6
CONTINUOUS
 62
     1
100
AcDbLine
 39
96.0
 10
35.36624
 20
28.328859
 30
0.0
 11
35.37699
 21
28.390439
 31
0.0
  0
LINE
  5
85C
100
AcDbEntity
  8
BORDER
  6
CONTINUOUS
 62
     1
100
AcDbLine
 39
96.0
 10
40.14383
 20
25.000369
 30
0.0
 11
40.17972
 21
25.051639
 31
0.0
  0
LINE
  5
85D
100
AcDbEntity
  8
BORDER
  6
CONTINUOUS
 62
     1
100
AcDbLine
 39
96.0
 10
38.70975
 20
22.952519
 30
0.0
 11
38.74564
 21
23.003719
 31
0.0
  0
LINE
  5
85E
100
AcDbEntity
  8
BORDER
  6
CONTINUOUS
 62
     1
100
AcDbLine
 39
96.0
 10
38.09598
 20
26.434269
 30
0.0
 11
38.13187
 21
26.485469
 31
0.0
  0
LINE
  5
85F
100
AcDbEntity
  8
BORDER
  6
CONTINUOUS
 62
     1
100
AcDbLine
 39
96.0
 10
36.6619
 20
24.386349
 30
0.0
 11
36.69779
 21
24.437619
 31
0.0
  0
LINE
  5
860
100
AcDbEntity
  8
BORDER
  6
CONTINUOUS
 62
     1
100
AcDbLine
 39
96.0
 10
36.04788
 20
27.868229
 30
0.0
 11
36.08377
 21
27.919429
 31
0.0
  0
LINE
  5
861
100
AcDbEntity
  8
BORDER
  6
CONTINUOUS
 62
     1
100
AcDbLine
 39
96.0
 10
41.345
 20
23.172909
 30
0.0
 11
41.40384
 21
23.194279
 31
0.0
  0
LINE
  5
862
100
AcDbEntity
  8
BORDER
  6
CONTINUOUS
 62
     1
100
AcDbLine
 39
96.0
 10
38.99564
 20
22.317869
 30
0.0
 11
39.05448
 21
22.339229
 31
0.0
  0
LINE
  5
863
100
AcDbEntity
  8
BORDER
  6
CONTINUOUS
 62
     1
100
AcDbLine
 39
96.0
 10
40.49002
 20
25.522159
 30
0.0
 11
40.54886
 21
25.543519
 31
0.0
  0
LINE
  5
864
100
AcDbEntity
  8
BORDER
  6
CONTINUOUS
 62
     1
100
AcDbLine
 39
96.0
 10
38.14066
 20
24.667119
 30
0.0
 11
38.1995
 21
24.688479
 31
0.0
  0
LINE
  5
865
100
AcDbEntity
  8
BORDER
  6
CONTINUOUS
 62
     1
100
AcDbLine
 39
96.0
 10
35.79129
 20
23.812069
 30
0.0
 11
35.85013
 21
23.833439
 31
0.0
  0
LINE
  5
866
100
AcDbEntity
  8
BORDER
  6
CONTINUOUS
 62
     1
100
AcDbLine
 39
96.0
 10
37.28568
 20
27.016359
 30
0.0
 11
37.34452
 21
27.037719
 31
0.0
  0
LINE
  5
867
100
AcDbEntity
  8
BORDER
  6
CONTINUOUS
 62
     3
100
AcDbLine
 39
96.0
 10
35.25785
 20
30.326909
 30
0.0
 11
33.38285
 21
30.326909
 31
0.0
  0
ARC
  5
868
100
AcDbEntity
  8
BORDER
  6
CONTINUOUS
 62
     3
100
AcDbCircle
 39
96.0
 10
38.38285
 20
30.326909
 30
0.0
 40
3.0
100
AcDbArc
 50
180.0
 51
0.0
  0
LINE
  5
869
100
AcDbEntity
  8
BORDER
  6
CONTINUOUS
 62
     3
100
AcDbLine
 39
96.0
 10
41.50785
 20
22.296269
 30
0.0
 11
41.50785
 21
30.326909
 31
0.0
  0
LINE
  5
86A
100
AcDbEntity
  8
BORDER
  6
CONTINUOUS
 62
     3
100
AcDbLine
 39
96.0
 10
35.25785
 20
30.326909
 30
0.0
 11
35.25785
 21
22.296269
 31
0.0
  0
LINE
  5
86B
100
AcDbEntity
  8
BORDER
  6
CONTINUOUS
 62
     3
100
AcDbLine
 39
96.0
 10
33.38285
 20
30.326909
 30
0.0
 11
33.38285
 21
22.296269
 31
0.0
  0
LINE
  5
86C
100
AcDbEntity
  8
BORDER
  6
CONTINUOUS
 62
     3
100
AcDbLine
 39
96.0
 10
43.38285
 20
30.326909
 30
0.0
 11
41.50785
 21
30.326909
 31
0.0
  0
LINE
  5
86D
100
AcDbEntity
  8
BORDER
  6
CONTINUOUS
 62
     3
100
AcDbLine
 39
96.0
 10
43.38285
 20
22.296269
 30
0.0
 11
43.38285
 21
30.326909
 31
0.0
  0
LINE
  5
86E
100
AcDbEntity
  8
BORDER
  6
CONTINUOUS
 62
     1
100
AcDbLine
 39
96.0
 10
38.70975
 20
31.278439
 30
0.0
 11
38.74564
 21
31.329649
 31
0.0
  0
LINE
  5
86F
100
AcDbEntity
  8
BORDER
  6
CONTINUOUS
 62
     1
100
AcDbLine
 39
96.0
 10
39.42166
 20
30.862609
 30
0.0
 11
39.43241
 21
30.924129
 31
0.0
  0
LINE
  5
870
100
AcDbEntity
  8
BORDER
  6
CONTINUOUS
 62
     1
100
AcDbLine
 39
96.0
 10
38.99564
 20
30.643799
 30
0.0
 11
39.05448
 21
30.665159
 31
0.0
  0
LINE
  5
871
100
AcDbEntity
  8
BORDER
  6
CONTINUOUS
 62
    10
100
AcDbLine
 39
96.0
 10
37.48807
 20
43.066219
 30
0.0
 11
37.4744
 21
42.989319
 31
0.0
  0
LINE
  5
872
100
AcDbEntity
  8
BORDER
  6
CONTINUOUS
 62
    10
100
AcDbLine
 39
96.0
 10
38.63333
 20
44.038999
 30
0.0
 11
38.58841
 21
43.975039
 31
0.0
  0
LINE
  5
873
100
AcDbEntity
  8
BORDER
  6
CONTINUOUS
 62
    10
100
AcDbLine
 39
96.0
 10
38.90213
 20
43.206359
 30
0.0
 11
38.82865
 21
43.179629
 31
0.0
  0
LINE
  5
874
100
AcDbEntity
  8
BORDER
  6
CONTINUOUS
 62
    10
100
AcDbLine
 39
96.0
 10
38.93485
 20
33.275699
 30
0.0
 11
38.92386
 21
33.214169
 31
0.0
  0
LINE
  5
875
100
AcDbEntity
  8
BORDER
  6
CONTINUOUS
 62
    10
100
AcDbLine
 39
96.0
 10
36.58328
 20
30.214659
 30
0.0
 11
36.53836
 21
30.150699
 31
0.0
  0
LINE
  5
876
100
AcDbEntity
  8
BORDER
  6
CONTINUOUS
 62
    10
100
AcDbLine
 39
96.0
 10
38.37577
 20
32.774539
 30
0.0
 11
38.33084
 21
32.710509
 31
0.0
  0
LINE
  5
877
100
AcDbEntity
  8
BORDER
  6
CONTINUOUS
 62
    10
100
AcDbLine
 39
96.0
 10
36.23563
 20
32.259029
 30
0.0
 11
36.16214
 21
32.232299
 31
0.0
  0
LINE
  5
878
100
AcDbEntity
  8
BORDER
  6
CONTINUOUS
 62
     3
100
AcDbLine
 39
96.0
 10
41.50785
 20
45.326909
 30
0.0
 11
43.38285
 21
45.326909
 31
0.0
  0
LINE
  5
879
100
AcDbEntity
  8
BORDER
  6
CONTINUOUS
 62
     3
100
AcDbLine
 39
96.0
 10
33.38285
 20
45.326909
 30
0.0
 11
35.25785
 21
45.326909
 31
0.0
  0
LINE
  5
87A
100
AcDbEntity
  8
BORDER
  6
CONTINUOUS
 62
     2
100
AcDbLine
 39
96.0
 10
43.20462
 20
30.659849
 30
0.0
 11
43.20462
 21
30.659849
 31
0.0
  0
LINE
  5
87B
100
AcDbEntity
  8
BORDER
  6
CONTINUOUS
 62
     2
100
AcDbLine
 39
96.0
 10
42.73587
 20
30.659849
 30
0.0
 11
42.73587
 21
30.659849
 31
0.0
  0
LINE
  5
87C
100
AcDbEntity
  8
BORDER
  6
CONTINUOUS
 62
     2
100
AcDbLine
 39
96.0
 10
42.26712
 20
30.659849
 30
0.0
 11
42.26712
 21
30.659849
 31
0.0
  0
LINE
  5
87D
100
AcDbEntity
  8
BORDER
  6
CONTINUOUS
 62
     2
100
AcDbLine
 39
96.0
 10
41.79837
 20
30.659849
 30
0.0
 11
41.79837
 21
30.659849
 31
0.0
  0
LINE
  5
87E
100
AcDbEntity
  8
BORDER
  6
CONTINUOUS
 62
     2
100
AcDbLine
 39
96.0
 10
42.97025
 20
31.128599
 30
0.0
 11
42.97025
 21
31.128599
 31
0.0
  0
LINE
  5
87F
100
AcDbEntity
  8
BORDER
  6
CONTINUOUS
 62
     2
100
AcDbLine
 39
96.0
 10
42.5015
 20
31.128599
 30
0.0
 11
42.5015
 21
31.128599
 31
0.0
  0
LINE
  5
880
100
AcDbEntity
  8
BORDER
  6
CONTINUOUS
 62
     2
100
AcDbLine
 39
96.0
 10
42.03275
 20
31.128599
 30
0.0
 11
42.03275
 21
31.128599
 31
0.0
  0
LINE
  5
881
100
AcDbEntity
  8
BORDER
  6
CONTINUOUS
 62
     2
100
AcDbLine
 39
96.0
 10
41.564
 20
31.128599
 30
0.0
 11
41.564
 21
31.128599
 31
0.0
  0
LINE
  5
882
100
AcDbEntity
  8
BORDER
  6
CONTINUOUS
 62
     2
100
AcDbLine
 39
96.0
 10
43.20462
 20
31.597349
 30
0.0
 11
43.20462
 21
31.597349
 31
0.0
  0
LINE
  5
883
100
AcDbEntity
  8
BORDER
  6
CONTINUOUS
 62
     2
100
AcDbLine
 39
96.0
 10
42.73587
 20
31.597349
 30
0.0
 11
42.73587
 21
31.597349
 31
0.0
  0
LINE
  5
884
100
AcDbEntity
  8
BORDER
  6
CONTINUOUS
 62
     2
100
AcDbLine
 39
96.0
 10
42.26712
 20
31.597349
 30
0.0
 11
42.26712
 21
31.597349
 31
0.0
  0
LINE
  5
885
100
AcDbEntity
  8
BORDER
  6
CONTINUOUS
 62
     2
100
AcDbLine
 39
96.0
 10
41.79837
 20
31.597349
 30
0.0
 11
41.79837
 21
31.597349
 31
0.0
  0
LINE
  5
886
100
AcDbEntity
  8
BORDER
  6
CONTINUOUS
 62
     2
100
AcDbLine
 39
96.0
 10
42.97025
 20
32.066099
 30
0.0
 11
42.97025
 21
32.066099
 31
0.0
  0
LINE
  5
887
100
AcDbEntity
  8
BORDER
  6
CONTINUOUS
 62
     2
100
AcDbLine
 39
96.0
 10
42.5015
 20
32.066099
 30
0.0
 11
42.5015
 21
32.066099
 31
0.0
  0
LINE
  5
888
100
AcDbEntity
  8
BORDER
  6
CONTINUOUS
 62
     2
100
AcDbLine
 39
96.0
 10
42.03275
 20
32.066099
 30
0.0
 11
42.03275
 21
32.066099
 31
0.0
  0
LINE
  5
889
100
AcDbEntity
  8
BORDER
  6
CONTINUOUS
 62
     2
100
AcDbLine
 39
96.0
 10
41.564
 20
32.066099
 30
0.0
 11
41.564
 21
32.066099
 31
0.0
  0
LINE
  5
88A
100
AcDbEntity
  8
BORDER
  6
CONTINUOUS
 62
     2
100
AcDbLine
 39
96.0
 10
43.20462
 20
32.534849
 30
0.0
 11
43.20462
 21
32.534849
 31
0.0
  0
LINE
  5
88B
100
AcDbEntity
  8
BORDER
  6
CONTINUOUS
 62
     2
100
AcDbLine
 39
96.0
 10
42.73587
 20
32.534849
 30
0.0
 11
42.73587
 21
32.534849
 31
0.0
  0
LINE
  5
88C
100
AcDbEntity
  8
BORDER
  6
CONTINUOUS
 62
     2
100
AcDbLine
 39
96.0
 10
42.26712
 20
32.534849
 30
0.0
 11
42.26712
 21
32.534849
 31
0.0
  0
LINE
  5
88D
100
AcDbEntity
  8
BORDER
  6
CONTINUOUS
 62
     2
100
AcDbLine
 39
96.0
 10
41.79837
 20
32.534849
 30
0.0
 11
41.79837
 21
32.534849
 31
0.0
  0
LINE
  5
88E
100
AcDbEntity
  8
BORDER
  6
CONTINUOUS
 62
     2
100
AcDbLine
 39
96.0
 10
42.97025
 20
33.003599
 30
0.0
 11
42.97025
 21
33.003599
 31
0.0
  0
LINE
  5
88F
100
AcDbEntity
  8
BORDER
  6
CONTINUOUS
 62
     2
100
AcDbLine
 39
96.0
 10
42.5015
 20
33.003599
 30
0.0
 11
42.5015
 21
33.003599
 31
0.0
  0
LINE
  5
890
100
AcDbEntity
  8
BORDER
  6
CONTINUOUS
 62
     2
100
AcDbLine
 39
96.0
 10
42.03275
 20
33.003599
 30
0.0
 11
42.03275
 21
33.003599
 31
0.0
  0
LINE
  5
891
100
AcDbEntity
  8
BORDER
  6
CONTINUOUS
 62
     2
100
AcDbLine
 39
96.0
 10
41.564
 20
33.003599
 30
0.0
 11
41.564
 21
33.003599
 31
0.0
  0
LINE
  5
892
100
AcDbEntity
  8
BORDER
  6
CONTINUOUS
 62
     2
100
AcDbLine
 39
96.0
 10
43.20462
 20
33.472349
 30
0.0
 11
43.20462
 21
33.472349
 31
0.0
  0
LINE
  5
893
100
AcDbEntity
  8
BORDER
  6
CONTINUOUS
 62
     2
100
AcDbLine
 39
96.0
 10
42.73587
 20
33.472349
 30
0.0
 11
42.73587
 21
33.472349
 31
0.0
  0
LINE
  5
894
100
AcDbEntity
  8
BORDER
  6
CONTINUOUS
 62
     2
100
AcDbLine
 39
96.0
 10
42.26712
 20
33.472349
 30
0.0
 11
42.26712
 21
33.472349
 31
0.0
  0
LINE
  5
895
100
AcDbEntity
  8
BORDER
  6
CONTINUOUS
 62
     2
100
AcDbLine
 39
96.0
 10
41.79837
 20
33.472349
 30
0.0
 11
41.79837
 21
33.472349
 31
0.0
  0
LINE
  5
896
100
AcDbEntity
  8
BORDER
  6
CONTINUOUS
 62
     2
100
AcDbLine
 39
96.0
 10
42.97025
 20
33.941099
 30
0.0
 11
42.97025
 21
33.941099
 31
0.0
  0
LINE
  5
897
100
AcDbEntity
  8
BORDER
  6
CONTINUOUS
 62
     2
100
AcDbLine
 39
96.0
 10
42.5015
 20
33.941099
 30
0.0
 11
42.5015
 21
33.941099
 31
0.0
  0
LINE
  5
898
100
AcDbEntity
  8
BORDER
  6
CONTINUOUS
 62
     2
100
AcDbLine
 39
96.0
 10
42.03275
 20
33.941099
 30
0.0
 11
42.03275
 21
33.941099
 31
0.0
  0
LINE
  5
899
100
AcDbEntity
  8
BORDER
  6
CONTINUOUS
 62
     2
100
AcDbLine
 39
96.0
 10
41.564
 20
33.941099
 30
0.0
 11
41.564
 21
33.941099
 31
0.0
  0
LINE
  5
89A
100
AcDbEntity
  8
BORDER
  6
CONTINUOUS
 62
     2
100
AcDbLine
 39
96.0
 10
43.20462
 20
34.409849
 30
0.0
 11
43.20462
 21
34.409849
 31
0.0
  0
LINE
  5
89B
100
AcDbEntity
  8
BORDER
  6
CONTINUOUS
 62
     2
100
AcDbLine
 39
96.0
 10
42.73587
 20
34.409849
 30
0.0
 11
42.73587
 21
34.409849
 31
0.0
  0
LINE
  5
89C
100
AcDbEntity
  8
BORDER
  6
CONTINUOUS
 62
     2
100
AcDbLine
 39
96.0
 10
42.26712
 20
34.409849
 30
0.0
 11
42.26712
 21
34.409849
 31
0.0
  0
LINE
  5
89D
100
AcDbEntity
  8
BORDER
  6
CONTINUOUS
 62
     2
100
AcDbLine
 39
96.0
 10
41.79837
 20
34.409849
 30
0.0
 11
41.79837
 21
34.409849
 31
0.0
  0
LINE
  5
89E
100
AcDbEntity
  8
BORDER
  6
CONTINUOUS
 62
     2
100
AcDbLine
 39
96.0
 10
42.97025
 20
34.878599
 30
0.0
 11
42.97025
 21
34.878599
 31
0.0
  0
LINE
  5
89F
100
AcDbEntity
  8
BORDER
  6
CONTINUOUS
 62
     2
100
AcDbLine
 39
96.0
 10
42.5015
 20
34.878599
 30
0.0
 11
42.5015
 21
34.878599
 31
0.0
  0
LINE
  5
8A0
100
AcDbEntity
  8
BORDER
  6
CONTINUOUS
 62
     2
100
AcDbLine
 39
96.0
 10
42.03275
 20
34.878599
 30
0.0
 11
42.03275
 21
34.878599
 31
0.0
  0
LINE
  5
8A1
100
AcDbEntity
  8
BORDER
  6
CONTINUOUS
 62
     2
100
AcDbLine
 39
96.0
 10
41.564
 20
34.878599
 30
0.0
 11
41.564
 21
34.878599
 31
0.0
  0
LINE
  5
8A2
100
AcDbEntity
  8
BORDER
  6
CONTINUOUS
 62
     2
100
AcDbLine
 39
96.0
 10
43.20462
 20
35.347349
 30
0.0
 11
43.20462
 21
35.347349
 31
0.0
  0
LINE
  5
8A3
100
AcDbEntity
  8
BORDER
  6
CONTINUOUS
 62
     2
100
AcDbLine
 39
96.0
 10
42.73587
 20
35.347349
 30
0.0
 11
42.73587
 21
35.347349
 31
0.0
  0
LINE
  5
8A4
100
AcDbEntity
  8
BORDER
  6
CONTINUOUS
 62
     2
100
AcDbLine
 39
96.0
 10
42.26712
 20
35.347349
 30
0.0
 11
42.26712
 21
35.347349
 31
0.0
  0
LINE
  5
8A5
100
AcDbEntity
  8
BORDER
  6
CONTINUOUS
 62
     2
100
AcDbLine
 39
96.0
 10
41.79837
 20
35.347349
 30
0.0
 11
41.79837
 21
35.347349
 31
0.0
  0
LINE
  5
8A6
100
AcDbEntity
  8
BORDER
  6
CONTINUOUS
 62
     2
100
AcDbLine
 39
96.0
 10
42.97025
 20
35.816099
 30
0.0
 11
42.97025
 21
35.816099
 31
0.0
  0
LINE
  5
8A7
100
AcDbEntity
  8
BORDER
  6
CONTINUOUS
 62
     2
100
AcDbLine
 39
96.0
 10
42.5015
 20
35.816099
 30
0.0
 11
42.5015
 21
35.816099
 31
0.0
  0
LINE
  5
8A8
100
AcDbEntity
  8
BORDER
  6
CONTINUOUS
 62
     2
100
AcDbLine
 39
96.0
 10
42.03275
 20
35.816099
 30
0.0
 11
42.03275
 21
35.816099
 31
0.0
  0
LINE
  5
8A9
100
AcDbEntity
  8
BORDER
  6
CONTINUOUS
 62
     2
100
AcDbLine
 39
96.0
 10
41.564
 20
35.816099
 30
0.0
 11
41.564
 21
35.816099
 31
0.0
  0
LINE
  5
8AA
100
AcDbEntity
  8
BORDER
  6
CONTINUOUS
 62
     2
100
AcDbLine
 39
96.0
 10
43.20462
 20
36.284849
 30
0.0
 11
43.20462
 21
36.284849
 31
0.0
  0
LINE
  5
8AB
100
AcDbEntity
  8
BORDER
  6
CONTINUOUS
 62
     2
100
AcDbLine
 39
96.0
 10
42.73587
 20
36.284849
 30
0.0
 11
42.73587
 21
36.284849
 31
0.0
  0
LINE
  5
8AC
100
AcDbEntity
  8
BORDER
  6
CONTINUOUS
 62
     2
100
AcDbLine
 39
96.0
 10
42.26712
 20
36.284849
 30
0.0
 11
42.26712
 21
36.284849
 31
0.0
  0
LINE
  5
8AD
100
AcDbEntity
  8
BORDER
  6
CONTINUOUS
 62
     2
100
AcDbLine
 39
96.0
 10
41.79837
 20
36.284849
 30
0.0
 11
41.79837
 21
36.284849
 31
0.0
  0
LINE
  5
8AE
100
AcDbEntity
  8
BORDER
  6
CONTINUOUS
 62
     2
100
AcDbLine
 39
96.0
 10
42.97025
 20
36.753599
 30
0.0
 11
42.97025
 21
36.753599
 31
0.0
  0
LINE
  5
8AF
100
AcDbEntity
  8
BORDER
  6
CONTINUOUS
 62
     2
100
AcDbLine
 39
96.0
 10
42.5015
 20
36.753599
 30
0.0
 11
42.5015
 21
36.753599
 31
0.0
  0
LINE
  5
8B0
100
AcDbEntity
  8
BORDER
  6
CONTINUOUS
 62
     2
100
AcDbLine
 39
96.0
 10
42.03275
 20
36.753599
 30
0.0
 11
42.03275
 21
36.753599
 31
0.0
  0
LINE
  5
8B1
100
AcDbEntity
  8
BORDER
  6
CONTINUOUS
 62
     2
100
AcDbLine
 39
96.0
 10
41.564
 20
36.753599
 30
0.0
 11
41.564
 21
36.753599
 31
0.0
  0
LINE
  5
8B2
100
AcDbEntity
  8
BORDER
  6
CONTINUOUS
 62
     2
100
AcDbLine
 39
96.0
 10
43.20462
 20
37.222349
 30
0.0
 11
43.20462
 21
37.222349
 31
0.0
  0
LINE
  5
8B3
100
AcDbEntity
  8
BORDER
  6
CONTINUOUS
 62
     2
100
AcDbLine
 39
96.0
 10
42.73587
 20
37.222349
 30
0.0
 11
42.73587
 21
37.222349
 31
0.0
  0
LINE
  5
8B4
100
AcDbEntity
  8
BORDER
  6
CONTINUOUS
 62
     2
100
AcDbLine
 39
96.0
 10
42.26712
 20
37.222349
 30
0.0
 11
42.26712
 21
37.222349
 31
0.0
  0
LINE
  5
8B5
100
AcDbEntity
  8
BORDER
  6
CONTINUOUS
 62
     2
100
AcDbLine
 39
96.0
 10
41.79837
 20
37.222349
 30
0.0
 11
41.79837
 21
37.222349
 31
0.0
  0
LINE
  5
8B6
100
AcDbEntity
  8
BORDER
  6
CONTINUOUS
 62
     2
100
AcDbLine
 39
96.0
 10
42.97025
 20
37.691099
 30
0.0
 11
42.97025
 21
37.691099
 31
0.0
  0
LINE
  5
8B7
100
AcDbEntity
  8
BORDER
  6
CONTINUOUS
 62
     2
100
AcDbLine
 39
96.0
 10
42.5015
 20
37.691099
 30
0.0
 11
42.5015
 21
37.691099
 31
0.0
  0
LINE
  5
8B8
100
AcDbEntity
  8
BORDER
  6
CONTINUOUS
 62
     2
100
AcDbLine
 39
96.0
 10
42.03275
 20
37.691099
 30
0.0
 11
42.03275
 21
37.691099
 31
0.0
  0
LINE
  5
8B9
100
AcDbEntity
  8
BORDER
  6
CONTINUOUS
 62
     2
100
AcDbLine
 39
96.0
 10
41.564
 20
37.691099
 30
0.0
 11
41.564
 21
37.691099
 31
0.0
  0
LINE
  5
8BA
100
AcDbEntity
  8
BORDER
  6
CONTINUOUS
 62
     2
100
AcDbLine
 39
96.0
 10
43.20462
 20
38.159849
 30
0.0
 11
43.20462
 21
38.159849
 31
0.0
  0
LINE
  5
8BB
100
AcDbEntity
  8
BORDER
  6
CONTINUOUS
 62
     2
100
AcDbLine
 39
96.0
 10
42.73587
 20
38.159849
 30
0.0
 11
42.73587
 21
38.159849
 31
0.0
  0
LINE
  5
8BC
100
AcDbEntity
  8
BORDER
  6
CONTINUOUS
 62
     2
100
AcDbLine
 39
96.0
 10
42.26712
 20
38.159849
 30
0.0
 11
42.26712
 21
38.159849
 31
0.0
  0
LINE
  5
8BD
100
AcDbEntity
  8
BORDER
  6
CONTINUOUS
 62
     2
100
AcDbLine
 39
96.0
 10
41.79837
 20
38.159849
 30
0.0
 11
41.79837
 21
38.159849
 31
0.0
  0
LINE
  5
8BE
100
AcDbEntity
  8
BORDER
  6
CONTINUOUS
 62
     2
100
AcDbLine
 39
96.0
 10
42.97025
 20
38.628599
 30
0.0
 11
42.97025
 21
38.628599
 31
0.0
  0
LINE
  5
8BF
100
AcDbEntity
  8
BORDER
  6
CONTINUOUS
 62
     2
100
AcDbLine
 39
96.0
 10
42.5015
 20
38.628599
 30
0.0
 11
42.5015
 21
38.628599
 31
0.0
  0
LINE
  5
8C0
100
AcDbEntity
  8
BORDER
  6
CONTINUOUS
 62
     2
100
AcDbLine
 39
96.0
 10
42.03275
 20
38.628599
 30
0.0
 11
42.03275
 21
38.628599
 31
0.0
  0
LINE
  5
8C1
100
AcDbEntity
  8
BORDER
  6
CONTINUOUS
 62
     2
100
AcDbLine
 39
96.0
 10
41.564
 20
38.628599
 30
0.0
 11
41.564
 21
38.628599
 31
0.0
  0
LINE
  5
8C2
100
AcDbEntity
  8
BORDER
  6
CONTINUOUS
 62
     2
100
AcDbLine
 39
96.0
 10
43.20462
 20
39.097349
 30
0.0
 11
43.20462
 21
39.097349
 31
0.0
  0
LINE
  5
8C3
100
AcDbEntity
  8
BORDER
  6
CONTINUOUS
 62
     2
100
AcDbLine
 39
96.0
 10
42.73587
 20
39.097349
 30
0.0
 11
42.73587
 21
39.097349
 31
0.0
  0
LINE
  5
8C4
100
AcDbEntity
  8
BORDER
  6
CONTINUOUS
 62
     2
100
AcDbLine
 39
96.0
 10
42.26712
 20
39.097349
 30
0.0
 11
42.26712
 21
39.097349
 31
0.0
  0
LINE
  5
8C5
100
AcDbEntity
  8
BORDER
  6
CONTINUOUS
 62
     2
100
AcDbLine
 39
96.0
 10
41.79837
 20
39.097349
 30
0.0
 11
41.79837
 21
39.097349
 31
0.0
  0
LINE
  5
8C6
100
AcDbEntity
  8
BORDER
  6
CONTINUOUS
 62
     2
100
AcDbLine
 39
96.0
 10
42.97025
 20
39.566099
 30
0.0
 11
42.97025
 21
39.566099
 31
0.0
  0
LINE
  5
8C7
100
AcDbEntity
  8
BORDER
  6
CONTINUOUS
 62
     2
100
AcDbLine
 39
96.0
 10
42.5015
 20
39.566099
 30
0.0
 11
42.5015
 21
39.566099
 31
0.0
  0
LINE
  5
8C8
100
AcDbEntity
  8
BORDER
  6
CONTINUOUS
 62
     2
100
AcDbLine
 39
96.0
 10
42.03275
 20
39.566099
 30
0.0
 11
42.03275
 21
39.566099
 31
0.0
  0
LINE
  5
8C9
100
AcDbEntity
  8
BORDER
  6
CONTINUOUS
 62
     2
100
AcDbLine
 39
96.0
 10
41.564
 20
39.566099
 30
0.0
 11
41.564
 21
39.566099
 31
0.0
  0
LINE
  5
8CA
100
AcDbEntity
  8
BORDER
  6
CONTINUOUS
 62
     2
100
AcDbLine
 39
96.0
 10
43.20462
 20
40.034849
 30
0.0
 11
43.20462
 21
40.034849
 31
0.0
  0
LINE
  5
8CB
100
AcDbEntity
  8
BORDER
  6
CONTINUOUS
 62
     2
100
AcDbLine
 39
96.0
 10
42.73587
 20
40.034849
 30
0.0
 11
42.73587
 21
40.034849
 31
0.0
  0
LINE
  5
8CC
100
AcDbEntity
  8
BORDER
  6
CONTINUOUS
 62
     2
100
AcDbLine
 39
96.0
 10
42.26712
 20
40.034849
 30
0.0
 11
42.26712
 21
40.034849
 31
0.0
  0
LINE
  5
8CD
100
AcDbEntity
  8
BORDER
  6
CONTINUOUS
 62
     2
100
AcDbLine
 39
96.0
 10
41.79837
 20
40.034849
 30
0.0
 11
41.79837
 21
40.034849
 31
0.0
  0
LINE
  5
8CE
100
AcDbEntity
  8
BORDER
  6
CONTINUOUS
 62
     2
100
AcDbLine
 39
96.0
 10
42.97025
 20
40.503599
 30
0.0
 11
42.97025
 21
40.503599
 31
0.0
  0
LINE
  5
8CF
100
AcDbEntity
  8
BORDER
  6
CONTINUOUS
 62
     2
100
AcDbLine
 39
96.0
 10
42.5015
 20
40.503599
 30
0.0
 11
42.5015
 21
40.503599
 31
0.0
  0
LINE
  5
8D0
100
AcDbEntity
  8
BORDER
  6
CONTINUOUS
 62
     2
100
AcDbLine
 39
96.0
 10
42.03275
 20
40.503599
 30
0.0
 11
42.03275
 21
40.503599
 31
0.0
  0
LINE
  5
8D1
100
AcDbEntity
  8
BORDER
  6
CONTINUOUS
 62
     2
100
AcDbLine
 39
96.0
 10
41.564
 20
40.503599
 30
0.0
 11
41.564
 21
40.503599
 31
0.0
  0
LINE
  5
8D2
100
AcDbEntity
  8
BORDER
  6
CONTINUOUS
 62
     2
100
AcDbLine
 39
96.0
 10
43.20462
 20
40.972349
 30
0.0
 11
43.20462
 21
40.972349
 31
0.0
  0
LINE
  5
8D3
100
AcDbEntity
  8
BORDER
  6
CONTINUOUS
 62
     2
100
AcDbLine
 39
96.0
 10
42.73587
 20
40.972349
 30
0.0
 11
42.73587
 21
40.972349
 31
0.0
  0
LINE
  5
8D4
100
AcDbEntity
  8
BORDER
  6
CONTINUOUS
 62
     2
100
AcDbLine
 39
96.0
 10
42.26712
 20
40.972349
 30
0.0
 11
42.26712
 21
40.972349
 31
0.0
  0
LINE
  5
8D5
100
AcDbEntity
  8
BORDER
  6
CONTINUOUS
 62
     2
100
AcDbLine
 39
96.0
 10
41.79837
 20
40.972349
 30
0.0
 11
41.79837
 21
40.972349
 31
0.0
  0
LINE
  5
8D6
100
AcDbEntity
  8
BORDER
  6
CONTINUOUS
 62
     2
100
AcDbLine
 39
96.0
 10
42.97025
 20
41.441099
 30
0.0
 11
42.97025
 21
41.441099
 31
0.0
  0
LINE
  5
8D7
100
AcDbEntity
  8
BORDER
  6
CONTINUOUS
 62
     2
100
AcDbLine
 39
96.0
 10
42.5015
 20
41.441099
 30
0.0
 11
42.5015
 21
41.441099
 31
0.0
  0
LINE
  5
8D8
100
AcDbEntity
  8
BORDER
  6
CONTINUOUS
 62
     2
100
AcDbLine
 39
96.0
 10
42.03275
 20
41.441099
 30
0.0
 11
42.03275
 21
41.441099
 31
0.0
  0
LINE
  5
8D9
100
AcDbEntity
  8
BORDER
  6
CONTINUOUS
 62
     2
100
AcDbLine
 39
96.0
 10
41.564
 20
41.441099
 30
0.0
 11
41.564
 21
41.441099
 31
0.0
  0
LINE
  5
8DA
100
AcDbEntity
  8
BORDER
  6
CONTINUOUS
 62
     2
100
AcDbLine
 39
96.0
 10
43.20462
 20
41.909849
 30
0.0
 11
43.20462
 21
41.909849
 31
0.0
  0
LINE
  5
8DB
100
AcDbEntity
  8
BORDER
  6
CONTINUOUS
 62
     2
100
AcDbLine
 39
96.0
 10
42.73587
 20
41.909849
 30
0.0
 11
42.73587
 21
41.909849
 31
0.0
  0
LINE
  5
8DC
100
AcDbEntity
  8
BORDER
  6
CONTINUOUS
 62
     2
100
AcDbLine
 39
96.0
 10
42.26712
 20
41.909849
 30
0.0
 11
42.26712
 21
41.909849
 31
0.0
  0
LINE
  5
8DD
100
AcDbEntity
  8
BORDER
  6
CONTINUOUS
 62
     2
100
AcDbLine
 39
96.0
 10
41.79837
 20
41.909849
 30
0.0
 11
41.79837
 21
41.909849
 31
0.0
  0
LINE
  5
8DE
100
AcDbEntity
  8
BORDER
  6
CONTINUOUS
 62
     2
100
AcDbLine
 39
96.0
 10
42.97025
 20
42.378599
 30
0.0
 11
42.97025
 21
42.378599
 31
0.0
  0
LINE
  5
8DF
100
AcDbEntity
  8
BORDER
  6
CONTINUOUS
 62
     2
100
AcDbLine
 39
96.0
 10
42.5015
 20
42.378599
 30
0.0
 11
42.5015
 21
42.378599
 31
0.0
  0
LINE
  5
8E0
100
AcDbEntity
  8
BORDER
  6
CONTINUOUS
 62
     2
100
AcDbLine
 39
96.0
 10
42.03275
 20
42.378599
 30
0.0
 11
42.03275
 21
42.378599
 31
0.0
  0
LINE
  5
8E1
100
AcDbEntity
  8
BORDER
  6
CONTINUOUS
 62
     2
100
AcDbLine
 39
96.0
 10
41.564
 20
42.378599
 30
0.0
 11
41.564
 21
42.378599
 31
0.0
  0
LINE
  5
8E2
100
AcDbEntity
  8
BORDER
  6
CONTINUOUS
 62
     2
100
AcDbLine
 39
96.0
 10
43.20462
 20
42.847349
 30
0.0
 11
43.20462
 21
42.847349
 31
0.0
  0
LINE
  5
8E3
100
AcDbEntity
  8
BORDER
  6
CONTINUOUS
 62
     2
100
AcDbLine
 39
96.0
 10
42.73587
 20
42.847349
 30
0.0
 11
42.73587
 21
42.847349
 31
0.0
  0
LINE
  5
8E4
100
AcDbEntity
  8
BORDER
  6
CONTINUOUS
 62
     2
100
AcDbLine
 39
96.0
 10
42.26712
 20
42.847349
 30
0.0
 11
42.26712
 21
42.847349
 31
0.0
  0
LINE
  5
8E5
100
AcDbEntity
  8
BORDER
  6
CONTINUOUS
 62
     2
100
AcDbLine
 39
96.0
 10
41.79837
 20
42.847349
 30
0.0
 11
41.79837
 21
42.847349
 31
0.0
  0
LINE
  5
8E6
100
AcDbEntity
  8
BORDER
  6
CONTINUOUS
 62
     2
100
AcDbLine
 39
96.0
 10
42.97025
 20
43.316099
 30
0.0
 11
42.97025
 21
43.316099
 31
0.0
  0
LINE
  5
8E7
100
AcDbEntity
  8
BORDER
  6
CONTINUOUS
 62
     2
100
AcDbLine
 39
96.0
 10
42.5015
 20
43.316099
 30
0.0
 11
42.5015
 21
43.316099
 31
0.0
  0
LINE
  5
8E8
100
AcDbEntity
  8
BORDER
  6
CONTINUOUS
 62
     2
100
AcDbLine
 39
96.0
 10
42.03275
 20
43.316099
 30
0.0
 11
42.03275
 21
43.316099
 31
0.0
  0
LINE
  5
8E9
100
AcDbEntity
  8
BORDER
  6
CONTINUOUS
 62
     2
100
AcDbLine
 39
96.0
 10
41.564
 20
43.316099
 30
0.0
 11
41.564
 21
43.316099
 31
0.0
  0
LINE
  5
8EA
100
AcDbEntity
  8
BORDER
  6
CONTINUOUS
 62
     2
100
AcDbLine
 39
96.0
 10
43.20462
 20
43.784849
 30
0.0
 11
43.20462
 21
43.784849
 31
0.0
  0
LINE
  5
8EB
100
AcDbEntity
  8
BORDER
  6
CONTINUOUS
 62
     2
100
AcDbLine
 39
96.0
 10
42.73587
 20
43.784849
 30
0.0
 11
42.73587
 21
43.784849
 31
0.0
  0
LINE
  5
8EC
100
AcDbEntity
  8
BORDER
  6
CONTINUOUS
 62
     2
100
AcDbLine
 39
96.0
 10
42.26712
 20
43.784849
 30
0.0
 11
42.26712
 21
43.784849
 31
0.0
  0
LINE
  5
8ED
100
AcDbEntity
  8
BORDER
  6
CONTINUOUS
 62
     2
100
AcDbLine
 39
96.0
 10
41.79837
 20
43.784849
 30
0.0
 11
41.79837
 21
43.784849
 31
0.0
  0
LINE
  5
8EE
100
AcDbEntity
  8
BORDER
  6
CONTINUOUS
 62
     2
100
AcDbLine
 39
96.0
 10
42.97025
 20
44.253599
 30
0.0
 11
42.97025
 21
44.253599
 31
0.0
  0
LINE
  5
8EF
100
AcDbEntity
  8
BORDER
  6
CONTINUOUS
 62
     2
100
AcDbLine
 39
96.0
 10
42.5015
 20
44.253599
 30
0.0
 11
42.5015
 21
44.253599
 31
0.0
  0
LINE
  5
8F0
100
AcDbEntity
  8
BORDER
  6
CONTINUOUS
 62
     2
100
AcDbLine
 39
96.0
 10
42.03275
 20
44.253599
 30
0.0
 11
42.03275
 21
44.253599
 31
0.0
  0
LINE
  5
8F1
100
AcDbEntity
  8
BORDER
  6
CONTINUOUS
 62
     2
100
AcDbLine
 39
96.0
 10
41.564
 20
44.253599
 30
0.0
 11
41.564
 21
44.253599
 31
0.0
  0
LINE
  5
8F2
100
AcDbEntity
  8
BORDER
  6
CONTINUOUS
 62
     2
100
AcDbLine
 39
96.0
 10
43.20462
 20
44.722349
 30
0.0
 11
43.20462
 21
44.722349
 31
0.0
  0
LINE
  5
8F3
100
AcDbEntity
  8
BORDER
  6
CONTINUOUS
 62
     2
100
AcDbLine
 39
96.0
 10
42.73587
 20
44.722349
 30
0.0
 11
42.73587
 21
44.722349
 31
0.0
  0
LINE
  5
8F4
100
AcDbEntity
  8
BORDER
  6
CONTINUOUS
 62
     2
100
AcDbLine
 39
96.0
 10
42.26712
 20
44.722349
 30
0.0
 11
42.26712
 21
44.722349
 31
0.0
  0
LINE
  5
8F5
100
AcDbEntity
  8
BORDER
  6
CONTINUOUS
 62
     2
100
AcDbLine
 39
96.0
 10
41.79837
 20
44.722349
 30
0.0
 11
41.79837
 21
44.722349
 31
0.0
  0
LINE
  5
8F6
100
AcDbEntity
  8
BORDER
  6
CONTINUOUS
 62
     2
100
AcDbLine
 39
96.0
 10
42.97025
 20
45.191099
 30
0.0
 11
42.97025
 21
45.191099
 31
0.0
  0
LINE
  5
8F7
100
AcDbEntity
  8
BORDER
  6
CONTINUOUS
 62
     2
100
AcDbLine
 39
96.0
 10
42.5015
 20
45.191099
 30
0.0
 11
42.5015
 21
45.191099
 31
0.0
  0
LINE
  5
8F8
100
AcDbEntity
  8
BORDER
  6
CONTINUOUS
 62
     2
100
AcDbLine
 39
96.0
 10
42.03275
 20
45.191099
 30
0.0
 11
42.03275
 21
45.191099
 31
0.0
  0
LINE
  5
8F9
100
AcDbEntity
  8
BORDER
  6
CONTINUOUS
 62
     2
100
AcDbLine
 39
96.0
 10
41.564
 20
45.191099
 30
0.0
 11
41.564
 21
45.191099
 31
0.0
  0
LINE
  5
8FA
100
AcDbEntity
  8
BORDER
  6
CONTINUOUS
 62
     2
100
AcDbLine
 39
96.0
 10
35.23587
 20
30.659849
 30
0.0
 11
35.23587
 21
30.659849
 31
0.0
  0
LINE
  5
8FB
100
AcDbEntity
  8
BORDER
  6
CONTINUOUS
 62
     2
100
AcDbLine
 39
96.0
 10
34.76712
 20
30.659849
 30
0.0
 11
34.76712
 21
30.659849
 31
0.0
  0
LINE
  5
8FC
100
AcDbEntity
  8
BORDER
  6
CONTINUOUS
 62
     2
100
AcDbLine
 39
96.0
 10
34.29837
 20
30.659849
 30
0.0
 11
34.29837
 21
30.659849
 31
0.0
  0
LINE
  5
8FD
100
AcDbEntity
  8
BORDER
  6
CONTINUOUS
 62
     2
100
AcDbLine
 39
96.0
 10
33.82962
 20
30.659849
 30
0.0
 11
33.82962
 21
30.659849
 31
0.0
  0
LINE
  5
8FE
100
AcDbEntity
  8
BORDER
  6
CONTINUOUS
 62
     2
100
AcDbLine
 39
96.0
 10
35.0015
 20
31.128599
 30
0.0
 11
35.0015
 21
31.128599
 31
0.0
  0
LINE
  5
8FF
100
AcDbEntity
  8
BORDER
  6
CONTINUOUS
 62
     2
100
AcDbLine
 39
96.0
 10
34.53275
 20
31.128599
 30
0.0
 11
34.53275
 21
31.128599
 31
0.0
  0
LINE
  5
900
100
AcDbEntity
  8
BORDER
  6
CONTINUOUS
 62
     2
100
AcDbLine
 39
96.0
 10
34.064
 20
31.128599
 30
0.0
 11
34.064
 21
31.128599
 31
0.0
  0
LINE
  5
901
100
AcDbEntity
  8
BORDER
  6
CONTINUOUS
 62
     2
100
AcDbLine
 39
96.0
 10
33.59525
 20
31.128599
 30
0.0
 11
33.59525
 21
31.128599
 31
0.0
  0
LINE
  5
902
100
AcDbEntity
  8
BORDER
  6
CONTINUOUS
 62
     2
100
AcDbLine
 39
96.0
 10
35.23587
 20
31.597349
 30
0.0
 11
35.23587
 21
31.597349
 31
0.0
  0
LINE
  5
903
100
AcDbEntity
  8
BORDER
  6
CONTINUOUS
 62
     2
100
AcDbLine
 39
96.0
 10
34.76712
 20
31.597349
 30
0.0
 11
34.76712
 21
31.597349
 31
0.0
  0
LINE
  5
904
100
AcDbEntity
  8
BORDER
  6
CONTINUOUS
 62
     2
100
AcDbLine
 39
96.0
 10
34.29837
 20
31.597349
 30
0.0
 11
34.29837
 21
31.597349
 31
0.0
  0
LINE
  5
905
100
AcDbEntity
  8
BORDER
  6
CONTINUOUS
 62
     2
100
AcDbLine
 39
96.0
 10
33.82962
 20
31.597349
 30
0.0
 11
33.82962
 21
31.597349
 31
0.0
  0
LINE
  5
906
100
AcDbEntity
  8
BORDER
  6
CONTINUOUS
 62
     2
100
AcDbLine
 39
96.0
 10
35.0015
 20
32.066099
 30
0.0
 11
35.0015
 21
32.066099
 31
0.0
  0
LINE
  5
907
100
AcDbEntity
  8
BORDER
  6
CONTINUOUS
 62
     2
100
AcDbLine
 39
96.0
 10
34.53275
 20
32.066099
 30
0.0
 11
34.53275
 21
32.066099
 31
0.0
  0
LINE
  5
908
100
AcDbEntity
  8
BORDER
  6
CONTINUOUS
 62
     2
100
AcDbLine
 39
96.0
 10
34.064
 20
32.066099
 30
0.0
 11
34.064
 21
32.066099
 31
0.0
  0
LINE
  5
909
100
AcDbEntity
  8
BORDER
  6
CONTINUOUS
 62
     2
100
AcDbLine
 39
96.0
 10
33.59525
 20
32.066099
 30
0.0
 11
33.59525
 21
32.066099
 31
0.0
  0
LINE
  5
90A
100
AcDbEntity
  8
BORDER
  6
CONTINUOUS
 62
     2
100
AcDbLine
 39
96.0
 10
35.23587
 20
32.534849
 30
0.0
 11
35.23587
 21
32.534849
 31
0.0
  0
LINE
  5
90B
100
AcDbEntity
  8
BORDER
  6
CONTINUOUS
 62
     2
100
AcDbLine
 39
96.0
 10
34.76712
 20
32.534849
 30
0.0
 11
34.76712
 21
32.534849
 31
0.0
  0
LINE
  5
90C
100
AcDbEntity
  8
BORDER
  6
CONTINUOUS
 62
     2
100
AcDbLine
 39
96.0
 10
34.29837
 20
32.534849
 30
0.0
 11
34.29837
 21
32.534849
 31
0.0
  0
LINE
  5
90D
100
AcDbEntity
  8
BORDER
  6
CONTINUOUS
 62
     2
100
AcDbLine
 39
96.0
 10
33.82962
 20
32.534849
 30
0.0
 11
33.82962
 21
32.534849
 31
0.0
  0
LINE
  5
90E
100
AcDbEntity
  8
BORDER
  6
CONTINUOUS
 62
     2
100
AcDbLine
 39
96.0
 10
35.0015
 20
33.003599
 30
0.0
 11
35.0015
 21
33.003599
 31
0.0
  0
LINE
  5
90F
100
AcDbEntity
  8
BORDER
  6
CONTINUOUS
 62
     2
100
AcDbLine
 39
96.0
 10
34.53275
 20
33.003599
 30
0.0
 11
34.53275
 21
33.003599
 31
0.0
  0
LINE
  5
910
100
AcDbEntity
  8
BORDER
  6
CONTINUOUS
 62
     2
100
AcDbLine
 39
96.0
 10
34.064
 20
33.003599
 30
0.0
 11
34.064
 21
33.003599
 31
0.0
  0
LINE
  5
911
100
AcDbEntity
  8
BORDER
  6
CONTINUOUS
 62
     2
100
AcDbLine
 39
96.0
 10
33.59525
 20
33.003599
 30
0.0
 11
33.59525
 21
33.003599
 31
0.0
  0
LINE
  5
912
100
AcDbEntity
  8
BORDER
  6
CONTINUOUS
 62
     2
100
AcDbLine
 39
96.0
 10
35.23587
 20
33.472349
 30
0.0
 11
35.23587
 21
33.472349
 31
0.0
  0
LINE
  5
913
100
AcDbEntity
  8
BORDER
  6
CONTINUOUS
 62
     2
100
AcDbLine
 39
96.0
 10
34.76712
 20
33.472349
 30
0.0
 11
34.76712
 21
33.472349
 31
0.0
  0
LINE
  5
914
100
AcDbEntity
  8
BORDER
  6
CONTINUOUS
 62
     2
100
AcDbLine
 39
96.0
 10
34.29837
 20
33.472349
 30
0.0
 11
34.29837
 21
33.472349
 31
0.0
  0
LINE
  5
915
100
AcDbEntity
  8
BORDER
  6
CONTINUOUS
 62
     2
100
AcDbLine
 39
96.0
 10
33.82962
 20
33.472349
 30
0.0
 11
33.82962
 21
33.472349
 31
0.0
  0
LINE
  5
916
100
AcDbEntity
  8
BORDER
  6
CONTINUOUS
 62
     2
100
AcDbLine
 39
96.0
 10
35.0015
 20
33.941099
 30
0.0
 11
35.0015
 21
33.941099
 31
0.0
  0
LINE
  5
917
100
AcDbEntity
  8
BORDER
  6
CONTINUOUS
 62
     2
100
AcDbLine
 39
96.0
 10
34.53275
 20
33.941099
 30
0.0
 11
34.53275
 21
33.941099
 31
0.0
  0
LINE
  5
918
100
AcDbEntity
  8
BORDER
  6
CONTINUOUS
 62
     2
100
AcDbLine
 39
96.0
 10
34.064
 20
33.941099
 30
0.0
 11
34.064
 21
33.941099
 31
0.0
  0
LINE
  5
919
100
AcDbEntity
  8
BORDER
  6
CONTINUOUS
 62
     2
100
AcDbLine
 39
96.0
 10
33.59525
 20
33.941099
 30
0.0
 11
33.59525
 21
33.941099
 31
0.0
  0
LINE
  5
91A
100
AcDbEntity
  8
BORDER
  6
CONTINUOUS
 62
     2
100
AcDbLine
 39
96.0
 10
35.23587
 20
34.409849
 30
0.0
 11
35.23587
 21
34.409849
 31
0.0
  0
LINE
  5
91B
100
AcDbEntity
  8
BORDER
  6
CONTINUOUS
 62
     2
100
AcDbLine
 39
96.0
 10
34.76712
 20
34.409849
 30
0.0
 11
34.76712
 21
34.409849
 31
0.0
  0
LINE
  5
91C
100
AcDbEntity
  8
BORDER
  6
CONTINUOUS
 62
     2
100
AcDbLine
 39
96.0
 10
34.29837
 20
34.409849
 30
0.0
 11
34.29837
 21
34.409849
 31
0.0
  0
LINE
  5
91D
100
AcDbEntity
  8
BORDER
  6
CONTINUOUS
 62
     2
100
AcDbLine
 39
96.0
 10
33.82962
 20
34.409849
 30
0.0
 11
33.82962
 21
34.409849
 31
0.0
  0
LINE
  5
91E
100
AcDbEntity
  8
BORDER
  6
CONTINUOUS
 62
     2
100
AcDbLine
 39
96.0
 10
35.0015
 20
34.878599
 30
0.0
 11
35.0015
 21
34.878599
 31
0.0
  0
LINE
  5
91F
100
AcDbEntity
  8
BORDER
  6
CONTINUOUS
 62
     2
100
AcDbLine
 39
96.0
 10
34.53275
 20
34.878599
 30
0.0
 11
34.53275
 21
34.878599
 31
0.0
  0
LINE
  5
920
100
AcDbEntity
  8
BORDER
  6
CONTINUOUS
 62
     2
100
AcDbLine
 39
96.0
 10
34.064
 20
34.878599
 30
0.0
 11
34.064
 21
34.878599
 31
0.0
  0
LINE
  5
921
100
AcDbEntity
  8
BORDER
  6
CONTINUOUS
 62
     2
100
AcDbLine
 39
96.0
 10
33.59525
 20
34.878599
 30
0.0
 11
33.59525
 21
34.878599
 31
0.0
  0
LINE
  5
922
100
AcDbEntity
  8
BORDER
  6
CONTINUOUS
 62
     2
100
AcDbLine
 39
96.0
 10
35.23587
 20
35.347349
 30
0.0
 11
35.23587
 21
35.347349
 31
0.0
  0
LINE
  5
923
100
AcDbEntity
  8
BORDER
  6
CONTINUOUS
 62
     2
100
AcDbLine
 39
96.0
 10
34.76712
 20
35.347349
 30
0.0
 11
34.76712
 21
35.347349
 31
0.0
  0
LINE
  5
924
100
AcDbEntity
  8
BORDER
  6
CONTINUOUS
 62
     2
100
AcDbLine
 39
96.0
 10
34.29837
 20
35.347349
 30
0.0
 11
34.29837
 21
35.347349
 31
0.0
  0
LINE
  5
925
100
AcDbEntity
  8
BORDER
  6
CONTINUOUS
 62
     2
100
AcDbLine
 39
96.0
 10
33.82962
 20
35.347349
 30
0.0
 11
33.82962
 21
35.347349
 31
0.0
  0
LINE
  5
926
100
AcDbEntity
  8
BORDER
  6
CONTINUOUS
 62
     2
100
AcDbLine
 39
96.0
 10
35.0015
 20
35.816099
 30
0.0
 11
35.0015
 21
35.816099
 31
0.0
  0
LINE
  5
927
100
AcDbEntity
  8
BORDER
  6
CONTINUOUS
 62
     2
100
AcDbLine
 39
96.0
 10
34.53275
 20
35.816099
 30
0.0
 11
34.53275
 21
35.816099
 31
0.0
  0
LINE
  5
928
100
AcDbEntity
  8
BORDER
  6
CONTINUOUS
 62
     2
100
AcDbLine
 39
96.0
 10
34.064
 20
35.816099
 30
0.0
 11
34.064
 21
35.816099
 31
0.0
  0
LINE
  5
929
100
AcDbEntity
  8
BORDER
  6
CONTINUOUS
 62
     2
100
AcDbLine
 39
96.0
 10
33.59525
 20
35.816099
 30
0.0
 11
33.59525
 21
35.816099
 31
0.0
  0
LINE
  5
92A
100
AcDbEntity
  8
BORDER
  6
CONTINUOUS
 62
     2
100
AcDbLine
 39
96.0
 10
35.23587
 20
36.284849
 30
0.0
 11
35.23587
 21
36.284849
 31
0.0
  0
LINE
  5
92B
100
AcDbEntity
  8
BORDER
  6
CONTINUOUS
 62
     2
100
AcDbLine
 39
96.0
 10
34.76712
 20
36.284849
 30
0.0
 11
34.76712
 21
36.284849
 31
0.0
  0
LINE
  5
92C
100
AcDbEntity
  8
BORDER
  6
CONTINUOUS
 62
     2
100
AcDbLine
 39
96.0
 10
34.29837
 20
36.284849
 30
0.0
 11
34.29837
 21
36.284849
 31
0.0
  0
LINE
  5
92D
100
AcDbEntity
  8
BORDER
  6
CONTINUOUS
 62
     2
100
AcDbLine
 39
96.0
 10
33.82962
 20
36.284849
 30
0.0
 11
33.82962
 21
36.284849
 31
0.0
  0
LINE
  5
92E
100
AcDbEntity
  8
BORDER
  6
CONTINUOUS
 62
     2
100
AcDbLine
 39
96.0
 10
35.0015
 20
36.753599
 30
0.0
 11
35.0015
 21
36.753599
 31
0.0
  0
LINE
  5
92F
100
AcDbEntity
  8
BORDER
  6
CONTINUOUS
 62
     2
100
AcDbLine
 39
96.0
 10
34.53275
 20
36.753599
 30
0.0
 11
34.53275
 21
36.753599
 31
0.0
  0
LINE
  5
930
100
AcDbEntity
  8
BORDER
  6
CONTINUOUS
 62
     2
100
AcDbLine
 39
96.0
 10
34.064
 20
36.753599
 30
0.0
 11
34.064
 21
36.753599
 31
0.0
  0
LINE
  5
931
100
AcDbEntity
  8
BORDER
  6
CONTINUOUS
 62
     2
100
AcDbLine
 39
96.0
 10
33.59525
 20
36.753599
 30
0.0
 11
33.59525
 21
36.753599
 31
0.0
  0
LINE
  5
932
100
AcDbEntity
  8
BORDER
  6
CONTINUOUS
 62
     2
100
AcDbLine
 39
96.0
 10
35.23587
 20
37.222349
 30
0.0
 11
35.23587
 21
37.222349
 31
0.0
  0
LINE
  5
933
100
AcDbEntity
  8
BORDER
  6
CONTINUOUS
 62
     2
100
AcDbLine
 39
96.0
 10
34.76712
 20
37.222349
 30
0.0
 11
34.76712
 21
37.222349
 31
0.0
  0
LINE
  5
934
100
AcDbEntity
  8
BORDER
  6
CONTINUOUS
 62
     2
100
AcDbLine
 39
96.0
 10
34.29837
 20
37.222349
 30
0.0
 11
34.29837
 21
37.222349
 31
0.0
  0
LINE
  5
935
100
AcDbEntity
  8
BORDER
  6
CONTINUOUS
 62
     2
100
AcDbLine
 39
96.0
 10
33.82962
 20
37.222349
 30
0.0
 11
33.82962
 21
37.222349
 31
0.0
  0
LINE
  5
936
100
AcDbEntity
  8
BORDER
  6
CONTINUOUS
 62
     2
100
AcDbLine
 39
96.0
 10
35.0015
 20
37.691099
 30
0.0
 11
35.0015
 21
37.691099
 31
0.0
  0
LINE
  5
937
100
AcDbEntity
  8
BORDER
  6
CONTINUOUS
 62
     2
100
AcDbLine
 39
96.0
 10
34.53275
 20
37.691099
 30
0.0
 11
34.53275
 21
37.691099
 31
0.0
  0
LINE
  5
938
100
AcDbEntity
  8
BORDER
  6
CONTINUOUS
 62
     2
100
AcDbLine
 39
96.0
 10
34.064
 20
37.691099
 30
0.0
 11
34.064
 21
37.691099
 31
0.0
  0
LINE
  5
939
100
AcDbEntity
  8
BORDER
  6
CONTINUOUS
 62
     2
100
AcDbLine
 39
96.0
 10
33.59525
 20
37.691099
 30
0.0
 11
33.59525
 21
37.691099
 31
0.0
  0
LINE
  5
93A
100
AcDbEntity
  8
BORDER
  6
CONTINUOUS
 62
     2
100
AcDbLine
 39
96.0
 10
35.23587
 20
38.159849
 30
0.0
 11
35.23587
 21
38.159849
 31
0.0
  0
LINE
  5
93B
100
AcDbEntity
  8
BORDER
  6
CONTINUOUS
 62
     2
100
AcDbLine
 39
96.0
 10
34.76712
 20
38.159849
 30
0.0
 11
34.76712
 21
38.159849
 31
0.0
  0
LINE
  5
93C
100
AcDbEntity
  8
BORDER
  6
CONTINUOUS
 62
     2
100
AcDbLine
 39
96.0
 10
34.29837
 20
38.159849
 30
0.0
 11
34.29837
 21
38.159849
 31
0.0
  0
LINE
  5
93D
100
AcDbEntity
  8
BORDER
  6
CONTINUOUS
 62
     2
100
AcDbLine
 39
96.0
 10
33.82962
 20
38.159849
 30
0.0
 11
33.82962
 21
38.159849
 31
0.0
  0
LINE
  5
93E
100
AcDbEntity
  8
BORDER
  6
CONTINUOUS
 62
     2
100
AcDbLine
 39
96.0
 10
35.0015
 20
38.628599
 30
0.0
 11
35.0015
 21
38.628599
 31
0.0
  0
LINE
  5
93F
100
AcDbEntity
  8
BORDER
  6
CONTINUOUS
 62
     2
100
AcDbLine
 39
96.0
 10
34.53275
 20
38.628599
 30
0.0
 11
34.53275
 21
38.628599
 31
0.0
  0
LINE
  5
940
100
AcDbEntity
  8
BORDER
  6
CONTINUOUS
 62
     2
100
AcDbLine
 39
96.0
 10
34.064
 20
38.628599
 30
0.0
 11
34.064
 21
38.628599
 31
0.0
  0
LINE
  5
941
100
AcDbEntity
  8
BORDER
  6
CONTINUOUS
 62
     2
100
AcDbLine
 39
96.0
 10
33.59525
 20
38.628599
 30
0.0
 11
33.59525
 21
38.628599
 31
0.0
  0
LINE
  5
942
100
AcDbEntity
  8
BORDER
  6
CONTINUOUS
 62
     2
100
AcDbLine
 39
96.0
 10
35.23587
 20
39.097349
 30
0.0
 11
35.23587
 21
39.097349
 31
0.0
  0
LINE
  5
943
100
AcDbEntity
  8
BORDER
  6
CONTINUOUS
 62
     2
100
AcDbLine
 39
96.0
 10
34.76712
 20
39.097349
 30
0.0
 11
34.76712
 21
39.097349
 31
0.0
  0
LINE
  5
944
100
AcDbEntity
  8
BORDER
  6
CONTINUOUS
 62
     2
100
AcDbLine
 39
96.0
 10
34.29837
 20
39.097349
 30
0.0
 11
34.29837
 21
39.097349
 31
0.0
  0
LINE
  5
945
100
AcDbEntity
  8
BORDER
  6
CONTINUOUS
 62
     2
100
AcDbLine
 39
96.0
 10
33.82962
 20
39.097349
 30
0.0
 11
33.82962
 21
39.097349
 31
0.0
  0
LINE
  5
946
100
AcDbEntity
  8
BORDER
  6
CONTINUOUS
 62
     2
100
AcDbLine
 39
96.0
 10
35.0015
 20
39.566099
 30
0.0
 11
35.0015
 21
39.566099
 31
0.0
  0
LINE
  5
947
100
AcDbEntity
  8
BORDER
  6
CONTINUOUS
 62
     2
100
AcDbLine
 39
96.0
 10
34.53275
 20
39.566099
 30
0.0
 11
34.53275
 21
39.566099
 31
0.0
  0
LINE
  5
948
100
AcDbEntity
  8
BORDER
  6
CONTINUOUS
 62
     2
100
AcDbLine
 39
96.0
 10
34.064
 20
39.566099
 30
0.0
 11
34.064
 21
39.566099
 31
0.0
  0
LINE
  5
949
100
AcDbEntity
  8
BORDER
  6
CONTINUOUS
 62
     2
100
AcDbLine
 39
96.0
 10
33.59525
 20
39.566099
 30
0.0
 11
33.59525
 21
39.566099
 31
0.0
  0
LINE
  5
94A
100
AcDbEntity
  8
BORDER
  6
CONTINUOUS
 62
     2
100
AcDbLine
 39
96.0
 10
35.23587
 20
40.034849
 30
0.0
 11
35.23587
 21
40.034849
 31
0.0
  0
LINE
  5
94B
100
AcDbEntity
  8
BORDER
  6
CONTINUOUS
 62
     2
100
AcDbLine
 39
96.0
 10
34.76712
 20
40.034849
 30
0.0
 11
34.76712
 21
40.034849
 31
0.0
  0
LINE
  5
94C
100
AcDbEntity
  8
BORDER
  6
CONTINUOUS
 62
     2
100
AcDbLine
 39
96.0
 10
34.29837
 20
40.034849
 30
0.0
 11
34.29837
 21
40.034849
 31
0.0
  0
LINE
  5
94D
100
AcDbEntity
  8
BORDER
  6
CONTINUOUS
 62
     2
100
AcDbLine
 39
96.0
 10
33.82962
 20
40.034849
 30
0.0
 11
33.82962
 21
40.034849
 31
0.0
  0
LINE
  5
94E
100
AcDbEntity
  8
BORDER
  6
CONTINUOUS
 62
     2
100
AcDbLine
 39
96.0
 10
35.0015
 20
40.503599
 30
0.0
 11
35.0015
 21
40.503599
 31
0.0
  0
LINE
  5
94F
100
AcDbEntity
  8
BORDER
  6
CONTINUOUS
 62
     2
100
AcDbLine
 39
96.0
 10
34.53275
 20
40.503599
 30
0.0
 11
34.53275
 21
40.503599
 31
0.0
  0
LINE
  5
950
100
AcDbEntity
  8
BORDER
  6
CONTINUOUS
 62
     2
100
AcDbLine
 39
96.0
 10
34.064
 20
40.503599
 30
0.0
 11
34.064
 21
40.503599
 31
0.0
  0
LINE
  5
951
100
AcDbEntity
  8
BORDER
  6
CONTINUOUS
 62
     2
100
AcDbLine
 39
96.0
 10
33.59525
 20
40.503599
 30
0.0
 11
33.59525
 21
40.503599
 31
0.0
  0
LINE
  5
952
100
AcDbEntity
  8
BORDER
  6
CONTINUOUS
 62
     2
100
AcDbLine
 39
96.0
 10
35.23587
 20
40.972349
 30
0.0
 11
35.23587
 21
40.972349
 31
0.0
  0
LINE
  5
953
100
AcDbEntity
  8
BORDER
  6
CONTINUOUS
 62
     2
100
AcDbLine
 39
96.0
 10
34.76712
 20
40.972349
 30
0.0
 11
34.76712
 21
40.972349
 31
0.0
  0
LINE
  5
954
100
AcDbEntity
  8
BORDER
  6
CONTINUOUS
 62
     2
100
AcDbLine
 39
96.0
 10
34.29837
 20
40.972349
 30
0.0
 11
34.29837
 21
40.972349
 31
0.0
  0
LINE
  5
955
100
AcDbEntity
  8
BORDER
  6
CONTINUOUS
 62
     2
100
AcDbLine
 39
96.0
 10
33.82962
 20
40.972349
 30
0.0
 11
33.82962
 21
40.972349
 31
0.0
  0
LINE
  5
956
100
AcDbEntity
  8
BORDER
  6
CONTINUOUS
 62
     2
100
AcDbLine
 39
96.0
 10
35.0015
 20
41.441099
 30
0.0
 11
35.0015
 21
41.441099
 31
0.0
  0
LINE
  5
957
100
AcDbEntity
  8
BORDER
  6
CONTINUOUS
 62
     2
100
AcDbLine
 39
96.0
 10
34.53275
 20
41.441099
 30
0.0
 11
34.53275
 21
41.441099
 31
0.0
  0
LINE
  5
958
100
AcDbEntity
  8
BORDER
  6
CONTINUOUS
 62
     2
100
AcDbLine
 39
96.0
 10
34.064
 20
41.441099
 30
0.0
 11
34.064
 21
41.441099
 31
0.0
  0
LINE
  5
959
100
AcDbEntity
  8
BORDER
  6
CONTINUOUS
 62
     2
100
AcDbLine
 39
96.0
 10
33.59525
 20
41.441099
 30
0.0
 11
33.59525
 21
41.441099
 31
0.0
  0
LINE
  5
95A
100
AcDbEntity
  8
BORDER
  6
CONTINUOUS
 62
     2
100
AcDbLine
 39
96.0
 10
35.23587
 20
41.909849
 30
0.0
 11
35.23587
 21
41.909849
 31
0.0
  0
LINE
  5
95B
100
AcDbEntity
  8
BORDER
  6
CONTINUOUS
 62
     2
100
AcDbLine
 39
96.0
 10
34.76712
 20
41.909849
 30
0.0
 11
34.76712
 21
41.909849
 31
0.0
  0
LINE
  5
95C
100
AcDbEntity
  8
BORDER
  6
CONTINUOUS
 62
     2
100
AcDbLine
 39
96.0
 10
34.29837
 20
41.909849
 30
0.0
 11
34.29837
 21
41.909849
 31
0.0
  0
LINE
  5
95D
100
AcDbEntity
  8
BORDER
  6
CONTINUOUS
 62
     2
100
AcDbLine
 39
96.0
 10
33.82962
 20
41.909849
 30
0.0
 11
33.82962
 21
41.909849
 31
0.0
  0
LINE
  5
95E
100
AcDbEntity
  8
BORDER
  6
CONTINUOUS
 62
     2
100
AcDbLine
 39
96.0
 10
35.0015
 20
42.378599
 30
0.0
 11
35.0015
 21
42.378599
 31
0.0
  0
LINE
  5
95F
100
AcDbEntity
  8
BORDER
  6
CONTINUOUS
 62
     2
100
AcDbLine
 39
96.0
 10
34.53275
 20
42.378599
 30
0.0
 11
34.53275
 21
42.378599
 31
0.0
  0
LINE
  5
960
100
AcDbEntity
  8
BORDER
  6
CONTINUOUS
 62
     2
100
AcDbLine
 39
96.0
 10
34.064
 20
42.378599
 30
0.0
 11
34.064
 21
42.378599
 31
0.0
  0
LINE
  5
961
100
AcDbEntity
  8
BORDER
  6
CONTINUOUS
 62
     2
100
AcDbLine
 39
96.0
 10
33.59525
 20
42.378599
 30
0.0
 11
33.59525
 21
42.378599
 31
0.0
  0
LINE
  5
962
100
AcDbEntity
  8
BORDER
  6
CONTINUOUS
 62
     2
100
AcDbLine
 39
96.0
 10
35.23587
 20
42.847349
 30
0.0
 11
35.23587
 21
42.847349
 31
0.0
  0
LINE
  5
963
100
AcDbEntity
  8
BORDER
  6
CONTINUOUS
 62
     2
100
AcDbLine
 39
96.0
 10
34.76712
 20
42.847349
 30
0.0
 11
34.76712
 21
42.847349
 31
0.0
  0
LINE
  5
964
100
AcDbEntity
  8
BORDER
  6
CONTINUOUS
 62
     2
100
AcDbLine
 39
96.0
 10
34.29837
 20
42.847349
 30
0.0
 11
34.29837
 21
42.847349
 31
0.0
  0
LINE
  5
965
100
AcDbEntity
  8
BORDER
  6
CONTINUOUS
 62
     2
100
AcDbLine
 39
96.0
 10
33.82962
 20
42.847349
 30
0.0
 11
33.82962
 21
42.847349
 31
0.0
  0
LINE
  5
966
100
AcDbEntity
  8
BORDER
  6
CONTINUOUS
 62
     2
100
AcDbLine
 39
96.0
 10
35.0015
 20
43.316099
 30
0.0
 11
35.0015
 21
43.316099
 31
0.0
  0
LINE
  5
967
100
AcDbEntity
  8
BORDER
  6
CONTINUOUS
 62
     2
100
AcDbLine
 39
96.0
 10
34.53275
 20
43.316099
 30
0.0
 11
34.53275
 21
43.316099
 31
0.0
  0
LINE
  5
968
100
AcDbEntity
  8
BORDER
  6
CONTINUOUS
 62
     2
100
AcDbLine
 39
96.0
 10
34.064
 20
43.316099
 30
0.0
 11
34.064
 21
43.316099
 31
0.0
  0
LINE
  5
969
100
AcDbEntity
  8
BORDER
  6
CONTINUOUS
 62
     2
100
AcDbLine
 39
96.0
 10
33.59525
 20
43.316099
 30
0.0
 11
33.59525
 21
43.316099
 31
0.0
  0
LINE
  5
96A
100
AcDbEntity
  8
BORDER
  6
CONTINUOUS
 62
     2
100
AcDbLine
 39
96.0
 10
35.23587
 20
43.784849
 30
0.0
 11
35.23587
 21
43.784849
 31
0.0
  0
LINE
  5
96B
100
AcDbEntity
  8
BORDER
  6
CONTINUOUS
 62
     2
100
AcDbLine
 39
96.0
 10
34.76712
 20
43.784849
 30
0.0
 11
34.76712
 21
43.784849
 31
0.0
  0
LINE
  5
96C
100
AcDbEntity
  8
BORDER
  6
CONTINUOUS
 62
     2
100
AcDbLine
 39
96.0
 10
34.29837
 20
43.784849
 30
0.0
 11
34.29837
 21
43.784849
 31
0.0
  0
LINE
  5
96D
100
AcDbEntity
  8
BORDER
  6
CONTINUOUS
 62
     2
100
AcDbLine
 39
96.0
 10
33.82962
 20
43.784849
 30
0.0
 11
33.82962
 21
43.784849
 31
0.0
  0
LINE
  5
96E
100
AcDbEntity
  8
BORDER
  6
CONTINUOUS
 62
     2
100
AcDbLine
 39
96.0
 10
35.0015
 20
44.253599
 30
0.0
 11
35.0015
 21
44.253599
 31
0.0
  0
LINE
  5
96F
100
AcDbEntity
  8
BORDER
  6
CONTINUOUS
 62
     2
100
AcDbLine
 39
96.0
 10
34.53275
 20
44.253599
 30
0.0
 11
34.53275
 21
44.253599
 31
0.0
  0
LINE
  5
970
100
AcDbEntity
  8
BORDER
  6
CONTINUOUS
 62
     2
100
AcDbLine
 39
96.0
 10
34.064
 20
44.253599
 30
0.0
 11
34.064
 21
44.253599
 31
0.0
  0
LINE
  5
971
100
AcDbEntity
  8
BORDER
  6
CONTINUOUS
 62
     2
100
AcDbLine
 39
96.0
 10
33.59525
 20
44.253599
 30
0.0
 11
33.59525
 21
44.253599
 31
0.0
  0
LINE
  5
972
100
AcDbEntity
  8
BORDER
  6
CONTINUOUS
 62
     2
100
AcDbLine
 39
96.0
 10
35.23587
 20
44.722349
 30
0.0
 11
35.23587
 21
44.722349
 31
0.0
  0
LINE
  5
973
100
AcDbEntity
  8
BORDER
  6
CONTINUOUS
 62
     2
100
AcDbLine
 39
96.0
 10
34.76712
 20
44.722349
 30
0.0
 11
34.76712
 21
44.722349
 31
0.0
  0
LINE
  5
974
100
AcDbEntity
  8
BORDER
  6
CONTINUOUS
 62
     2
100
AcDbLine
 39
96.0
 10
34.29837
 20
44.722349
 30
0.0
 11
34.29837
 21
44.722349
 31
0.0
  0
LINE
  5
975
100
AcDbEntity
  8
BORDER
  6
CONTINUOUS
 62
     2
100
AcDbLine
 39
96.0
 10
33.82962
 20
44.722349
 30
0.0
 11
33.82962
 21
44.722349
 31
0.0
  0
LINE
  5
976
100
AcDbEntity
  8
BORDER
  6
CONTINUOUS
 62
     2
100
AcDbLine
 39
96.0
 10
35.0015
 20
45.191099
 30
0.0
 11
35.0015
 21
45.191099
 31
0.0
  0
LINE
  5
977
100
AcDbEntity
  8
BORDER
  6
CONTINUOUS
 62
     2
100
AcDbLine
 39
96.0
 10
34.53275
 20
45.191099
 30
0.0
 11
34.53275
 21
45.191099
 31
0.0
  0
LINE
  5
978
100
AcDbEntity
  8
BORDER
  6
CONTINUOUS
 62
     2
100
AcDbLine
 39
96.0
 10
34.064
 20
45.191099
 30
0.0
 11
34.064
 21
45.191099
 31
0.0
  0
LINE
  5
979
100
AcDbEntity
  8
BORDER
  6
CONTINUOUS
 62
     2
100
AcDbLine
 39
96.0
 10
33.59525
 20
45.191099
 30
0.0
 11
33.59525
 21
45.191099
 31
0.0
  0
LINE
  5
97A
100
AcDbEntity
  8
BORDER
  6
CONTINUOUS
 62
     1
100
AcDbLine
 39
96.0
 10
41.4495
 20
34.640569
 30
0.0
 11
41.46024
 21
34.702089
 31
0.0
  0
LINE
  5
97B
100
AcDbEntity
  8
BORDER
  6
CONTINUOUS
 62
     1
100
AcDbLine
 39
96.0
 10
41.01541
 20
32.178529
 30
0.0
 11
41.02616
 21
32.240049
 31
0.0
  0
LINE
  5
97C
100
AcDbEntity
  8
BORDER
  6
CONTINUOUS
 62
     1
100
AcDbLine
 39
96.0
 10
40.28983
 20
42.460759
 30
0.0
 11
40.30057
 21
42.522279
 31
0.0
  0
LINE
  5
97D
100
AcDbEntity
  8
BORDER
  6
CONTINUOUS
 62
     1
100
AcDbLine
 39
96.0
 10
39.85575
 20
39.998719
 30
0.0
 11
39.86649
 21
40.060239
 31
0.0
  0
LINE
  5
97E
100
AcDbEntity
  8
BORDER
  6
CONTINUOUS
 62
     1
100
AcDbLine
 39
96.0
 10
39.42166
 20
37.536679
 30
0.0
 11
39.43241
 21
37.598209
 31
0.0
  0
LINE
  5
97F
100
AcDbEntity
  8
BORDER
  6
CONTINUOUS
 62
     1
100
AcDbLine
 39
96.0
 10
38.98758
 20
35.074649
 30
0.0
 11
38.99832
 21
35.136169
 31
0.0
  0
LINE
  5
980
100
AcDbEntity
  8
BORDER
  6
CONTINUOUS
 62
     1
100
AcDbLine
 39
96.0
 10
37.39408
 20
40.432799
 30
0.0
 11
37.40482
 21
40.494319
 31
0.0
  0
LINE
  5
981
100
AcDbEntity
  8
BORDER
  6
CONTINUOUS
 62
     1
100
AcDbLine
 39
96.0
 10
36.95999
 20
37.970769
 30
0.0
 11
36.97074
 21
38.032289
 31
0.0
  0
LINE
  5
982
100
AcDbEntity
  8
BORDER
  6
CONTINUOUS
 62
     1
100
AcDbLine
 39
96.0
 10
36.52591
 20
35.508729
 30
0.0
 11
36.53665
 21
35.570249
 31
0.0
  0
LINE
  5
983
100
AcDbEntity
  8
BORDER
  6
CONTINUOUS
 62
     1
100
AcDbLine
 39
96.0
 10
36.09183
 20
33.046689
 30
0.0
 11
36.10257
 21
33.108219
 31
0.0
  0
LINE
  5
984
100
AcDbEntity
  8
BORDER
  6
CONTINUOUS
 62
     1
100
AcDbLine
 39
96.0
 10
35.36624
 20
43.328919
 30
0.0
 11
35.37699
 21
43.390439
 31
0.0
  0
LINE
  5
985
100
AcDbEntity
  8
BORDER
  6
CONTINUOUS
 62
     1
100
AcDbLine
 39
96.0
 10
41.37113
 20
33.036929
 30
0.0
 11
41.40702
 21
33.088139
 31
0.0
  0
LINE
  5
986
100
AcDbEntity
  8
BORDER
  6
CONTINUOUS
 62
     1
100
AcDbLine
 39
96.0
 10
40.7576
 20
36.518619
 30
0.0
 11
40.79349
 21
36.569759
 31
0.0
  0
LINE
  5
987
100
AcDbEntity
  8
BORDER
  6
CONTINUOUS
 62
     1
100
AcDbLine
 39
96.0
 10
39.32352
 20
34.470699
 30
0.0
 11
39.35941
 21
34.521909
 31
0.0
  0
LINE
  5
988
100
AcDbEntity
  8
BORDER
  6
CONTINUOUS
 62
     1
100
AcDbLine
 39
96.0
 10
40.14383
 20
40.000429
 30
0.0
 11
40.17972
 21
40.051579
 31
0.0
  0
LINE
  5
989
100
AcDbEntity
  8
BORDER
  6
CONTINUOUS
 62
     1
100
AcDbLine
 39
96.0
 10
38.70975
 20
37.952519
 30
0.0
 11
38.74564
 21
38.003719
 31
0.0
  0
LINE
  5
98A
100
AcDbEntity
  8
BORDER
  6
CONTINUOUS
 62
     1
100
AcDbLine
 39
96.0
 10
37.27567
 20
35.904599
 30
0.0
 11
37.31156
 21
35.955869
 31
0.0
  0
LINE
  5
98B
100
AcDbEntity
  8
BORDER
  6
CONTINUOUS
 62
     1
100
AcDbLine
 39
96.0
 10
35.84159
 20
33.856749
 30
0.0
 11
35.87747
 21
33.907959
 31
0.0
  0
LINE
  5
98C
100
AcDbEntity
  8
BORDER
  6
CONTINUOUS
 62
     1
100
AcDbLine
 39
96.0
 10
38.09598
 20
41.434269
 30
0.0
 11
38.13187
 21
41.485469
 31
0.0
  0
LINE
  5
98D
100
AcDbEntity
  8
BORDER
  6
CONTINUOUS
 62
     1
100
AcDbLine
 39
96.0
 10
36.6619
 20
39.386409
 30
0.0
 11
36.69779
 21
39.437559
 31
0.0
  0
LINE
  5
98E
100
AcDbEntity
  8
BORDER
  6
CONTINUOUS
 62
     1
100
AcDbLine
 39
96.0
 10
36.04788
 20
42.868229
 30
0.0
 11
36.08377
 21
42.919429
 31
0.0
  0
LINE
  5
98F
100
AcDbEntity
  8
BORDER
  6
CONTINUOUS
 62
     1
100
AcDbLine
 39
96.0
 10
40.70536
 20
32.619449
 30
0.0
 11
40.76419
 21
32.640809
 31
0.0
  0
LINE
  5
990
100
AcDbEntity
  8
BORDER
  6
CONTINUOUS
 62
     1
100
AcDbLine
 39
96.0
 10
39.85062
 20
34.968689
 30
0.0
 11
39.90946
 21
34.990049
 31
0.0
  0
LINE
  5
991
100
AcDbEntity
  8
BORDER
  6
CONTINUOUS
 62
     1
100
AcDbLine
 39
96.0
 10
37.50125
 20
34.113589
 30
0.0
 11
37.56009
 21
34.134949
 31
0.0
  0
LINE
  5
992
100
AcDbEntity
  8
BORDER
  6
CONTINUOUS
 62
     1
100
AcDbLine
 39
96.0
 10
41.345
 20
38.172909
 30
0.0
 11
41.40384
 21
38.194279
 31
0.0
  0
LINE
  5
993
100
AcDbEntity
  8
BORDER
  6
CONTINUOUS
 62
     1
100
AcDbLine
 39
96.0
 10
38.99564
 20
37.317869
 30
0.0
 11
39.05448
 21
37.339229
 31
0.0
  0
LINE
  5
994
100
AcDbEntity
  8
BORDER
  6
CONTINUOUS
 62
     1
100
AcDbLine
 39
96.0
 10
36.64627
 20
36.462829
 30
0.0
 11
36.70511
 21
36.484189
 31
0.0
  0
LINE
  5
995
100
AcDbEntity
  8
BORDER
  6
CONTINUOUS
 62
     1
100
AcDbLine
 39
96.0
 10
40.49002
 20
40.522159
 30
0.0
 11
40.54886
 21
40.543519
 31
0.0
  0
LINE
  5
996
100
AcDbEntity
  8
BORDER
  6
CONTINUOUS
 62
     1
100
AcDbLine
 39
96.0
 10
38.14066
 20
39.667119
 30
0.0
 11
38.1995
 21
39.688479
 31
0.0
  0
LINE
  5
997
100
AcDbEntity
  8
BORDER
  6
CONTINUOUS
 62
     1
100
AcDbLine
 39
96.0
 10
35.79129
 20
38.812069
 30
0.0
 11
35.85013
 21
38.833439
 31
0.0
  0
LINE
  5
998
100
AcDbEntity
  8
BORDER
  6
CONTINUOUS
 62
     1
100
AcDbLine
 39
96.0
 10
37.28568
 20
42.016419
 30
0.0
 11
37.34452
 21
42.037779
 31
0.0
  0
LINE
  5
999
100
AcDbEntity
  8
BORDER
  6
CONTINUOUS
 62
     3
100
AcDbLine
 39
96.0
 10
41.50785
 20
30.326909
 30
0.0
 11
43.38285
 21
30.326909
 31
0.0
  0
LINE
  5
99A
100
AcDbEntity
  8
BORDER
  6
CONTINUOUS
 62
     3
100
AcDbLine
 39
96.0
 10
35.25785
 20
45.326909
 30
0.0
 11
33.38285
 21
45.326909
 31
0.0
  0
ARC
  5
99B
100
AcDbEntity
  8
BORDER
  6
CONTINUOUS
 62
     3
100
AcDbCircle
 39
96.0
 10
38.38285
 20
45.326909
 30
0.0
 40
3.0
100
AcDbArc
 50
180.0
 51
0.0
  0
ARC
  5
99C
100
AcDbEntity
  8
BORDER
  6
CONTINUOUS
 62
     3
100
AcDbCircle
 39
96.0
 10
38.38285
 20
30.326909
 30
0.0
 40
3.0
100
AcDbArc
 50
0.0
 51
180.0
  0
LINE
  5
99D
100
AcDbEntity
  8
BORDER
  6
CONTINUOUS
 62
     3
100
AcDbLine
 39
96.0
 10
41.50785
 20
30.326909
 30
0.0
 11
41.50785
 21
45.326909
 31
0.0
  0
LINE
  5
99E
100
AcDbEntity
  8
BORDER
  6
CONTINUOUS
 62
     3
100
AcDbLine
 39
96.0
 10
35.25785
 20
45.326909
 30
0.0
 11
35.25785
 21
30.326909
 31
0.0
  0
LINE
  5
99F
100
AcDbEntity
  8
BORDER
  6
CONTINUOUS
 62
     3
100
AcDbLine
 39
96.0
 10
33.38285
 20
45.326909
 30
0.0
 11
33.38285
 21
30.326909
 31
0.0
  0
LINE
  5
9A0
100
AcDbEntity
  8
BORDER
  6
CONTINUOUS
 62
     3
100
AcDbLine
 39
96.0
 10
43.38285
 20
45.326909
 30
0.0
 11
41.50785
 21
45.326909
 31
0.0
  0
LINE
  5
9A1
100
AcDbEntity
  8
BORDER
  6
CONTINUOUS
 62
     3
100
AcDbLine
 39
96.0
 10
43.38285
 20
30.326909
 30
0.0
 11
43.38285
 21
45.326909
 31
0.0
  0
LINE
  5
9A2
100
AcDbEntity
  8
BORDER
  6
CONTINUOUS
 62
     3
100
AcDbLine
 39
96.0
 10
33.38285
 20
30.326909
 30
0.0
 11
35.25785
 21
30.326909
 31
0.0
  0
LINE
  5
9A3
100
AcDbEntity
  8
BORDER
  6
CONTINUOUS
 62
     3
100
AcDbLine
 39
96.0
 10
35.25785
 20
30.326909
 30
0.0
 11
33.38285
 21
30.326909
 31
0.0
  0
LINE
  5
9A4
100
AcDbEntity
  8
BORDER
  6
CONTINUOUS
 62
     3
100
AcDbLine
 39
96.0
 10
43.38285
 20
30.326909
 30
0.0
 11
41.50785
 21
30.326909
 31
0.0
  0
LINE
  5
9A5
100
AcDbEntity
  8
BORDER
  6
CONTINUOUS
 62
    15
100
AcDbLine
 39
96.0
 10
35.38285
 20
60.312649
 30
0.0
 11
41.38285
 21
60.312649
 31
0.0
  0
LINE
  5
9A6
100
AcDbEntity
  8
BORDER
  6
CONTINUOUS
 62
     1
100
AcDbLine
 39
96.0
 10
38.70975
 20
46.278439
 30
0.0
 11
38.74564
 21
46.329649
 31
0.0
  0
LINE
  5
9A7
100
AcDbEntity
  8
BORDER
  6
CONTINUOUS
 62
     1
100
AcDbLine
 39
96.0
 10
39.42166
 20
45.862609
 30
0.0
 11
39.43241
 21
45.924129
 31
0.0
  0
LINE
  5
9A8
100
AcDbEntity
  8
BORDER
  6
CONTINUOUS
 62
     1
100
AcDbLine
 39
96.0
 10
38.99564
 20
45.643799
 30
0.0
 11
39.05448
 21
45.665159
 31
0.0
  0
LINE
  5
9A9
100
AcDbEntity
  8
BORDER
  6
CONTINUOUS
 62
    10
100
AcDbLine
 39
96.0
 10
37.48807
 20
58.066249
 30
0.0
 11
37.4744
 21
57.989349
 31
0.0
  0
LINE
  5
9AA
100
AcDbEntity
  8
BORDER
  6
CONTINUOUS
 62
    10
100
AcDbLine
 39
96.0
 10
38.63333
 20
59.039049
 30
0.0
 11
38.58841
 21
58.975049
 31
0.0
  0
LINE
  5
9AB
100
AcDbEntity
  8
BORDER
  6
CONTINUOUS
 62
    10
100
AcDbLine
 39
96.0
 10
38.90213
 20
58.206349
 30
0.0
 11
38.82865
 21
58.179649
 31
0.0
  0
LINE
  5
9AC
100
AcDbEntity
  8
BORDER
  6
CONTINUOUS
 62
    10
100
AcDbLine
 39
96.0
 10
38.93485
 20
48.275649
 30
0.0
 11
38.92386
 21
48.214149
 31
0.0
  0
LINE
  5
9AD
100
AcDbEntity
  8
BORDER
  6
CONTINUOUS
 62
    10
100
AcDbLine
 39
96.0
 10
36.58328
 20
45.214659
 30
0.0
 11
36.53836
 21
45.150699
 31
0.0
  0
LINE
  5
9AE
100
AcDbEntity
  8
BORDER
  6
CONTINUOUS
 62
    10
100
AcDbLine
 39
96.0
 10
38.37577
 20
47.774539
 30
0.0
 11
38.33084
 21
47.710509
 31
0.0
  0
LINE
  5
9AF
100
AcDbEntity
  8
BORDER
  6
CONTINUOUS
 62
    10
100
AcDbLine
 39
96.0
 10
36.23563
 20
47.259029
 30
0.0
 11
36.16214
 21
47.232299
 31
0.0
  0
LINE
  5
9B0
100
AcDbEntity
  8
BORDER
  6
CONTINUOUS
 62
     3
100
AcDbLine
 39
96.0
 10
41.50785
 20
60.326949
 30
0.0
 11
43.38285
 21
60.326949
 31
0.0
  0
LINE
  5
9B1
100
AcDbEntity
  8
BORDER
  6
CONTINUOUS
 62
     3
100
AcDbLine
 39
96.0
 10
33.38285
 20
60.326949
 30
0.0
 11
35.25785
 21
60.326949
 31
0.0
  0
LINE
  5
9B2
100
AcDbEntity
  8
BORDER
  6
CONTINUOUS
 62
     2
100
AcDbLine
 39
96.0
 10
43.20462
 20
45.659849
 30
0.0
 11
43.20462
 21
45.659849
 31
0.0
  0
LINE
  5
9B3
100
AcDbEntity
  8
BORDER
  6
CONTINUOUS
 62
     2
100
AcDbLine
 39
96.0
 10
42.73587
 20
45.659849
 30
0.0
 11
42.73587
 21
45.659849
 31
0.0
  0
LINE
  5
9B4
100
AcDbEntity
  8
BORDER
  6
CONTINUOUS
 62
     2
100
AcDbLine
 39
96.0
 10
42.26712
 20
45.659849
 30
0.0
 11
42.26712
 21
45.659849
 31
0.0
  0
LINE
  5
9B5
100
AcDbEntity
  8
BORDER
  6
CONTINUOUS
 62
     2
100
AcDbLine
 39
96.0
 10
41.79837
 20
45.659849
 30
0.0
 11
41.79837
 21
45.659849
 31
0.0
  0
LINE
  5
9B6
100
AcDbEntity
  8
BORDER
  6
CONTINUOUS
 62
     2
100
AcDbLine
 39
96.0
 10
42.97025
 20
46.128599
 30
0.0
 11
42.97025
 21
46.128599
 31
0.0
  0
LINE
  5
9B7
100
AcDbEntity
  8
BORDER
  6
CONTINUOUS
 62
     2
100
AcDbLine
 39
96.0
 10
42.5015
 20
46.128599
 30
0.0
 11
42.5015
 21
46.128599
 31
0.0
  0
LINE
  5
9B8
100
AcDbEntity
  8
BORDER
  6
CONTINUOUS
 62
     2
100
AcDbLine
 39
96.0
 10
42.03275
 20
46.128599
 30
0.0
 11
42.03275
 21
46.128599
 31
0.0
  0
LINE
  5
9B9
100
AcDbEntity
  8
BORDER
  6
CONTINUOUS
 62
     2
100
AcDbLine
 39
96.0
 10
41.564
 20
46.128599
 30
0.0
 11
41.564
 21
46.128599
 31
0.0
  0
LINE
  5
9BA
100
AcDbEntity
  8
BORDER
  6
CONTINUOUS
 62
     2
100
AcDbLine
 39
96.0
 10
43.20462
 20
46.597349
 30
0.0
 11
43.20462
 21
46.597349
 31
0.0
  0
LINE
  5
9BB
100
AcDbEntity
  8
BORDER
  6
CONTINUOUS
 62
     2
100
AcDbLine
 39
96.0
 10
42.73587
 20
46.597349
 30
0.0
 11
42.73587
 21
46.597349
 31
0.0
  0
LINE
  5
9BC
100
AcDbEntity
  8
BORDER
  6
CONTINUOUS
 62
     2
100
AcDbLine
 39
96.0
 10
42.26712
 20
46.597349
 30
0.0
 11
42.26712
 21
46.597349
 31
0.0
  0
LINE
  5
9BD
100
AcDbEntity
  8
BORDER
  6
CONTINUOUS
 62
     2
100
AcDbLine
 39
96.0
 10
41.79837
 20
46.597349
 30
0.0
 11
41.79837
 21
46.597349
 31
0.0
  0
LINE
  5
9BE
100
AcDbEntity
  8
BORDER
  6
CONTINUOUS
 62
     2
100
AcDbLine
 39
96.0
 10
42.97025
 20
47.066099
 30
0.0
 11
42.97025
 21
47.066099
 31
0.0
  0
LINE
  5
9BF
100
AcDbEntity
  8
BORDER
  6
CONTINUOUS
 62
     2
100
AcDbLine
 39
96.0
 10
42.5015
 20
47.066099
 30
0.0
 11
42.5015
 21
47.066099
 31
0.0
  0
LINE
  5
9C0
100
AcDbEntity
  8
BORDER
  6
CONTINUOUS
 62
     2
100
AcDbLine
 39
96.0
 10
42.03275
 20
47.066099
 30
0.0
 11
42.03275
 21
47.066099
 31
0.0
  0
LINE
  5
9C1
100
AcDbEntity
  8
BORDER
  6
CONTINUOUS
 62
     2
100
AcDbLine
 39
96.0
 10
41.564
 20
47.066099
 30
0.0
 11
41.564
 21
47.066099
 31
0.0
  0
LINE
  5
9C2
100
AcDbEntity
  8
BORDER
  6
CONTINUOUS
 62
     2
100
AcDbLine
 39
96.0
 10
43.20462
 20
47.534849
 30
0.0
 11
43.20462
 21
47.534849
 31
0.0
  0
LINE
  5
9C3
100
AcDbEntity
  8
BORDER
  6
CONTINUOUS
 62
     2
100
AcDbLine
 39
96.0
 10
42.73587
 20
47.534849
 30
0.0
 11
42.73587
 21
47.534849
 31
0.0
  0
LINE
  5
9C4
100
AcDbEntity
  8
BORDER
  6
CONTINUOUS
 62
     2
100
AcDbLine
 39
96.0
 10
42.26712
 20
47.534849
 30
0.0
 11
42.26712
 21
47.534849
 31
0.0
  0
LINE
  5
9C5
100
AcDbEntity
  8
BORDER
  6
CONTINUOUS
 62
     2
100
AcDbLine
 39
96.0
 10
41.79837
 20
47.534849
 30
0.0
 11
41.79837
 21
47.534849
 31
0.0
  0
LINE
  5
9C6
100
AcDbEntity
  8
BORDER
  6
CONTINUOUS
 62
     2
100
AcDbLine
 39
96.0
 10
42.97025
 20
48.003599
 30
0.0
 11
42.97025
 21
48.003599
 31
0.0
  0
LINE
  5
9C7
100
AcDbEntity
  8
BORDER
  6
CONTINUOUS
 62
     2
100
AcDbLine
 39
96.0
 10
42.5015
 20
48.003599
 30
0.0
 11
42.5015
 21
48.003599
 31
0.0
  0
LINE
  5
9C8
100
AcDbEntity
  8
BORDER
  6
CONTINUOUS
 62
     2
100
AcDbLine
 39
96.0
 10
42.03275
 20
48.003599
 30
0.0
 11
42.03275
 21
48.003599
 31
0.0
  0
LINE
  5
9C9
100
AcDbEntity
  8
BORDER
  6
CONTINUOUS
 62
     2
100
AcDbLine
 39
96.0
 10
41.564
 20
48.003599
 30
0.0
 11
41.564
 21
48.003599
 31
0.0
  0
LINE
  5
9CA
100
AcDbEntity
  8
BORDER
  6
CONTINUOUS
 62
     2
100
AcDbLine
 39
96.0
 10
43.20462
 20
48.472349
 30
0.0
 11
43.20462
 21
48.472349
 31
0.0
  0
LINE
  5
9CB
100
AcDbEntity
  8
BORDER
  6
CONTINUOUS
 62
     2
100
AcDbLine
 39
96.0
 10
42.73587
 20
48.472349
 30
0.0
 11
42.73587
 21
48.472349
 31
0.0
  0
LINE
  5
9CC
100
AcDbEntity
  8
BORDER
  6
CONTINUOUS
 62
     2
100
AcDbLine
 39
96.0
 10
42.26712
 20
48.472349
 30
0.0
 11
42.26712
 21
48.472349
 31
0.0
  0
LINE
  5
9CD
100
AcDbEntity
  8
BORDER
  6
CONTINUOUS
 62
     2
100
AcDbLine
 39
96.0
 10
41.79837
 20
48.472349
 30
0.0
 11
41.79837
 21
48.472349
 31
0.0
  0
LINE
  5
9CE
100
AcDbEntity
  8
BORDER
  6
CONTINUOUS
 62
     2
100
AcDbLine
 39
96.0
 10
42.97025
 20
48.941149
 30
0.0
 11
42.97025
 21
48.941149
 31
0.0
  0
LINE
  5
9CF
100
AcDbEntity
  8
BORDER
  6
CONTINUOUS
 62
     2
100
AcDbLine
 39
96.0
 10
42.5015
 20
48.941149
 30
0.0
 11
42.5015
 21
48.941149
 31
0.0
  0
LINE
  5
9D0
100
AcDbEntity
  8
BORDER
  6
CONTINUOUS
 62
     2
100
AcDbLine
 39
96.0
 10
42.03275
 20
48.941149
 30
0.0
 11
42.03275
 21
48.941149
 31
0.0
  0
LINE
  5
9D1
100
AcDbEntity
  8
BORDER
  6
CONTINUOUS
 62
     2
100
AcDbLine
 39
96.0
 10
41.564
 20
48.941149
 30
0.0
 11
41.564
 21
48.941149
 31
0.0
  0
LINE
  5
9D2
100
AcDbEntity
  8
BORDER
  6
CONTINUOUS
 62
     2
100
AcDbLine
 39
96.0
 10
43.20462
 20
49.409849
 30
0.0
 11
43.20462
 21
49.409849
 31
0.0
  0
LINE
  5
9D3
100
AcDbEntity
  8
BORDER
  6
CONTINUOUS
 62
     2
100
AcDbLine
 39
96.0
 10
42.73587
 20
49.409849
 30
0.0
 11
42.73587
 21
49.409849
 31
0.0
  0
LINE
  5
9D4
100
AcDbEntity
  8
BORDER
  6
CONTINUOUS
 62
     2
100
AcDbLine
 39
96.0
 10
42.26712
 20
49.409849
 30
0.0
 11
42.26712
 21
49.409849
 31
0.0
  0
LINE
  5
9D5
100
AcDbEntity
  8
BORDER
  6
CONTINUOUS
 62
     2
100
AcDbLine
 39
96.0
 10
41.79837
 20
49.409849
 30
0.0
 11
41.79837
 21
49.409849
 31
0.0
  0
LINE
  5
9D6
100
AcDbEntity
  8
BORDER
  6
CONTINUOUS
 62
     2
100
AcDbLine
 39
96.0
 10
42.97025
 20
49.878649
 30
0.0
 11
42.97025
 21
49.878649
 31
0.0
  0
LINE
  5
9D7
100
AcDbEntity
  8
BORDER
  6
CONTINUOUS
 62
     2
100
AcDbLine
 39
96.0
 10
42.5015
 20
49.878649
 30
0.0
 11
42.5015
 21
49.878649
 31
0.0
  0
LINE
  5
9D8
100
AcDbEntity
  8
BORDER
  6
CONTINUOUS
 62
     2
100
AcDbLine
 39
96.0
 10
42.03275
 20
49.878649
 30
0.0
 11
42.03275
 21
49.878649
 31
0.0
  0
LINE
  5
9D9
100
AcDbEntity
  8
BORDER
  6
CONTINUOUS
 62
     2
100
AcDbLine
 39
96.0
 10
41.564
 20
49.878649
 30
0.0
 11
41.564
 21
49.878649
 31
0.0
  0
LINE
  5
9DA
100
AcDbEntity
  8
BORDER
  6
CONTINUOUS
 62
     2
100
AcDbLine
 39
96.0
 10
43.20462
 20
50.347349
 30
0.0
 11
43.20462
 21
50.347349
 31
0.0
  0
LINE
  5
9DB
100
AcDbEntity
  8
BORDER
  6
CONTINUOUS
 62
     2
100
AcDbLine
 39
96.0
 10
42.73587
 20
50.347349
 30
0.0
 11
42.73587
 21
50.347349
 31
0.0
  0
LINE
  5
9DC
100
AcDbEntity
  8
BORDER
  6
CONTINUOUS
 62
     2
100
AcDbLine
 39
96.0
 10
42.26712
 20
50.347349
 30
0.0
 11
42.26712
 21
50.347349
 31
0.0
  0
LINE
  5
9DD
100
AcDbEntity
  8
BORDER
  6
CONTINUOUS
 62
     2
100
AcDbLine
 39
96.0
 10
41.79837
 20
50.347349
 30
0.0
 11
41.79837
 21
50.347349
 31
0.0
  0
LINE
  5
9DE
100
AcDbEntity
  8
BORDER
  6
CONTINUOUS
 62
     2
100
AcDbLine
 39
96.0
 10
42.97025
 20
50.816149
 30
0.0
 11
42.97025
 21
50.816149
 31
0.0
  0
LINE
  5
9DF
100
AcDbEntity
  8
BORDER
  6
CONTINUOUS
 62
     2
100
AcDbLine
 39
96.0
 10
42.5015
 20
50.816149
 30
0.0
 11
42.5015
 21
50.816149
 31
0.0
  0
LINE
  5
9E0
100
AcDbEntity
  8
BORDER
  6
CONTINUOUS
 62
     2
100
AcDbLine
 39
96.0
 10
42.03275
 20
50.816149
 30
0.0
 11
42.03275
 21
50.816149
 31
0.0
  0
LINE
  5
9E1
100
AcDbEntity
  8
BORDER
  6
CONTINUOUS
 62
     2
100
AcDbLine
 39
96.0
 10
41.564
 20
50.816149
 30
0.0
 11
41.564
 21
50.816149
 31
0.0
  0
LINE
  5
9E2
100
AcDbEntity
  8
BORDER
  6
CONTINUOUS
 62
     2
100
AcDbLine
 39
96.0
 10
43.20462
 20
51.284849
 30
0.0
 11
43.20462
 21
51.284849
 31
0.0
  0
LINE
  5
9E3
100
AcDbEntity
  8
BORDER
  6
CONTINUOUS
 62
     2
100
AcDbLine
 39
96.0
 10
42.73587
 20
51.284849
 30
0.0
 11
42.73587
 21
51.284849
 31
0.0
  0
LINE
  5
9E4
100
AcDbEntity
  8
BORDER
  6
CONTINUOUS
 62
     2
100
AcDbLine
 39
96.0
 10
42.26712
 20
51.284849
 30
0.0
 11
42.26712
 21
51.284849
 31
0.0
  0
LINE
  5
9E5
100
AcDbEntity
  8
BORDER
  6
CONTINUOUS
 62
     2
100
AcDbLine
 39
96.0
 10
41.79837
 20
51.284849
 30
0.0
 11
41.79837
 21
51.284849
 31
0.0
  0
LINE
  5
9E6
100
AcDbEntity
  8
BORDER
  6
CONTINUOUS
 62
     2
100
AcDbLine
 39
96.0
 10
42.97025
 20
51.753649
 30
0.0
 11
42.97025
 21
51.753649
 31
0.0
  0
LINE
  5
9E7
100
AcDbEntity
  8
BORDER
  6
CONTINUOUS
 62
     2
100
AcDbLine
 39
96.0
 10
42.5015
 20
51.753649
 30
0.0
 11
42.5015
 21
51.753649
 31
0.0
  0
LINE
  5
9E8
100
AcDbEntity
  8
BORDER
  6
CONTINUOUS
 62
     2
100
AcDbLine
 39
96.0
 10
42.03275
 20
51.753649
 30
0.0
 11
42.03275
 21
51.753649
 31
0.0
  0
LINE
  5
9E9
100
AcDbEntity
  8
BORDER
  6
CONTINUOUS
 62
     2
100
AcDbLine
 39
96.0
 10
41.564
 20
51.753649
 30
0.0
 11
41.564
 21
51.753649
 31
0.0
  0
LINE
  5
9EA
100
AcDbEntity
  8
BORDER
  6
CONTINUOUS
 62
     2
100
AcDbLine
 39
96.0
 10
42.97025
 20
55.503649
 30
0.0
 11
42.97025
 21
55.503649
 31
0.0
  0
LINE
  5
9EB
100
AcDbEntity
  8
BORDER
  6
CONTINUOUS
 62
     2
100
AcDbLine
 39
96.0
 10
42.5015
 20
55.503649
 30
0.0
 11
42.5015
 21
55.503649
 31
0.0
  0
LINE
  5
9EC
100
AcDbEntity
  8
BORDER
  6
CONTINUOUS
 62
     2
100
AcDbLine
 39
96.0
 10
42.03275
 20
55.503649
 30
0.0
 11
42.03275
 21
55.503649
 31
0.0
  0
LINE
  5
9ED
100
AcDbEntity
  8
BORDER
  6
CONTINUOUS
 62
     2
100
AcDbLine
 39
96.0
 10
41.564
 20
55.503649
 30
0.0
 11
41.564
 21
55.503649
 31
0.0
  0
LINE
  5
9EE
100
AcDbEntity
  8
BORDER
  6
CONTINUOUS
 62
     2
100
AcDbLine
 39
96.0
 10
43.20462
 20
55.972349
 30
0.0
 11
43.20462
 21
55.972349
 31
0.0
  0
LINE
  5
9EF
100
AcDbEntity
  8
BORDER
  6
CONTINUOUS
 62
     2
100
AcDbLine
 39
96.0
 10
42.73587
 20
55.972349
 30
0.0
 11
42.73587
 21
55.972349
 31
0.0
  0
LINE
  5
9F0
100
AcDbEntity
  8
BORDER
  6
CONTINUOUS
 62
     2
100
AcDbLine
 39
96.0
 10
42.26712
 20
55.972349
 30
0.0
 11
42.26712
 21
55.972349
 31
0.0
  0
LINE
  5
9F1
100
AcDbEntity
  8
BORDER
  6
CONTINUOUS
 62
     2
100
AcDbLine
 39
96.0
 10
41.79837
 20
55.972349
 30
0.0
 11
41.79837
 21
55.972349
 31
0.0
  0
LINE
  5
9F2
100
AcDbEntity
  8
BORDER
  6
CONTINUOUS
 62
     2
100
AcDbLine
 39
96.0
 10
42.97025
 20
56.441149
 30
0.0
 11
42.97025
 21
56.441149
 31
0.0
  0
LINE
  5
9F3
100
AcDbEntity
  8
BORDER
  6
CONTINUOUS
 62
     2
100
AcDbLine
 39
96.0
 10
42.5015
 20
56.441149
 30
0.0
 11
42.5015
 21
56.441149
 31
0.0
  0
LINE
  5
9F4
100
AcDbEntity
  8
BORDER
  6
CONTINUOUS
 62
     2
100
AcDbLine
 39
96.0
 10
42.03275
 20
56.441149
 30
0.0
 11
42.03275
 21
56.441149
 31
0.0
  0
LINE
  5
9F5
100
AcDbEntity
  8
BORDER
  6
CONTINUOUS
 62
     2
100
AcDbLine
 39
96.0
 10
41.564
 20
56.441149
 30
0.0
 11
41.564
 21
56.441149
 31
0.0
  0
LINE
  5
9F6
100
AcDbEntity
  8
BORDER
  6
CONTINUOUS
 62
     2
100
AcDbLine
 39
96.0
 10
43.20462
 20
56.909849
 30
0.0
 11
43.20462
 21
56.909849
 31
0.0
  0
LINE
  5
9F7
100
AcDbEntity
  8
BORDER
  6
CONTINUOUS
 62
     2
100
AcDbLine
 39
96.0
 10
42.73587
 20
56.909849
 30
0.0
 11
42.73587
 21
56.909849
 31
0.0
  0
LINE
  5
9F8
100
AcDbEntity
  8
BORDER
  6
CONTINUOUS
 62
     2
100
AcDbLine
 39
96.0
 10
42.26712
 20
56.909849
 30
0.0
 11
42.26712
 21
56.909849
 31
0.0
  0
LINE
  5
9F9
100
AcDbEntity
  8
BORDER
  6
CONTINUOUS
 62
     2
100
AcDbLine
 39
96.0
 10
41.79837
 20
56.909849
 30
0.0
 11
41.79837
 21
56.909849
 31
0.0
  0
LINE
  5
9FA
100
AcDbEntity
  8
BORDER
  6
CONTINUOUS
 62
     2
100
AcDbLine
 39
96.0
 10
42.97025
 20
57.378649
 30
0.0
 11
42.97025
 21
57.378649
 31
0.0
  0
LINE
  5
9FB
100
AcDbEntity
  8
BORDER
  6
CONTINUOUS
 62
     2
100
AcDbLine
 39
96.0
 10
42.5015
 20
57.378649
 30
0.0
 11
42.5015
 21
57.378649
 31
0.0
  0
LINE
  5
9FC
100
AcDbEntity
  8
BORDER
  6
CONTINUOUS
 62
     2
100
AcDbLine
 39
96.0
 10
42.03275
 20
57.378649
 30
0.0
 11
42.03275
 21
57.378649
 31
0.0
  0
LINE
  5
9FD
100
AcDbEntity
  8
BORDER
  6
CONTINUOUS
 62
     2
100
AcDbLine
 39
96.0
 10
41.564
 20
57.378649
 30
0.0
 11
41.564
 21
57.378649
 31
0.0
  0
LINE
  5
9FE
100
AcDbEntity
  8
BORDER
  6
CONTINUOUS
 62
     2
100
AcDbLine
 39
96.0
 10
43.20462
 20
57.847349
 30
0.0
 11
43.20462
 21
57.847349
 31
0.0
  0
LINE
  5
9FF
100
AcDbEntity
  8
BORDER
  6
CONTINUOUS
 62
     2
100
AcDbLine
 39
96.0
 10
42.73587
 20
57.847349
 30
0.0
 11
42.73587
 21
57.847349
 31
0.0
  0
LINE
  5
A00
100
AcDbEntity
  8
BORDER
  6
CONTINUOUS
 62
     2
100
AcDbLine
 39
96.0
 10
42.26712
 20
57.847349
 30
0.0
 11
42.26712
 21
57.847349
 31
0.0
  0
LINE
  5
A01
100
AcDbEntity
  8
BORDER
  6
CONTINUOUS
 62
     2
100
AcDbLine
 39
96.0
 10
41.79837
 20
57.847349
 30
0.0
 11
41.79837
 21
57.847349
 31
0.0
  0
LINE
  5
A02
100
AcDbEntity
  8
BORDER
  6
CONTINUOUS
 62
     2
100
AcDbLine
 39
96.0
 10
42.97025
 20
58.316149
 30
0.0
 11
42.97025
 21
58.316149
 31
0.0
  0
LINE
  5
A03
100
AcDbEntity
  8
BORDER
  6
CONTINUOUS
 62
     2
100
AcDbLine
 39
96.0
 10
42.5015
 20
58.316149
 30
0.0
 11
42.5015
 21
58.316149
 31
0.0
  0
LINE
  5
A04
100
AcDbEntity
  8
BORDER
  6
CONTINUOUS
 62
     2
100
AcDbLine
 39
96.0
 10
42.03275
 20
58.316149
 30
0.0
 11
42.03275
 21
58.316149
 31
0.0
  0
LINE
  5
A05
100
AcDbEntity
  8
BORDER
  6
CONTINUOUS
 62
     2
100
AcDbLine
 39
96.0
 10
41.564
 20
58.316149
 30
0.0
 11
41.564
 21
58.316149
 31
0.0
  0
LINE
  5
A06
100
AcDbEntity
  8
BORDER
  6
CONTINUOUS
 62
     2
100
AcDbLine
 39
96.0
 10
43.20462
 20
58.784849
 30
0.0
 11
43.20462
 21
58.784849
 31
0.0
  0
LINE
  5
A07
100
AcDbEntity
  8
BORDER
  6
CONTINUOUS
 62
     2
100
AcDbLine
 39
96.0
 10
42.73587
 20
58.784849
 30
0.0
 11
42.73587
 21
58.784849
 31
0.0
  0
LINE
  5
A08
100
AcDbEntity
  8
BORDER
  6
CONTINUOUS
 62
     2
100
AcDbLine
 39
96.0
 10
42.26712
 20
58.784849
 30
0.0
 11
42.26712
 21
58.784849
 31
0.0
  0
LINE
  5
A09
100
AcDbEntity
  8
BORDER
  6
CONTINUOUS
 62
     2
100
AcDbLine
 39
96.0
 10
41.79837
 20
58.784849
 30
0.0
 11
41.79837
 21
58.784849
 31
0.0
  0
LINE
  5
A0A
100
AcDbEntity
  8
BORDER
  6
CONTINUOUS
 62
     2
100
AcDbLine
 39
96.0
 10
42.97025
 20
59.253649
 30
0.0
 11
42.97025
 21
59.253649
 31
0.0
  0
LINE
  5
A0B
100
AcDbEntity
  8
BORDER
  6
CONTINUOUS
 62
     2
100
AcDbLine
 39
96.0
 10
42.5015
 20
59.253649
 30
0.0
 11
42.5015
 21
59.253649
 31
0.0
  0
LINE
  5
A0C
100
AcDbEntity
  8
BORDER
  6
CONTINUOUS
 62
     2
100
AcDbLine
 39
96.0
 10
42.03275
 20
59.253649
 30
0.0
 11
42.03275
 21
59.253649
 31
0.0
  0
LINE
  5
A0D
100
AcDbEntity
  8
BORDER
  6
CONTINUOUS
 62
     2
100
AcDbLine
 39
96.0
 10
41.564
 20
59.253649
 30
0.0
 11
41.564
 21
59.253649
 31
0.0
  0
LINE
  5
A0E
100
AcDbEntity
  8
BORDER
  6
CONTINUOUS
 62
     2
100
AcDbLine
 39
96.0
 10
43.20462
 20
59.722349
 30
0.0
 11
43.20462
 21
59.722349
 31
0.0
  0
LINE
  5
A0F
100
AcDbEntity
  8
BORDER
  6
CONTINUOUS
 62
     2
100
AcDbLine
 39
96.0
 10
42.73587
 20
59.722349
 30
0.0
 11
42.73587
 21
59.722349
 31
0.0
  0
LINE
  5
A10
100
AcDbEntity
  8
BORDER
  6
CONTINUOUS
 62
     2
100
AcDbLine
 39
96.0
 10
42.26712
 20
59.722349
 30
0.0
 11
42.26712
 21
59.722349
 31
0.0
  0
LINE
  5
A11
100
AcDbEntity
  8
BORDER
  6
CONTINUOUS
 62
     2
100
AcDbLine
 39
96.0
 10
41.79837
 20
59.722349
 30
0.0
 11
41.79837
 21
59.722349
 31
0.0
  0
LINE
  5
A12
100
AcDbEntity
  8
BORDER
  6
CONTINUOUS
 62
     2
100
AcDbLine
 39
96.0
 10
42.97025
 20
60.191149
 30
0.0
 11
42.97025
 21
60.191149
 31
0.0
  0
LINE
  5
A13
100
AcDbEntity
  8
BORDER
  6
CONTINUOUS
 62
     2
100
AcDbLine
 39
96.0
 10
42.5015
 20
60.191149
 30
0.0
 11
42.5015
 21
60.191149
 31
0.0
  0
LINE
  5
A14
100
AcDbEntity
  8
BORDER
  6
CONTINUOUS
 62
     2
100
AcDbLine
 39
96.0
 10
42.03275
 20
60.191149
 30
0.0
 11
42.03275
 21
60.191149
 31
0.0
  0
LINE
  5
A15
100
AcDbEntity
  8
BORDER
  6
CONTINUOUS
 62
     2
100
AcDbLine
 39
96.0
 10
41.564
 20
60.191149
 30
0.0
 11
41.564
 21
60.191149
 31
0.0
  0
LINE
  5
A16
100
AcDbEntity
  8
BORDER
  6
CONTINUOUS
 62
     2
100
AcDbLine
 39
96.0
 10
35.23587
 20
45.659849
 30
0.0
 11
35.23587
 21
45.659849
 31
0.0
  0
LINE
  5
A17
100
AcDbEntity
  8
BORDER
  6
CONTINUOUS
 62
     2
100
AcDbLine
 39
96.0
 10
34.76712
 20
45.659849
 30
0.0
 11
34.76712
 21
45.659849
 31
0.0
  0
LINE
  5
A18
100
AcDbEntity
  8
BORDER
  6
CONTINUOUS
 62
     2
100
AcDbLine
 39
96.0
 10
34.29837
 20
45.659849
 30
0.0
 11
34.29837
 21
45.659849
 31
0.0
  0
LINE
  5
A19
100
AcDbEntity
  8
BORDER
  6
CONTINUOUS
 62
     2
100
AcDbLine
 39
96.0
 10
33.82962
 20
45.659849
 30
0.0
 11
33.82962
 21
45.659849
 31
0.0
  0
LINE
  5
A1A
100
AcDbEntity
  8
BORDER
  6
CONTINUOUS
 62
     2
100
AcDbLine
 39
96.0
 10
35.0015
 20
46.128599
 30
0.0
 11
35.0015
 21
46.128599
 31
0.0
  0
LINE
  5
A1B
100
AcDbEntity
  8
BORDER
  6
CONTINUOUS
 62
     2
100
AcDbLine
 39
96.0
 10
34.53275
 20
46.128599
 30
0.0
 11
34.53275
 21
46.128599
 31
0.0
  0
LINE
  5
A1C
100
AcDbEntity
  8
BORDER
  6
CONTINUOUS
 62
     2
100
AcDbLine
 39
96.0
 10
34.064
 20
46.128599
 30
0.0
 11
34.064
 21
46.128599
 31
0.0
  0
LINE
  5
A1D
100
AcDbEntity
  8
BORDER
  6
CONTINUOUS
 62
     2
100
AcDbLine
 39
96.0
 10
33.59525
 20
46.128599
 30
0.0
 11
33.59525
 21
46.128599
 31
0.0
  0
LINE
  5
A1E
100
AcDbEntity
  8
BORDER
  6
CONTINUOUS
 62
     2
100
AcDbLine
 39
96.0
 10
35.23587
 20
46.597349
 30
0.0
 11
35.23587
 21
46.597349
 31
0.0
  0
LINE
  5
A1F
100
AcDbEntity
  8
BORDER
  6
CONTINUOUS
 62
     2
100
AcDbLine
 39
96.0
 10
34.76712
 20
46.597349
 30
0.0
 11
34.76712
 21
46.597349
 31
0.0
  0
LINE
  5
A20
100
AcDbEntity
  8
BORDER
  6
CONTINUOUS
 62
     2
100
AcDbLine
 39
96.0
 10
34.29837
 20
46.597349
 30
0.0
 11
34.29837
 21
46.597349
 31
0.0
  0
LINE
  5
A21
100
AcDbEntity
  8
BORDER
  6
CONTINUOUS
 62
     2
100
AcDbLine
 39
96.0
 10
33.82962
 20
46.597349
 30
0.0
 11
33.82962
 21
46.597349
 31
0.0
  0
LINE
  5
A22
100
AcDbEntity
  8
BORDER
  6
CONTINUOUS
 62
     2
100
AcDbLine
 39
96.0
 10
35.0015
 20
47.066099
 30
0.0
 11
35.0015
 21
47.066099
 31
0.0
  0
LINE
  5
A23
100
AcDbEntity
  8
BORDER
  6
CONTINUOUS
 62
     2
100
AcDbLine
 39
96.0
 10
34.53275
 20
47.066099
 30
0.0
 11
34.53275
 21
47.066099
 31
0.0
  0
LINE
  5
A24
100
AcDbEntity
  8
BORDER
  6
CONTINUOUS
 62
     2
100
AcDbLine
 39
96.0
 10
34.064
 20
47.066099
 30
0.0
 11
34.064
 21
47.066099
 31
0.0
  0
LINE
  5
A25
100
AcDbEntity
  8
BORDER
  6
CONTINUOUS
 62
     2
100
AcDbLine
 39
96.0
 10
33.59525
 20
47.066099
 30
0.0
 11
33.59525
 21
47.066099
 31
0.0
  0
LINE
  5
A26
100
AcDbEntity
  8
BORDER
  6
CONTINUOUS
 62
     2
100
AcDbLine
 39
96.0
 10
35.23587
 20
47.534849
 30
0.0
 11
35.23587
 21
47.534849
 31
0.0
  0
LINE
  5
A27
100
AcDbEntity
  8
BORDER
  6
CONTINUOUS
 62
     2
100
AcDbLine
 39
96.0
 10
34.76712
 20
47.534849
 30
0.0
 11
34.76712
 21
47.534849
 31
0.0
  0
LINE
  5
A28
100
AcDbEntity
  8
BORDER
  6
CONTINUOUS
 62
     2
100
AcDbLine
 39
96.0
 10
34.29837
 20
47.534849
 30
0.0
 11
34.29837
 21
47.534849
 31
0.0
  0
LINE
  5
A29
100
AcDbEntity
  8
BORDER
  6
CONTINUOUS
 62
     2
100
AcDbLine
 39
96.0
 10
33.82962
 20
47.534849
 30
0.0
 11
33.82962
 21
47.534849
 31
0.0
  0
LINE
  5
A2A
100
AcDbEntity
  8
BORDER
  6
CONTINUOUS
 62
     2
100
AcDbLine
 39
96.0
 10
35.0015
 20
48.003599
 30
0.0
 11
35.0015
 21
48.003599
 31
0.0
  0
LINE
  5
A2B
100
AcDbEntity
  8
BORDER
  6
CONTINUOUS
 62
     2
100
AcDbLine
 39
96.0
 10
34.53275
 20
48.003599
 30
0.0
 11
34.53275
 21
48.003599
 31
0.0
  0
LINE
  5
A2C
100
AcDbEntity
  8
BORDER
  6
CONTINUOUS
 62
     2
100
AcDbLine
 39
96.0
 10
34.064
 20
48.003599
 30
0.0
 11
34.064
 21
48.003599
 31
0.0
  0
LINE
  5
A2D
100
AcDbEntity
  8
BORDER
  6
CONTINUOUS
 62
     2
100
AcDbLine
 39
96.0
 10
33.59525
 20
48.003599
 30
0.0
 11
33.59525
 21
48.003599
 31
0.0
  0
LINE
  5
A2E
100
AcDbEntity
  8
BORDER
  6
CONTINUOUS
 62
     2
100
AcDbLine
 39
96.0
 10
35.23587
 20
48.472349
 30
0.0
 11
35.23587
 21
48.472349
 31
0.0
  0
LINE
  5
A2F
100
AcDbEntity
  8
BORDER
  6
CONTINUOUS
 62
     2
100
AcDbLine
 39
96.0
 10
34.76712
 20
48.472349
 30
0.0
 11
34.76712
 21
48.472349
 31
0.0
  0
LINE
  5
A30
100
AcDbEntity
  8
BORDER
  6
CONTINUOUS
 62
     2
100
AcDbLine
 39
96.0
 10
34.29837
 20
48.472349
 30
0.0
 11
34.29837
 21
48.472349
 31
0.0
  0
LINE
  5
A31
100
AcDbEntity
  8
BORDER
  6
CONTINUOUS
 62
     2
100
AcDbLine
 39
96.0
 10
33.82962
 20
48.472349
 30
0.0
 11
33.82962
 21
48.472349
 31
0.0
  0
LINE
  5
A32
100
AcDbEntity
  8
BORDER
  6
CONTINUOUS
 62
     2
100
AcDbLine
 39
96.0
 10
35.0015
 20
48.941149
 30
0.0
 11
35.0015
 21
48.941149
 31
0.0
  0
LINE
  5
A33
100
AcDbEntity
  8
BORDER
  6
CONTINUOUS
 62
     2
100
AcDbLine
 39
96.0
 10
34.53275
 20
48.941149
 30
0.0
 11
34.53275
 21
48.941149
 31
0.0
  0
LINE
  5
A34
100
AcDbEntity
  8
BORDER
  6
CONTINUOUS
 62
     2
100
AcDbLine
 39
96.0
 10
34.064
 20
48.941149
 30
0.0
 11
34.064
 21
48.941149
 31
0.0
  0
LINE
  5
A35
100
AcDbEntity
  8
BORDER
  6
CONTINUOUS
 62
     2
100
AcDbLine
 39
96.0
 10
33.59525
 20
48.941149
 30
0.0
 11
33.59525
 21
48.941149
 31
0.0
  0
LINE
  5
A36
100
AcDbEntity
  8
BORDER
  6
CONTINUOUS
 62
     2
100
AcDbLine
 39
96.0
 10
35.23587
 20
49.409849
 30
0.0
 11
35.23587
 21
49.409849
 31
0.0
  0
LINE
  5
A37
100
AcDbEntity
  8
BORDER
  6
CONTINUOUS
 62
     2
100
AcDbLine
 39
96.0
 10
34.76712
 20
49.409849
 30
0.0
 11
34.76712
 21
49.409849
 31
0.0
  0
LINE
  5
A38
100
AcDbEntity
  8
BORDER
  6
CONTINUOUS
 62
     2
100
AcDbLine
 39
96.0
 10
34.29837
 20
49.409849
 30
0.0
 11
34.29837
 21
49.409849
 31
0.0
  0
LINE
  5
A39
100
AcDbEntity
  8
BORDER
  6
CONTINUOUS
 62
     2
100
AcDbLine
 39
96.0
 10
33.82962
 20
49.409849
 30
0.0
 11
33.82962
 21
49.409849
 31
0.0
  0
LINE
  5
A3A
100
AcDbEntity
  8
BORDER
  6
CONTINUOUS
 62
     2
100
AcDbLine
 39
96.0
 10
35.0015
 20
49.878649
 30
0.0
 11
35.0015
 21
49.878649
 31
0.0
  0
LINE
  5
A3B
100
AcDbEntity
  8
BORDER
  6
CONTINUOUS
 62
     2
100
AcDbLine
 39
96.0
 10
34.53275
 20
49.878649
 30
0.0
 11
34.53275
 21
49.878649
 31
0.0
  0
LINE
  5
A3C
100
AcDbEntity
  8
BORDER
  6
CONTINUOUS
 62
     2
100
AcDbLine
 39
96.0
 10
34.064
 20
49.878649
 30
0.0
 11
34.064
 21
49.878649
 31
0.0
  0
LINE
  5
A3D
100
AcDbEntity
  8
BORDER
  6
CONTINUOUS
 62
     2
100
AcDbLine
 39
96.0
 10
33.59525
 20
49.878649
 30
0.0
 11
33.59525
 21
49.878649
 31
0.0
  0
LINE
  5
A3E
100
AcDbEntity
  8
BORDER
  6
CONTINUOUS
 62
     2
100
AcDbLine
 39
96.0
 10
35.23587
 20
50.347349
 30
0.0
 11
35.23587
 21
50.347349
 31
0.0
  0
LINE
  5
A3F
100
AcDbEntity
  8
BORDER
  6
CONTINUOUS
 62
     2
100
AcDbLine
 39
96.0
 10
34.76712
 20
50.347349
 30
0.0
 11
34.76712
 21
50.347349
 31
0.0
  0
LINE
  5
A40
100
AcDbEntity
  8
BORDER
  6
CONTINUOUS
 62
     2
100
AcDbLine
 39
96.0
 10
34.29837
 20
50.347349
 30
0.0
 11
34.29837
 21
50.347349
 31
0.0
  0
LINE
  5
A41
100
AcDbEntity
  8
BORDER
  6
CONTINUOUS
 62
     2
100
AcDbLine
 39
96.0
 10
33.82962
 20
50.347349
 30
0.0
 11
33.82962
 21
50.347349
 31
0.0
  0
LINE
  5
A42
100
AcDbEntity
  8
BORDER
  6
CONTINUOUS
 62
     2
100
AcDbLine
 39
96.0
 10
35.0015
 20
50.816149
 30
0.0
 11
35.0015
 21
50.816149
 31
0.0
  0
LINE
  5
A43
100
AcDbEntity
  8
BORDER
  6
CONTINUOUS
 62
     2
100
AcDbLine
 39
96.0
 10
34.53275
 20
50.816149
 30
0.0
 11
34.53275
 21
50.816149
 31
0.0
  0
LINE
  5
A44
100
AcDbEntity
  8
BORDER
  6
CONTINUOUS
 62
     2
100
AcDbLine
 39
96.0
 10
34.064
 20
50.816149
 30
0.0
 11
34.064
 21
50.816149
 31
0.0
  0
LINE
  5
A45
100
AcDbEntity
  8
BORDER
  6
CONTINUOUS
 62
     2
100
AcDbLine
 39
96.0
 10
33.59525
 20
50.816149
 30
0.0
 11
33.59525
 21
50.816149
 31
0.0
  0
LINE
  5
A46
100
AcDbEntity
  8
BORDER
  6
CONTINUOUS
 62
     2
100
AcDbLine
 39
96.0
 10
35.23587
 20
51.284849
 30
0.0
 11
35.23587
 21
51.284849
 31
0.0
  0
LINE
  5
A47
100
AcDbEntity
  8
BORDER
  6
CONTINUOUS
 62
     2
100
AcDbLine
 39
96.0
 10
34.76712
 20
51.284849
 30
0.0
 11
34.76712
 21
51.284849
 31
0.0
  0
LINE
  5
A48
100
AcDbEntity
  8
BORDER
  6
CONTINUOUS
 62
     2
100
AcDbLine
 39
96.0
 10
34.29837
 20
51.284849
 30
0.0
 11
34.29837
 21
51.284849
 31
0.0
  0
LINE
  5
A49
100
AcDbEntity
  8
BORDER
  6
CONTINUOUS
 62
     2
100
AcDbLine
 39
96.0
 10
33.82962
 20
51.284849
 30
0.0
 11
33.82962
 21
51.284849
 31
0.0
  0
LINE
  5
A4A
100
AcDbEntity
  8
BORDER
  6
CONTINUOUS
 62
     2
100
AcDbLine
 39
96.0
 10
35.0015
 20
51.753649
 30
0.0
 11
35.0015
 21
51.753649
 31
0.0
  0
LINE
  5
A4B
100
AcDbEntity
  8
BORDER
  6
CONTINUOUS
 62
     2
100
AcDbLine
 39
96.0
 10
34.53275
 20
51.753649
 30
0.0
 11
34.53275
 21
51.753649
 31
0.0
  0
LINE
  5
A4C
100
AcDbEntity
  8
BORDER
  6
CONTINUOUS
 62
     2
100
AcDbLine
 39
96.0
 10
34.064
 20
51.753649
 30
0.0
 11
34.064
 21
51.753649
 31
0.0
  0
LINE
  5
A4D
100
AcDbEntity
  8
BORDER
  6
CONTINUOUS
 62
     2
100
AcDbLine
 39
96.0
 10
33.59525
 20
51.753649
 30
0.0
 11
33.59525
 21
51.753649
 31
0.0
  0
LINE
  5
A4E
100
AcDbEntity
  8
BORDER
  6
CONTINUOUS
 62
     2
100
AcDbLine
 39
96.0
 10
35.23587
 20
52.222349
 30
0.0
 11
35.23587
 21
52.222349
 31
0.0
  0
LINE
  5
A4F
100
AcDbEntity
  8
BORDER
  6
CONTINUOUS
 62
     2
100
AcDbLine
 39
96.0
 10
34.76712
 20
52.222349
 30
0.0
 11
34.76712
 21
52.222349
 31
0.0
  0
LINE
  5
A50
100
AcDbEntity
  8
BORDER
  6
CONTINUOUS
 62
     2
100
AcDbLine
 39
96.0
 10
34.29837
 20
52.222349
 30
0.0
 11
34.29837
 21
52.222349
 31
0.0
  0
LINE
  5
A51
100
AcDbEntity
  8
BORDER
  6
CONTINUOUS
 62
     2
100
AcDbLine
 39
96.0
 10
33.82962
 20
52.222349
 30
0.0
 11
33.82962
 21
52.222349
 31
0.0
  0
LINE
  5
A52
100
AcDbEntity
  8
BORDER
  6
CONTINUOUS
 62
     2
100
AcDbLine
 39
96.0
 10
35.0015
 20
52.691149
 30
0.0
 11
35.0015
 21
52.691149
 31
0.0
  0
LINE
  5
A53
100
AcDbEntity
  8
BORDER
  6
CONTINUOUS
 62
     2
100
AcDbLine
 39
96.0
 10
34.53275
 20
52.691149
 30
0.0
 11
34.53275
 21
52.691149
 31
0.0
  0
LINE
  5
A54
100
AcDbEntity
  8
BORDER
  6
CONTINUOUS
 62
     2
100
AcDbLine
 39
96.0
 10
34.064
 20
52.691149
 30
0.0
 11
34.064
 21
52.691149
 31
0.0
  0
LINE
  5
A55
100
AcDbEntity
  8
BORDER
  6
CONTINUOUS
 62
     2
100
AcDbLine
 39
96.0
 10
33.59525
 20
52.691149
 30
0.0
 11
33.59525
 21
52.691149
 31
0.0
  0
LINE
  5
A56
100
AcDbEntity
  8
BORDER
  6
CONTINUOUS
 62
     2
100
AcDbLine
 39
96.0
 10
35.23587
 20
53.159849
 30
0.0
 11
35.23587
 21
53.159849
 31
0.0
  0
LINE
  5
A57
100
AcDbEntity
  8
BORDER
  6
CONTINUOUS
 62
     2
100
AcDbLine
 39
96.0
 10
34.76712
 20
53.159849
 30
0.0
 11
34.76712
 21
53.159849
 31
0.0
  0
LINE
  5
A58
100
AcDbEntity
  8
BORDER
  6
CONTINUOUS
 62
     2
100
AcDbLine
 39
96.0
 10
34.29837
 20
53.159849
 30
0.0
 11
34.29837
 21
53.159849
 31
0.0
  0
LINE
  5
A59
100
AcDbEntity
  8
BORDER
  6
CONTINUOUS
 62
     2
100
AcDbLine
 39
96.0
 10
33.82962
 20
53.159849
 30
0.0
 11
33.82962
 21
53.159849
 31
0.0
  0
LINE
  5
A5A
100
AcDbEntity
  8
BORDER
  6
CONTINUOUS
 62
     2
100
AcDbLine
 39
96.0
 10
35.0015
 20
53.628649
 30
0.0
 11
35.0015
 21
53.628649
 31
0.0
  0
LINE
  5
A5B
100
AcDbEntity
  8
BORDER
  6
CONTINUOUS
 62
     2
100
AcDbLine
 39
96.0
 10
34.53275
 20
53.628649
 30
0.0
 11
34.53275
 21
53.628649
 31
0.0
  0
LINE
  5
A5C
100
AcDbEntity
  8
BORDER
  6
CONTINUOUS
 62
     2
100
AcDbLine
 39
96.0
 10
34.064
 20
53.628649
 30
0.0
 11
34.064
 21
53.628649
 31
0.0
  0
LINE
  5
A5D
100
AcDbEntity
  8
BORDER
  6
CONTINUOUS
 62
     2
100
AcDbLine
 39
96.0
 10
33.59525
 20
53.628649
 30
0.0
 11
33.59525
 21
53.628649
 31
0.0
  0
LINE
  5
A5E
100
AcDbEntity
  8
BORDER
  6
CONTINUOUS
 62
     2
100
AcDbLine
 39
96.0
 10
35.23587
 20
54.097349
 30
0.0
 11
35.23587
 21
54.097349
 31
0.0
  0
LINE
  5
A5F
100
AcDbEntity
  8
BORDER
  6
CONTINUOUS
 62
     2
100
AcDbLine
 39
96.0
 10
34.76712
 20
54.097349
 30
0.0
 11
34.76712
 21
54.097349
 31
0.0
  0
LINE
  5
A60
100
AcDbEntity
  8
BORDER
  6
CONTINUOUS
 62
     2
100
AcDbLine
 39
96.0
 10
34.29837
 20
54.097349
 30
0.0
 11
34.29837
 21
54.097349
 31
0.0
  0
LINE
  5
A61
100
AcDbEntity
  8
BORDER
  6
CONTINUOUS
 62
     2
100
AcDbLine
 39
96.0
 10
33.82962
 20
54.097349
 30
0.0
 11
33.82962
 21
54.097349
 31
0.0
  0
LINE
  5
A62
100
AcDbEntity
  8
BORDER
  6
CONTINUOUS
 62
     2
100
AcDbLine
 39
96.0
 10
35.0015
 20
54.566149
 30
0.0
 11
35.0015
 21
54.566149
 31
0.0
  0
LINE
  5
A63
100
AcDbEntity
  8
BORDER
  6
CONTINUOUS
 62
     2
100
AcDbLine
 39
96.0
 10
34.53275
 20
54.566149
 30
0.0
 11
34.53275
 21
54.566149
 31
0.0
  0
LINE
  5
A64
100
AcDbEntity
  8
BORDER
  6
CONTINUOUS
 62
     2
100
AcDbLine
 39
96.0
 10
34.064
 20
54.566149
 30
0.0
 11
34.064
 21
54.566149
 31
0.0
  0
LINE
  5
A65
100
AcDbEntity
  8
BORDER
  6
CONTINUOUS
 62
     2
100
AcDbLine
 39
96.0
 10
33.59525
 20
54.566149
 30
0.0
 11
33.59525
 21
54.566149
 31
0.0
  0
LINE
  5
A66
100
AcDbEntity
  8
BORDER
  6
CONTINUOUS
 62
     2
100
AcDbLine
 39
96.0
 10
35.23587
 20
55.034849
 30
0.0
 11
35.23587
 21
55.034849
 31
0.0
  0
LINE
  5
A67
100
AcDbEntity
  8
BORDER
  6
CONTINUOUS
 62
     2
100
AcDbLine
 39
96.0
 10
34.76712
 20
55.034849
 30
0.0
 11
34.76712
 21
55.034849
 31
0.0
  0
LINE
  5
A68
100
AcDbEntity
  8
BORDER
  6
CONTINUOUS
 62
     2
100
AcDbLine
 39
96.0
 10
34.29837
 20
55.034849
 30
0.0
 11
34.29837
 21
55.034849
 31
0.0
  0
LINE
  5
A69
100
AcDbEntity
  8
BORDER
  6
CONTINUOUS
 62
     2
100
AcDbLine
 39
96.0
 10
33.82962
 20
55.034849
 30
0.0
 11
33.82962
 21
55.034849
 31
0.0
  0
LINE
  5
A6A
100
AcDbEntity
  8
BORDER
  6
CONTINUOUS
 62
     2
100
AcDbLine
 39
96.0
 10
35.0015
 20
55.503649
 30
0.0
 11
35.0015
 21
55.503649
 31
0.0
  0
LINE
  5
A6B
100
AcDbEntity
  8
BORDER
  6
CONTINUOUS
 62
     2
100
AcDbLine
 39
96.0
 10
34.53275
 20
55.503649
 30
0.0
 11
34.53275
 21
55.503649
 31
0.0
  0
LINE
  5
A6C
100
AcDbEntity
  8
BORDER
  6
CONTINUOUS
 62
     2
100
AcDbLine
 39
96.0
 10
34.064
 20
55.503649
 30
0.0
 11
34.064
 21
55.503649
 31
0.0
  0
LINE
  5
A6D
100
AcDbEntity
  8
BORDER
  6
CONTINUOUS
 62
     2
100
AcDbLine
 39
96.0
 10
33.59525
 20
55.503649
 30
0.0
 11
33.59525
 21
55.503649
 31
0.0
  0
LINE
  5
A6E
100
AcDbEntity
  8
BORDER
  6
CONTINUOUS
 62
     2
100
AcDbLine
 39
96.0
 10
35.23587
 20
55.972349
 30
0.0
 11
35.23587
 21
55.972349
 31
0.0
  0
LINE
  5
A6F
100
AcDbEntity
  8
BORDER
  6
CONTINUOUS
 62
     2
100
AcDbLine
 39
96.0
 10
34.76712
 20
55.972349
 30
0.0
 11
34.76712
 21
55.972349
 31
0.0
  0
LINE
  5
A70
100
AcDbEntity
  8
BORDER
  6
CONTINUOUS
 62
     2
100
AcDbLine
 39
96.0
 10
34.29837
 20
55.972349
 30
0.0
 11
34.29837
 21
55.972349
 31
0.0
  0
LINE
  5
A71
100
AcDbEntity
  8
BORDER
  6
CONTINUOUS
 62
     2
100
AcDbLine
 39
96.0
 10
33.82962
 20
55.972349
 30
0.0
 11
33.82962
 21
55.972349
 31
0.0
  0
LINE
  5
A72
100
AcDbEntity
  8
BORDER
  6
CONTINUOUS
 62
     2
100
AcDbLine
 39
96.0
 10
35.0015
 20
56.441149
 30
0.0
 11
35.0015
 21
56.441149
 31
0.0
  0
LINE
  5
A73
100
AcDbEntity
  8
BORDER
  6
CONTINUOUS
 62
     2
100
AcDbLine
 39
96.0
 10
34.53275
 20
56.441149
 30
0.0
 11
34.53275
 21
56.441149
 31
0.0
  0
LINE
  5
A74
100
AcDbEntity
  8
BORDER
  6
CONTINUOUS
 62
     2
100
AcDbLine
 39
96.0
 10
34.064
 20
56.441149
 30
0.0
 11
34.064
 21
56.441149
 31
0.0
  0
LINE
  5
A75
100
AcDbEntity
  8
BORDER
  6
CONTINUOUS
 62
     2
100
AcDbLine
 39
96.0
 10
33.59525
 20
56.441149
 30
0.0
 11
33.59525
 21
56.441149
 31
0.0
  0
LINE
  5
A76
100
AcDbEntity
  8
BORDER
  6
CONTINUOUS
 62
     2
100
AcDbLine
 39
96.0
 10
35.23587
 20
56.909849
 30
0.0
 11
35.23587
 21
56.909849
 31
0.0
  0
LINE
  5
A77
100
AcDbEntity
  8
BORDER
  6
CONTINUOUS
 62
     2
100
AcDbLine
 39
96.0
 10
34.76712
 20
56.909849
 30
0.0
 11
34.76712
 21
56.909849
 31
0.0
  0
LINE
  5
A78
100
AcDbEntity
  8
BORDER
  6
CONTINUOUS
 62
     2
100
AcDbLine
 39
96.0
 10
34.29837
 20
56.909849
 30
0.0
 11
34.29837
 21
56.909849
 31
0.0
  0
LINE
  5
A79
100
AcDbEntity
  8
BORDER
  6
CONTINUOUS
 62
     2
100
AcDbLine
 39
96.0
 10
33.82962
 20
56.909849
 30
0.0
 11
33.82962
 21
56.909849
 31
0.0
  0
LINE
  5
A7A
100
AcDbEntity
  8
BORDER
  6
CONTINUOUS
 62
     2
100
AcDbLine
 39
96.0
 10
35.0015
 20
57.378649
 30
0.0
 11
35.0015
 21
57.378649
 31
0.0
  0
LINE
  5
A7B
100
AcDbEntity
  8
BORDER
  6
CONTINUOUS
 62
     2
100
AcDbLine
 39
96.0
 10
34.53275
 20
57.378649
 30
0.0
 11
34.53275
 21
57.378649
 31
0.0
  0
LINE
  5
A7C
100
AcDbEntity
  8
BORDER
  6
CONTINUOUS
 62
     2
100
AcDbLine
 39
96.0
 10
34.064
 20
57.378649
 30
0.0
 11
34.064
 21
57.378649
 31
0.0
  0
LINE
  5
A7D
100
AcDbEntity
  8
BORDER
  6
CONTINUOUS
 62
     2
100
AcDbLine
 39
96.0
 10
33.59525
 20
57.378649
 30
0.0
 11
33.59525
 21
57.378649
 31
0.0
  0
LINE
  5
A7E
100
AcDbEntity
  8
BORDER
  6
CONTINUOUS
 62
     2
100
AcDbLine
 39
96.0
 10
35.23587
 20
57.847349
 30
0.0
 11
35.23587
 21
57.847349
 31
0.0
  0
LINE
  5
A7F
100
AcDbEntity
  8
BORDER
  6
CONTINUOUS
 62
     2
100
AcDbLine
 39
96.0
 10
34.76712
 20
57.847349
 30
0.0
 11
34.76712
 21
57.847349
 31
0.0
  0
LINE
  5
A80
100
AcDbEntity
  8
BORDER
  6
CONTINUOUS
 62
     2
100
AcDbLine
 39
96.0
 10
34.29837
 20
57.847349
 30
0.0
 11
34.29837
 21
57.847349
 31
0.0
  0
LINE
  5
A81
100
AcDbEntity
  8
BORDER
  6
CONTINUOUS
 62
     2
100
AcDbLine
 39
96.0
 10
33.82962
 20
57.847349
 30
0.0
 11
33.82962
 21
57.847349
 31
0.0
  0
LINE
  5
A82
100
AcDbEntity
  8
BORDER
  6
CONTINUOUS
 62
     2
100
AcDbLine
 39
96.0
 10
35.0015
 20
58.316149
 30
0.0
 11
35.0015
 21
58.316149
 31
0.0
  0
LINE
  5
A83
100
AcDbEntity
  8
BORDER
  6
CONTINUOUS
 62
     2
100
AcDbLine
 39
96.0
 10
34.53275
 20
58.316149
 30
0.0
 11
34.53275
 21
58.316149
 31
0.0
  0
LINE
  5
A84
100
AcDbEntity
  8
BORDER
  6
CONTINUOUS
 62
     2
100
AcDbLine
 39
96.0
 10
34.064
 20
58.316149
 30
0.0
 11
34.064
 21
58.316149
 31
0.0
  0
LINE
  5
A85
100
AcDbEntity
  8
BORDER
  6
CONTINUOUS
 62
     2
100
AcDbLine
 39
96.0
 10
33.59525
 20
58.316149
 30
0.0
 11
33.59525
 21
58.316149
 31
0.0
  0
LINE
  5
A86
100
AcDbEntity
  8
BORDER
  6
CONTINUOUS
 62
     2
100
AcDbLine
 39
96.0
 10
35.23587
 20
58.784849
 30
0.0
 11
35.23587
 21
58.784849
 31
0.0
  0
LINE
  5
A87
100
AcDbEntity
  8
BORDER
  6
CONTINUOUS
 62
     2
100
AcDbLine
 39
96.0
 10
34.76712
 20
58.784849
 30
0.0
 11
34.76712
 21
58.784849
 31
0.0
  0
LINE
  5
A88
100
AcDbEntity
  8
BORDER
  6
CONTINUOUS
 62
     2
100
AcDbLine
 39
96.0
 10
34.29837
 20
58.784849
 30
0.0
 11
34.29837
 21
58.784849
 31
0.0
  0
LINE
  5
A89
100
AcDbEntity
  8
BORDER
  6
CONTINUOUS
 62
     2
100
AcDbLine
 39
96.0
 10
33.82962
 20
58.784849
 30
0.0
 11
33.82962
 21
58.784849
 31
0.0
  0
LINE
  5
A8A
100
AcDbEntity
  8
BORDER
  6
CONTINUOUS
 62
     2
100
AcDbLine
 39
96.0
 10
35.0015
 20
59.253649
 30
0.0
 11
35.0015
 21
59.253649
 31
0.0
  0
LINE
  5
A8B
100
AcDbEntity
  8
BORDER
  6
CONTINUOUS
 62
     2
100
AcDbLine
 39
96.0
 10
34.53275
 20
59.253649
 30
0.0
 11
34.53275
 21
59.253649
 31
0.0
  0
LINE
  5
A8C
100
AcDbEntity
  8
BORDER
  6
CONTINUOUS
 62
     2
100
AcDbLine
 39
96.0
 10
34.064
 20
59.253649
 30
0.0
 11
34.064
 21
59.253649
 31
0.0
  0
LINE
  5
A8D
100
AcDbEntity
  8
BORDER
  6
CONTINUOUS
 62
     2
100
AcDbLine
 39
96.0
 10
33.59525
 20
59.253649
 30
0.0
 11
33.59525
 21
59.253649
 31
0.0
  0
LINE
  5
A8E
100
AcDbEntity
  8
BORDER
  6
CONTINUOUS
 62
     2
100
AcDbLine
 39
96.0
 10
35.23587
 20
59.722349
 30
0.0
 11
35.23587
 21
59.722349
 31
0.0
  0
LINE
  5
A8F
100
AcDbEntity
  8
BORDER
  6
CONTINUOUS
 62
     2
100
AcDbLine
 39
96.0
 10
34.76712
 20
59.722349
 30
0.0
 11
34.76712
 21
59.722349
 31
0.0
  0
LINE
  5
A90
100
AcDbEntity
  8
BORDER
  6
CONTINUOUS
 62
     2
100
AcDbLine
 39
96.0
 10
34.29837
 20
59.722349
 30
0.0
 11
34.29837
 21
59.722349
 31
0.0
  0
LINE
  5
A91
100
AcDbEntity
  8
BORDER
  6
CONTINUOUS
 62
     2
100
AcDbLine
 39
96.0
 10
33.82962
 20
59.722349
 30
0.0
 11
33.82962
 21
59.722349
 31
0.0
  0
LINE
  5
A92
100
AcDbEntity
  8
BORDER
  6
CONTINUOUS
 62
     2
100
AcDbLine
 39
96.0
 10
35.0015
 20
60.191149
 30
0.0
 11
35.0015
 21
60.191149
 31
0.0
  0
LINE
  5
A93
100
AcDbEntity
  8
BORDER
  6
CONTINUOUS
 62
     2
100
AcDbLine
 39
96.0
 10
34.53275
 20
60.191149
 30
0.0
 11
34.53275
 21
60.191149
 31
0.0
  0
LINE
  5
A94
100
AcDbEntity
  8
BORDER
  6
CONTINUOUS
 62
     2
100
AcDbLine
 39
96.0
 10
34.064
 20
60.191149
 30
0.0
 11
34.064
 21
60.191149
 31
0.0
  0
LINE
  5
A95
100
AcDbEntity
  8
BORDER
  6
CONTINUOUS
 62
     2
100
AcDbLine
 39
96.0
 10
33.59525
 20
60.191149
 30
0.0
 11
33.59525
 21
60.191149
 31
0.0
  0
LINE
  5
A96
100
AcDbEntity
  8
BORDER
  6
CONTINUOUS
 62
     1
100
AcDbLine
 39
96.0
 10
41.4495
 20
49.640549
 30
0.0
 11
41.46024
 21
49.702049
 31
0.0
  0
LINE
  5
A97
100
AcDbEntity
  8
BORDER
  6
CONTINUOUS
 62
     1
100
AcDbLine
 39
96.0
 10
41.01541
 20
47.178529
 30
0.0
 11
41.02616
 21
47.240049
 31
0.0
  0
LINE
  5
A98
100
AcDbEntity
  8
BORDER
  6
CONTINUOUS
 62
     1
100
AcDbLine
 39
96.0
 10
40.28983
 20
57.460749
 30
0.0
 11
40.30057
 21
57.522249
 31
0.0
  0
LINE
  5
A99
100
AcDbEntity
  8
BORDER
  6
CONTINUOUS
 62
     1
100
AcDbLine
 39
96.0
 10
39.85575
 20
54.998749
 30
0.0
 11
39.86649
 21
55.060249
 31
0.0
  0
LINE
  5
A9A
100
AcDbEntity
  8
BORDER
  6
CONTINUOUS
 62
     1
100
AcDbLine
 39
96.0
 10
39.42166
 20
52.536649
 30
0.0
 11
39.43241
 21
52.598249
 31
0.0
  0
LINE
  5
A9B
100
AcDbEntity
  8
BORDER
  6
CONTINUOUS
 62
     1
100
AcDbLine
 39
96.0
 10
38.98758
 20
50.074649
 30
0.0
 11
38.99832
 21
50.136149
 31
0.0
  0
LINE
  5
A9C
100
AcDbEntity
  8
BORDER
  6
CONTINUOUS
 62
     1
100
AcDbLine
 39
96.0
 10
37.39408
 20
55.432849
 30
0.0
 11
37.40482
 21
55.494349
 31
0.0
  0
LINE
  5
A9D
100
AcDbEntity
  8
BORDER
  6
CONTINUOUS
 62
     1
100
AcDbLine
 39
96.0
 10
36.95999
 20
52.970749
 30
0.0
 11
36.97074
 21
53.032249
 31
0.0
  0
LINE
  5
A9E
100
AcDbEntity
  8
BORDER
  6
CONTINUOUS
 62
     1
100
AcDbLine
 39
96.0
 10
36.52591
 20
50.508749
 30
0.0
 11
36.53665
 21
50.570249
 31
0.0
  0
LINE
  5
A9F
100
AcDbEntity
  8
BORDER
  6
CONTINUOUS
 62
     1
100
AcDbLine
 39
96.0
 10
36.09183
 20
48.046689
 30
0.0
 11
36.10257
 21
48.108249
 31
0.0
  0
LINE
  5
AA0
100
AcDbEntity
  8
BORDER
  6
CONTINUOUS
 62
     1
100
AcDbLine
 39
96.0
 10
35.36624
 20
58.328949
 30
0.0
 11
35.37699
 21
58.390449
 31
0.0
  0
LINE
  5
AA1
100
AcDbEntity
  8
BORDER
  6
CONTINUOUS
 62
     1
100
AcDbLine
 39
96.0
 10
41.37113
 20
48.036929
 30
0.0
 11
41.40702
 21
48.088149
 31
0.0
  0
LINE
  5
AA2
100
AcDbEntity
  8
BORDER
  6
CONTINUOUS
 62
     1
100
AcDbLine
 39
96.0
 10
40.7576
 20
51.518649
 30
0.0
 11
40.79349
 21
51.569749
 31
0.0
  0
LINE
  5
AA3
100
AcDbEntity
  8
BORDER
  6
CONTINUOUS
 62
     1
100
AcDbLine
 39
96.0
 10
39.32352
 20
49.470749
 30
0.0
 11
39.35941
 21
49.521949
 31
0.0
  0
LINE
  5
AA4
100
AcDbEntity
  8
BORDER
  6
CONTINUOUS
 62
     1
100
AcDbLine
 39
96.0
 10
40.14383
 20
55.000449
 30
0.0
 11
40.17972
 21
55.051549
 31
0.0
  0
LINE
  5
AA5
100
AcDbEntity
  8
BORDER
  6
CONTINUOUS
 62
     1
100
AcDbLine
 39
96.0
 10
38.70975
 20
52.952549
 30
0.0
 11
38.74564
 21
53.003749
 31
0.0
  0
LINE
  5
AA6
100
AcDbEntity
  8
BORDER
  6
CONTINUOUS
 62
     1
100
AcDbLine
 39
96.0
 10
37.27567
 20
50.904649
 30
0.0
 11
37.31156
 21
50.955849
 31
0.0
  0
LINE
  5
AA7
100
AcDbEntity
  8
BORDER
  6
CONTINUOUS
 62
     1
100
AcDbLine
 39
96.0
 10
35.84159
 20
48.856749
 30
0.0
 11
35.87747
 21
48.907949
 31
0.0
  0
LINE
  5
AA8
100
AcDbEntity
  8
BORDER
  6
CONTINUOUS
 62
     1
100
AcDbLine
 39
96.0
 10
38.09598
 20
56.434249
 30
0.0
 11
38.13187
 21
56.485449
 31
0.0
  0
LINE
  5
AA9
100
AcDbEntity
  8
BORDER
  6
CONTINUOUS
 62
     1
100
AcDbLine
 39
96.0
 10
36.6619
 20
54.386449
 30
0.0
 11
36.69779
 21
54.437549
 31
0.0
  0
LINE
  5
AAA
100
AcDbEntity
  8
BORDER
  6
CONTINUOUS
 62
     1
100
AcDbLine
 39
96.0
 10
36.04788
 20
57.868249
 30
0.0
 11
36.08377
 21
57.919449
 31
0.0
  0
LINE
  5
AAB
100
AcDbEntity
  8
BORDER
  6
CONTINUOUS
 62
     1
100
AcDbLine
 39
96.0
 10
40.70536
 20
47.619449
 30
0.0
 11
40.76419
 21
47.640809
 31
0.0
  0
LINE
  5
AAC
100
AcDbEntity
  8
BORDER
  6
CONTINUOUS
 62
     1
100
AcDbLine
 39
96.0
 10
39.61437
 20
48.787449
 30
0.0
 11
39.6732
 21
48.808849
 31
0.0
  0
LINE
  5
AAD
100
AcDbEntity
  8
BORDER
  6
CONTINUOUS
 62
     1
100
AcDbLine
 39
96.0
 10
37.50125
 20
49.113549
 30
0.0
 11
37.56009
 21
49.134949
 31
0.0
  0
LINE
  5
AAE
100
AcDbEntity
  8
BORDER
  6
CONTINUOUS
 62
     1
100
AcDbLine
 39
96.0
 10
41.345
 20
53.172949
 30
0.0
 11
41.40384
 21
53.194249
 31
0.0
  0
LINE
  5
AAF
100
AcDbEntity
  8
BORDER
  6
CONTINUOUS
 62
     1
100
AcDbLine
 39
96.0
 10
38.99564
 20
52.317849
 30
0.0
 11
39.05448
 21
52.339249
 31
0.0
  0
LINE
  5
AB0
100
AcDbEntity
  8
BORDER
  6
CONTINUOUS
 62
     1
100
AcDbLine
 39
96.0
 10
36.64627
 20
51.462849
 30
0.0
 11
36.70511
 21
51.484149
 31
0.0
  0
LINE
  5
AB1
100
AcDbEntity
  8
BORDER
  6
CONTINUOUS
 62
     1
100
AcDbLine
 39
96.0
 10
40.49002
 20
55.522149
 30
0.0
 11
40.54886
 21
55.543549
 31
0.0
  0
LINE
  5
AB2
100
AcDbEntity
  8
BORDER
  6
CONTINUOUS
 62
     1
100
AcDbLine
 39
96.0
 10
38.14066
 20
54.667149
 30
0.0
 11
38.1995
 21
54.688449
 31
0.0
  0
LINE
  5
AB3
100
AcDbEntity
  8
BORDER
  6
CONTINUOUS
 62
     1
100
AcDbLine
 39
96.0
 10
35.79129
 20
53.812049
 30
0.0
 11
35.85013
 21
53.833449
 31
0.0
  0
LINE
  5
AB4
100
AcDbEntity
  8
BORDER
  6
CONTINUOUS
 62
     1
100
AcDbLine
 39
96.0
 10
37.28568
 20
57.016449
 30
0.0
 11
37.34452
 21
57.037749
 31
0.0
  0
LINE
  5
AB5
100
AcDbEntity
  8
BORDER
  6
CONTINUOUS
 62
     3
100
AcDbLine
 39
96.0
 10
41.50785
 20
45.326909
 30
0.0
 11
43.38285
 21
45.326909
 31
0.0
  0
LINE
  5
AB6
100
AcDbEntity
  8
BORDER
  6
CONTINUOUS
 62
     3
100
AcDbLine
 39
96.0
 10
41.50785
 20
60.326949
 30
0.0
 11
33.38285
 21
60.326949
 31
0.0
  0
LINE
  5
AB7
100
AcDbEntity
  8
BORDER
  6
CONTINUOUS
 62
     3
100
AcDbLine
 39
96.0
 10
41.50785
 20
45.326909
 30
0.0
 11
41.50785
 21
52.06856
 31
0.0
  0
LINE
  5
AB8
100
AcDbEntity
  8
BORDER
  6
CONTINUOUS
 62
     3
100
AcDbLine
 39
96.0
 10
35.25785
 20
60.326949
 30
0.0
 11
35.25785
 21
45.326909
 31
0.0
  0
LINE
  5
AB9
100
AcDbEntity
  8
BORDER
  6
CONTINUOUS
 62
     3
100
AcDbLine
 39
96.0
 10
33.38285
 20
60.326949
 30
0.0
 11
33.38285
 21
45.326909
 31
0.0
  0
LINE
  5
ABA
100
AcDbEntity
  8
BORDER
  6
CONTINUOUS
 62
     3
100
AcDbLine
 39
96.0
 10
43.38285
 20
60.326949
 30
0.0
 11
41.50785
 21
60.326949
 31
0.0
  0
LINE
  5
ABB
100
AcDbEntity
  8
BORDER
  6
CONTINUOUS
 62
     3
100
AcDbLine
 39
96.0
 10
43.38285
 20
45.326909
 30
0.0
 11
43.38285
 21
60.326949
 31
0.0
  0
LINE
  5
ABC
100
AcDbEntity
  8
BORDER
  6
CONTINUOUS
 62
     3
100
AcDbLine
 39
96.0
 10
33.38285
 20
45.326909
 30
0.0
 11
35.25785
 21
45.326909
 31
0.0
  0
LINE
  5
ABD
100
AcDbEntity
  8
BORDER
  6
CONTINUOUS
 62
     3
100
AcDbLine
 39
96.0
 10
35.25785
 20
45.326909
 30
0.0
 11
33.38285
 21
45.326909
 31
0.0
  0
LINE
  5
ABE
100
AcDbEntity
  8
BORDER
  6
CONTINUOUS
 62
     3
100
AcDbLine
 39
96.0
 10
43.38285
 20
45.326909
 30
0.0
 11
41.50785
 21
45.326909
 31
0.0
  0
LINE
  5
ABF
100
AcDbEntity
  8
BORDER
  6
CONTINUOUS
 62
     7
100
AcDbLine
 39
96.0
 10
72.67339
 20
61.215349
 30
0.0
 11
61.298191
 21
54.740285
 31
0.0
  0
LINE
  5
AC0
100
AcDbEntity
  8
BORDER
  6
CONTINUOUS
 62
     7
100
AcDbLine
 39
96.0
 10
56.310628
 20
63.068145
 30
0.0
 11
47.516321
 21
56.951754
 31
0.0
  0
LINE
  5
AC1
100
AcDbEntity
  8
BORDER
  6
CONTINUOUS
 62
     7
100
AcDbLine
 39
96.0
 10
54.13652
 20
53.420949
 30
0.0
 11
54.13652
 21
55.281449
 31
0.0
  0
LINE
  5
AC2
100
AcDbEntity
  8
BORDER
  6
CONTINUOUS
 62
     7
100
AcDbLine
 39
96.0
 10
55.9085
 20
53.420949
 30
0.0
 11
55.9085
 21
55.281449
 31
0.0
  0
LINE
  5
AC3
100
AcDbEntity
  8
BORDER
  6
CONTINUOUS
 62
     7
100
AcDbLine
 39
96.0
 10
57.68022
 20
53.420949
 30
0.0
 11
57.68022
 21
55.281449
 31
0.0
  0
LINE
  5
AC4
100
AcDbEntity
  8
BORDER
  6
CONTINUOUS
 62
     7
100
AcDbLine
 39
96.0
 10
64.76787
 20
53.420949
 30
0.0
 11
64.76787
 21
55.281449
 31
0.0
  0
LINE
  5
AC5
100
AcDbEntity
  8
BORDER
  6
CONTINUOUS
 62
     7
100
AcDbLine
 39
96.0
 10
62.9959
 20
53.420949
 30
0.0
 11
62.9959
 21
55.281449
 31
0.0
  0
LINE
  5
AC6
100
AcDbEntity
  8
BORDER
  6
CONTINUOUS
 62
     7
100
AcDbLine
 39
96.0
 10
61.22417
 20
53.420949
 30
0.0
 11
61.22417
 21
55.281449
 31
0.0
  0
LINE
  5
AC7
100
AcDbEntity
  8
BORDER
  6
CONTINUOUS
 62
     7
100
AcDbLine
 39
96.0
 10
59.4522
 20
53.420949
 30
0.0
 11
59.4522
 21
55.281449
 31
0.0
  0
LINE
  5
AC8
100
AcDbEntity
  8
BORDER
  6
CONTINUOUS
 62
     3
100
AcDbLine
 39
96.0
 10
65.36357
 20
53.775349
 30
0.0
 11
53.36357
 21
53.775349
 31
0.0
  0
LINE
  5
AC9
100
AcDbEntity
  8
BORDER
  6
CONTINUOUS
 62
     7
100
AcDbLine
 39
96.0
 10
43.679396
 20
53.775349
 30
0.0
 11
45.588826
 21
56.401049
 31
0.0
  0
LINE
  5
ACA
100
AcDbEntity
  8
BORDER
  6
CONTINUOUS
 62
     7
100
AcDbLine
 39
96.0
 10
58.013646
 20
59.950949
 30
0.0
 11
58.562956
 21
58.027849
 31
0.0
  0
LINE
  5
ACB
100
AcDbEntity
  8
BORDER
  6
CONTINUOUS
 62
     7
100
AcDbLine
 39
96.0
 10
45.588826
 20
56.401049
 30
0.0
 11
58.013646
 21
59.950949
 31
0.0
  0
LINE
  5
ACC
100
AcDbEntity
  8
BORDER
  6
CONTINUOUS
 62
     7
100
AcDbLine
 39
96.0
 10
43.679396
 20
53.775349
 30
0.0
 11
58.562956
 21
58.027849
 31
0.0
  0
LINE
  5
ACD
100
AcDbEntity
  8
BORDER
  6
CONTINUOUS
 62
     3
100
AcDbLine
 39
96.0
 10
36.77225
 20
53.775349
 30
0.0
 11
43.679396
 21
53.775349
 31
0.0
  0
LINE
  5
ACE
100
AcDbEntity
  8
BORDER
  6
CONTINUOUS
 62
     7
100
AcDbLine
 39
96.0
 10
16.336339
 20
63.787345
 30
0.0
 11
19.614419
 21
63.787345
 31
0.0
  0
LINE
  5
ACF
100
AcDbEntity
  8
BORDER
  6
CONTINUOUS
 62
     7
100
AcDbLine
 39
96.0
 10
61.023119
 20
63.698745
 30
0.0
 11
57.390799
 21
63.698745
 31
0.0
  0
LINE
  5
AD0
100
AcDbEntity
  8
BORDER
  6
CONTINUOUS
 62
     3
100
AcDbLine
 39
96.0
 10
69.8355
 20
56.964749
 30
0.0
 11
72.22735
 21
55.812949
 31
0.0
  0
LINE
  5
AD1
100
AcDbEntity
  8
BORDER
  6
CONTINUOUS
 62
     3
100
AcDbLine
 39
96.0
 10
74.44219
 20
60.154049
 30
0.0
 11
69.8355
 21
56.964749
 31
0.0
  0
LINE
  5
AD2
100
AcDbEntity
  8
BORDER
  6
CONTINUOUS
 62
     3
100
AcDbLine
 39
96.0
 10
72.22735
 20
61.483049
 30
0.0
 11
74.44219
 21
60.154049
 31
0.0
  0
LINE
  5
AD3
100
AcDbEntity
  8
BORDER
  6
CONTINUOUS
 62
     3
100
AcDbLine
 39
96.0
 10
72.22735
 20
61.483049
 30
0.0
 11
72.22735
 21
65.203949
 31
0.0
  0
LINE
  5
AD4
100
AcDbEntity
  8
BORDER
  6
CONTINUOUS
 62
     3
100
AcDbLine
 39
96.0
 10
72.22735
 20
52.712249
 30
0.0
 11
72.22735
 21
55.812949
 31
0.0
  0
LINE
  5
AD5
100
AcDbEntity
  8
BORDER
  6
CONTINUOUS
 62
     7
100
AcDbLine
 39
96.0
 10
43.38285
 20
54.076949
 30
0.0
 11
43.898722
 21
54.076949
 31
0.0
  0
LINE
  5
AD6
100
AcDbEntity
  8
BORDER
  6
CONTINUOUS
 62
     7
100
AcDbLine
 39
96.0
 10
18.195719
 20
63.068145
 30
0.0
 11
58.127162
 21
63.068145
 31
0.0
  0
LINE
  5
AD7
100
AcDbEntity
  8
BORDER
  6
CONTINUOUS
 62
     3
100
AcDbLine
 39
96.0
 10
17.597079
 20
64.568145
 30
0.0
 11
18.347079
 21
65.318145
 31
0.0
  0
LINE
  5
AD8
100
AcDbEntity
  8
BORDER
  6
CONTINUOUS
 62
     3
100
AcDbLine
 39
96.0
 10
18.195719
 20
64.568145
 30
0.0
 11
16.695719
 21
55.318145
 31
0.0
  0
LINE
  5
AD9
100
AcDbEntity
  8
BORDER
  6
CONTINUOUS
 62
     3
100
AcDbLine
 39
96.0
 10
16.695719
 20
64.568145
 30
0.0
 11
18.195719
 21
55.318145
 31
0.0
  0
LINE
  5
ADA
100
AcDbEntity
  8
BORDER
  6
CONTINUOUS
 62
     7
100
AcDbLine
 39
96.0
 10
18.195719
 20
55.318145
 30
0.0
 11
18.195719
 21
64.568145
 31
0.0
  0
LINE
  5
ADB
100
AcDbEntity
  8
BORDER
  6
CONTINUOUS
 62
     7
100
AcDbLine
 39
96.0
 10
16.695719
 20
55.318145
 30
0.0
 11
18.195719
 21
55.318145
 31
0.0
  0
LINE
  5
ADC
100
AcDbEntity
  8
BORDER
  6
CONTINUOUS
 62
     7
100
AcDbLine
 39
96.0
 10
16.695719
 20
65.318145
 30
0.0
 11
16.695719
 21
55.318145
 31
0.0
  0
LINE
  5
ADD
100
AcDbEntity
  8
BORDER
  6
CONTINUOUS
 62
     7
100
AcDbLine
 39
96.0
 10
38.269419
 20
65.568145
 30
0.0
 11
38.269419
 21
62.130645
 31
0.0
  0
LINE
  5
ADE
100
AcDbEntity
  8
BORDER
  6
CONTINUOUS
 62
     3
100
AcDbLine
 39
96.0
 10
16.695719
 20
64.943145
 30
0.0
 11
72.540219
 21
64.943145
 31
0.0
  0
LINE
  5
ADF
100
AcDbEntity
  8
BORDER
  6
CONTINUOUS
 62
     3
100
AcDbLine
 39
96.0
 10
71.287529
 20
64.568145
 30
0.0
 11
72.037529
 21
65.318145
 31
0.0
  0
LINE
  5
AE0
100
AcDbEntity
  8
BORDER
  6
CONTINUOUS
 62
     3
100
AcDbLine
 39
96.0
 10
69.299249
 20
64.568145
 30
0.0
 11
70.049249
 21
65.318145
 31
0.0
  0
LINE
  5
AE1
100
AcDbEntity
  8
BORDER
  6
CONTINUOUS
 62
     3
100
AcDbLine
 39
96.0
 10
67.310969
 20
64.568145
 30
0.0
 11
68.060969
 21
65.318145
 31
0.0
  0
LINE
  5
AE2
100
AcDbEntity
  8
BORDER
  6
CONTINUOUS
 62
     3
100
AcDbLine
 39
96.0
 10
65.322679
 20
64.568145
 30
0.0
 11
66.072679
 21
65.318145
 31
0.0
  0
LINE
  5
AE3
100
AcDbEntity
  8
BORDER
  6
CONTINUOUS
 62
     3
100
AcDbLine
 39
96.0
 10
63.333429
 20
64.568145
 30
0.0
 11
64.083429
 21
65.318145
 31
0.0
  0
LINE
  5
AE4
100
AcDbEntity
  8
BORDER
  6
CONTINUOUS
 62
     3
100
AcDbLine
 39
96.0
 10
61.345139
 20
64.568145
 30
0.0
 11
62.096119
 21
65.318145
 31
0.0
  0
LINE
  5
AE5
100
AcDbEntity
  8
BORDER
  6
CONTINUOUS
 62
     3
100
AcDbLine
 39
96.0
 10
59.356859
 20
64.568145
 30
0.0
 11
60.106859
 21
65.318145
 31
0.0
  0
LINE
  5
AE6
100
AcDbEntity
  8
BORDER
  6
CONTINUOUS
 62
     3
100
AcDbLine
 39
96.0
 10
57.368579
 20
64.568145
 30
0.0
 11
58.118579
 21
65.318145
 31
0.0
  0
LINE
  5
AE7
100
AcDbEntity
  8
BORDER
  6
CONTINUOUS
 62
     3
100
AcDbLine
 39
96.0
 10
55.379319
 20
64.568145
 30
0.0
 11
56.129319
 21
65.318145
 31
0.0
  0
LINE
  5
AE8
100
AcDbEntity
  8
BORDER
  6
CONTINUOUS
 62
     3
100
AcDbLine
 39
96.0
 10
53.391039
 20
64.568145
 30
0.0
 11
54.142019
 21
65.318145
 31
0.0
  0
LINE
  5
AE9
100
AcDbEntity
  8
BORDER
  6
CONTINUOUS
 62
     3
100
AcDbLine
 39
96.0
 10
51.402759
 20
64.568145
 30
0.0
 11
52.152759
 21
65.318145
 31
0.0
  0
LINE
  5
AEA
100
AcDbEntity
  8
BORDER
  6
CONTINUOUS
 62
     3
100
AcDbLine
 39
96.0
 10
49.414479
 20
64.568145
 30
0.0
 11
50.164479
 21
65.318145
 31
0.0
  0
LINE
  5
AEB
100
AcDbEntity
  8
BORDER
  6
CONTINUOUS
 62
     3
100
AcDbLine
 39
96.0
 10
47.425209
 20
64.568145
 30
0.0
 11
48.175209
 21
65.318145
 31
0.0
  0
LINE
  5
AEC
100
AcDbEntity
  8
BORDER
  6
CONTINUOUS
 62
     3
100
AcDbLine
 39
96.0
 10
45.437899
 20
64.568145
 30
0.0
 11
46.187899
 21
65.318145
 31
0.0
  0
LINE
  5
AED
100
AcDbEntity
  8
BORDER
  6
CONTINUOUS
 62
     3
100
AcDbLine
 39
96.0
 10
43.448649
 20
64.568145
 30
0.0
 11
44.198649
 21
65.318145
 31
0.0
  0
LINE
  5
AEE
100
AcDbEntity
  8
BORDER
  6
CONTINUOUS
 62
     3
100
AcDbLine
 39
96.0
 10
41.460359
 20
64.568145
 30
0.0
 11
42.210359
 21
65.318145
 31
0.0
  0
LINE
  5
AEF
100
AcDbEntity
  8
BORDER
  6
CONTINUOUS
 62
     3
100
AcDbLine
 39
96.0
 10
39.471109
 20
64.568145
 30
0.0
 11
40.222079
 21
65.318145
 31
0.0
  0
LINE
  5
AF0
100
AcDbEntity
  8
BORDER
  6
CONTINUOUS
 62
     3
100
AcDbLine
 39
96.0
 10
37.483799
 20
64.568145
 30
0.0
 11
38.233799
 21
65.318145
 31
0.0
  0
LINE
  5
AF1
100
AcDbEntity
  8
BORDER
  6
CONTINUOUS
 62
     3
100
AcDbLine
 39
96.0
 10
35.494539
 20
64.568145
 30
0.0
 11
36.244539
 21
65.318145
 31
0.0
  0
LINE
  5
AF2
100
AcDbEntity
  8
BORDER
  6
CONTINUOUS
 62
     3
100
AcDbLine
 39
96.0
 10
33.506259
 20
64.568145
 30
0.0
 11
34.256259
 21
65.318145
 31
0.0
  0
LINE
  5
AF3
100
AcDbEntity
  8
BORDER
  6
CONTINUOUS
 62
     3
100
AcDbLine
 39
96.0
 10
31.516999
 20
64.568145
 30
0.0
 11
32.267979
 21
65.318145
 31
0.0
  0
LINE
  5
AF4
100
AcDbEntity
  8
BORDER
  6
CONTINUOUS
 62
     3
100
AcDbLine
 39
96.0
 10
29.529699
 20
64.568145
 30
0.0
 11
30.279699
 21
65.318145
 31
0.0
  0
LINE
  5
AF5
100
AcDbEntity
  8
BORDER
  6
CONTINUOUS
 62
     3
100
AcDbLine
 39
96.0
 10
27.540439
 20
64.568145
 30
0.0
 11
28.290439
 21
65.318145
 31
0.0
  0
LINE
  5
AF6
100
AcDbEntity
  8
BORDER
  6
CONTINUOUS
 62
     3
100
AcDbLine
 39
96.0
 10
25.552159
 20
64.568145
 30
0.0
 11
26.302159
 21
65.318145
 31
0.0
  0
LINE
  5
AF7
100
AcDbEntity
  8
BORDER
  6
CONTINUOUS
 62
     3
100
AcDbLine
 39
96.0
 10
23.563879
 20
64.568145
 30
0.0
 11
24.313879
 21
65.318145
 31
0.0
  0
LINE
  5
AF8
100
AcDbEntity
  8
BORDER
  6
CONTINUOUS
 62
     3
100
AcDbLine
 39
96.0
 10
21.575599
 20
64.568145
 30
0.0
 11
22.325599
 21
65.318145
 31
0.0
  0
LINE
  5
AF9
100
AcDbEntity
  8
BORDER
  6
CONTINUOUS
 62
     3
100
AcDbLine
 39
96.0
 10
19.586339
 20
64.568145
 30
0.0
 11
20.336339
 21
65.318145
 31
0.0
  0
LINE
  5
AFA
100
AcDbEntity
  8
BORDER
  6
CONTINUOUS
 62
     3
100
AcDbLine
 39
96.0
 10
60.445729
 20
64.568145
 30
0.0
 11
58.945729
 21
61.068145
 31
0.0
  0
LINE
  5
AFB
100
AcDbEntity
  8
BORDER
  6
CONTINUOUS
 62
     3
100
AcDbLine
 39
96.0
 10
60.445729
 20
61.068145
 30
0.0
 11
58.945729
 21
64.568145
 31
0.0
  0
LINE
  5
AFC
100
AcDbEntity
  8
BORDER
  6
CONTINUOUS
 62
     7
100
AcDbLine
 39
96.0
 10
58.945729
 20
61.068145
 30
0.0
 11
60.445729
 21
61.068145
 31
0.0
  0
LINE
  5
AFD
100
AcDbEntity
  8
BORDER
  6
CONTINUOUS
 62
     3
100
AcDbLine
 39
96.0
 10
60.445729
 20
38.576909
 30
0.0
 11
58.945729
 21
35.076909
 31
0.0
  0
LINE
  5
AFE
100
AcDbEntity
  8
BORDER
  6
CONTINUOUS
 62
     3
100
AcDbLine
 39
96.0
 10
58.945729
 20
38.576909
 30
0.0
 11
60.445729
 21
35.076909
 31
0.0
  0
LINE
  5
AFF
100
AcDbEntity
  8
BORDER
  6
CONTINUOUS
 62
     7
100
AcDbLine
 39
96.0
 10
58.945729
 20
38.576909
 30
0.0
 11
60.445729
 21
38.576909
 31
0.0
  0
LINE
  5
B00
100
AcDbEntity
  8
BORDER
  6
CONTINUOUS
 62
     7
100
AcDbLine
 39
96.0
 10
58.945729
 20
35.076909
 30
0.0
 11
60.445729
 21
35.076909
 31
0.0
  0
LINE
  5
B01
100
AcDbEntity
  8
BORDER
  6
CONTINUOUS
 62
     7
100
AcDbLine
 39
96.0
 10
60.445729
 20
64.568145
 30
0.0
 11
60.445729
 21
35.076909
 31
0.0
  0
LINE
  5
B02
100
AcDbEntity
  8
BORDER
  6
CONTINUOUS
 62
     7
100
AcDbLine
 39
96.0
 10
58.945729
 20
64.568145
 30
0.0
 11
58.945729
 21
35.076909
 31
0.0
  0
LINE
  5
B03
100
AcDbEntity
  8
BORDER
  6
CONTINUOUS
 62
     3
100
AcDbLine
 39
96.0
 10
38.667849
 20
63.014045
 30
0.0
 11
38.667849
 21
53.034645
 31
0.0
  0
LINE
  5
B04
100
AcDbEntity
  8
BORDER
  6
CONTINUOUS
 62
     7
100
AcDbLine
 39
96.0
 10
39.167849
 20
62.491345
 30
0.0
 11
39.167849
 21
63.053845
 31
0.0
  0
LINE
  5
B05
100
AcDbEntity
  8
BORDER
  6
CONTINUOUS
 62
     7
100
AcDbLine
 39
96.0
 10
38.230349
 20
62.491345
 30
0.0
 11
39.167849
 21
62.491345
 31
0.0
  0
LINE
  5
B06
100
AcDbEntity
  8
BORDER
  6
CONTINUOUS
 62
     7
100
AcDbLine
 39
96.0
 10
38.230349
 20
63.053845
 30
0.0
 11
38.230349
 21
62.491345
 31
0.0
  0
LINE
  5
B07
100
AcDbEntity
  8
BORDER
  6
CONTINUOUS
 62
     7
100
AcDbLine
 39
96.0
 10
16.695719
 20
65.318145
 30
0.0
 11
72.540219
 21
65.318145
 31
0.0
  0
LINE
  5
B08
100
AcDbEntity
  8
BORDER
  6
CONTINUOUS
 62
     7
100
AcDbLine
 39
96.0
 10
16.695719
 20
64.568145
 30
0.0
 11
72.540219
 21
64.568145
 31
0.0
  0
LINE
  5
B09
100
AcDbEntity
  8
BORDER
  6
CONTINUOUS
 62
     3
100
AcDbLine
 39
96.0
 10
41.695719
 20
60.326949
 30
0.0
 11
35.695719
 21
63.053845
 31
0.0
  0
LINE
  5
B0A
100
AcDbEntity
  8
BORDER
  6
CONTINUOUS
 62
     3
100
AcDbLine
 39
96.0
 10
35.695719
 20
60.326949
 30
0.0
 11
41.695719
 21
63.053845
 31
0.0
  0
LINE
  5
B0B
100
AcDbEntity
  8
BORDER
  6
CONTINUOUS
 62
     7
100
AcDbLine
 39
96.0
 10
35.695719
 20
63.053845
 30
0.0
 11
35.695719
 21
60.326949
 31
0.0
  0
LINE
  5
B0C
100
AcDbEntity
  8
BORDER
  6
CONTINUOUS
 62
     7
100
AcDbLine
 39
96.0
 10
41.695719
 20
60.326949
 30
0.0
 11
41.695719
 21
63.053845
 31
0.0
  0
TEXT
  5
B0D
100
AcDbEntity
  8
DIM_TEXT
100
AcDbText
 10
5.309002
 20
25.89348
 30
0.0
 40
1.124955
  1
(MIN. #4 @ 30" O.C.)
 51
15.0
  7
INFO
100
AcDbText
  0
TEXT
  5
B0E
100
AcDbEntity
  8
DIM_TEXT
100
AcDbText
 10
12.577902
 20
27.772513
 30
0.0
 40
1.124955
  1
HORIZ. REINF.
 51
15.0
  7
INFO
100
AcDbText
  0
TEXT
  5
B0F
100
AcDbEntity
  8
DIM_TEXT
100
AcDbText
 10
14.022112
 20
35.474553
 30
0.0
 40
1.124955
  1
VERT. REINF.
 51
15.0
  7
INFO
100
AcDbText
  0
TEXT
  5
B10
100
AcDbEntity
  8
DIM_TEXT
100
AcDbText
 10
5.821537
 20
33.617747
 30
0.0
 40
1.124955
  1
(MIN. #4 @ 30" O.C.
 51
15.0
  7
INFO
100
AcDbText
  0
TEXT
  5
B11
100
AcDbEntity
  8
DIM_TEXT
100
AcDbText
 10
3.795849
 20
31.487972
 30
0.0
 40
1.124955
  1
REQUIRED, PER DESIGN)
 51
15.0
  7
INFO
100
AcDbText
  0
TEXT
  5
B12
100
AcDbEntity
  8
DIM_TEXT
100
AcDbText
 10
3.846279
 20
23.898504
 30
0.0
 40
1.124955
  1
REQUIRED, PER DESIGN)
 51
15.0
  7
INFO
100
AcDbText
  0
TEXT
  5
B13
100
AcDbEntity
  8
DIM_TEXT
100
AcDbText
 10
12.56316
 20
41.903063
 30
0.0
 40
1.125
  1
NOTCH PANEL
 51
15.0
  7
INFO
100
AcDbText
  0
TEXT
  5
B14
100
AcDbEntity
  8
DIM_TEXT
100
AcDbText
 10
12.56316
 20
40.251768
 30
0.0
 40
1.125
  1
@ ANCHORAGE
 51
15.0
  7
INFO
100
AcDbText
  0
TEXT
  5
B15
100
AcDbEntity
  8
DIM_TEXT
100
AcDbText
 10
13.274291
 20
45.113903
 30
0.0
 40
1.125
  1
@ 45" O.C.)
 51
15.0
  7
INFO
100
AcDbText
  0
TEXT
  5
B16
100
AcDbEntity
  8
DIM_TEXT
100
AcDbText
 10
13.274291
 20
47.100671
 30
0.0
 40
1.125
  1
(MIN. 1/2"%%C A.B. 
 51
15.0
  7
INFO
100
AcDbText
  0
TEXT
  5
B17
100
AcDbEntity
  8
DIM_TEXT
100
AcDbText
 10
13.274291
 20
49.029381
 30
0.0
 40
1.125
  1
ANCHOR BOLTS
 51
15.0
  7
INFO
100
AcDbText
  0
TEXT
  5
B18
100
AcDbEntity
  8
DIM_TEXT
100
AcDbText
 10
13.274291
 20
50.958091
 30
0.0
 40
1.125
  1
COUNTERSUNK
 51
15.0
  7
INFO
100
AcDbText
  0
TEXT
  5
B19
100
AcDbEntity
  8
DIM_TEXT
100
AcDbText
 10
13.274291
 20
52.886811
 30
0.0
 40
1.125
  1
4x PL. WITH
 51
15.0
  7
INFO
100
AcDbText
  0
TEXT
  5
B1A
100
AcDbEntity
  8
DIM_TEXT
100
AcDbText
 10
66.44341
 20
35.304689
 30
0.0
 40
1.125
  1
PREFAB. TRUSSES
 51
15.0
  7
INFO
100
AcDbText
  0
TEXT
  5
B1B
100
AcDbEntity
  8
DIM_TEXT
100
AcDbText
 10
67.32915
 20
42.569399
 30
0.0
 40
1.125
  1
STRAP 
 51
15.0
  7
INFO
100
AcDbText
  0
LINE
  5
B1C
100
AcDbEntity
  8
DIM_TEXT
100
AcDbLine
 10
71.58184
 20
48.593749
 30
0.0
 11
69.80987
 21
48.593749
 31
0.0
  0
LINE
  5
B1D
100
AcDbEntity
  8
DIM_TEXT
100
AcDbLine
 10
46.95267
 20
26.236629
 30
0.0
 11
44.35233
 21
27.926939
 31
0.0
  0
TEXT
  5
B1E
100
AcDbEntity
  8
DIM_TEXT
100
AcDbText
 10
48.19315
 20
25.350649
 30
0.0
 40
1.125
  1
RASTRA WALL
 51
15.0
  7
INFO
100
AcDbText
  0
LINE
  5
B1F
100
AcDbEntity
  8
DIM_TEXT
100
AcDbLine
 10
48.0159
 20
26.236629
 30
0.0
 11
46.95267
 21
26.236629
 31
0.0
  0
LEADER
  5
B20
100
AcDbEntity
  8
BORDER
  6
CONTINUOUS
 62
     6
100
AcDbLeader
  3
STANDARD
 76
     3
 10
40.431789
 20
54.532204
 30
0.0
 10
49.796923
 20
73.622556
 30
0.0
 10
51.684078
 20
73.622556
 30
0.0
 77
    11
211
-1.0
221
0.0
231
0.0
1001
ACAD
1000
DSTYLE
1002
{
1070
    78
1070
     1
1070
   140
1040
6.0
1070
    73
1070
     0
1070
    77
1070
     1
1070
   173
1070
     1
1070
    42
1040
6.0
1070
    44
1040
0.0
1070
    43
1040
24.0
1070
   176
1070
     6
1070
   141
1040
3.0
1070
     7
1000
_CLOSEDBLANK
1070
     6
1000
_CLOSEDBLANK
1070
    41
1040
1.5
1002
}
  0
LINE
  5
B21
100
AcDbEntity
  8
0
  6
HIDDEN
 62
     7
100
AcDbLine
 39
96.0
 10
41.50785
 20
55.080498
 30
0.0
 11
41.50785
 21
52.06856
 31
0.0
  0
LINE
  5
B22
100
AcDbEntity
  8
DIM_TEXT
100
AcDbLine
 10
24.983399
 20
53.574311
 30
0.0
 11
35.316693
 21
59.727911
 31
0.0
  0
LEADER
  5
B23
100
AcDbEntity
  8
RF-SW
 62
     6
100
AcDbLeader
  3
ARCHITECTURAL
 76
     3
 10
38.602341
 20
36.013249
 30
0.0
 10
26.945842
 20
27.973409
 30
0.0
 10
25.156573
 20
27.973409
 30
0.0
 77
    13
1001
ACAD
1000
DSTYLE
1002
{
1070
    40
1040
12.0
1070
   173
1070
     1
1070
   176
1070
     6
1070
     7
1000
_CLOSEDBLANK
1070
     6
1000
_CLOSEDBLANK
1002
}
  0
LEADER
  5
B24
100
AcDbEntity
  8
RF-SW
 62
     6
100
AcDbLeader
  3
ARCHITECTURAL
 76
     3
 10
37.661619
 20
43.346389
 30
0.0
 10
26.475481
 20
36.271229
 30
0.0
 10
24.686213
 20
36.271229
 30
0.0
 77
    13
1001
ACAD
1000
DSTYLE
1002
{
1070
    40
1040
12.0
1070
   173
1070
     1
1070
   176
1070
     6
1070
     7
1000
_CLOSEDBLANK
1070
     6
1000
_CLOSEDBLANK
1002
}
  0
LEADER
  5
B25
100
AcDbEntity
  8
BORDER
  6
CONTINUOUS
 62
     6
100
AcDbLeader
  3
STANDARD
 76
     3
 10
41.513527
 20
53.172949
 30
0.0
 10
26.158774
 20
42.525355
 30
0.0
 10
24.271619
 20
42.525355
 30
0.0
 77
    11
1001
ACAD
1000
DSTYLE
1002
{
1070
    78
1070
     1
1070
   140
1040
6.0
1070
    73
1070
     0
1070
    77
1070
     1
1070
   173
1070
     1
1070
    42
1040
6.0
1070
    44
1040
0.0
1070
    43
1040
24.0
1070
   176
1070
     6
1070
   141
1040
3.0
1070
     7
1000
_CLOSEDBLANK
1070
     6
1000
_CLOSEDBLANK
1070
    41
1040
1.5
1002
}
  0
LINE
  5
B26
100
AcDbEntity
  8
DIM_TEXT
100
AcDbLine
 10
24.295899
 20
53.574311
 30
0.0
 11
24.983399
 21
53.574311
 31
0.0
  0
LINE
  5
B27
100
AcDbEntity
  8
DIM_TEXT
100
AcDbLine
 10
44.55667
 20
28.241329
 30
0.0
 11
44.14798
 21
27.612549
 31
0.0
  0
LINE
  5
B28
100
AcDbEntity
  8
DIM_TEXT
100
AcDbLine
 10
43.40897
 20
28.540039
 30
0.0
 11
44.14798
 21
27.612549
 31
0.0
  0
LINE
  5
B29
100
AcDbEntity
  8
DIM_TEXT
100
AcDbLine
 10
43.40897
 20
28.540039
 30
0.0
 11
44.55667
 21
28.241329
 31
0.0
  0
TEXT
  5
B2A
100
AcDbEntity
  8
DIM_TEXT
100
AcDbText
 10
25.944631
 20
71.964008
 30
0.0
 40
1.125
  1
TRANSVERSE MEMBER
 51
15.0
  7
INFO
100
AcDbText
  0
TEXT
  5
B2B
100
AcDbEntity
  8
DIM_TEXT
100
AcDbText
 10
25.321745
 20
68.443145
 30
0.0
 40
1.125
  1
BOUND. NAIL
 51
15.0
  7
INFO
100
AcDbText
  0
LEADER
  5
B2C
100
AcDbEntity
  8
BORDER
  6
CONTINUOUS
 62
     6
100
AcDbLeader
  3
STANDARD
 76
     3
 10
21.575599
 20
64.568145
 30
0.0
 10
23.964277
 20
72.468782
 30
0.0
 10
25.851432
 20
72.468782
 30
0.0
 77
    11
211
-1.0
221
0.0
231
0.0
1001
ACAD
1000
DSTYLE
1002
{
1070
    78
1070
     1
1070
   140
1040
6.0
1070
    73
1070
     0
1070
    77
1070
     1
1070
   173
1070
     1
1070
    42
1040
6.0
1070
    44
1040
0.0
1070
    43
1040
24.0
1070
   176
1070
     6
1070
   141
1040
3.0
1070
     7
1000
_CLOSEDBLANK
1070
     6
1000
_CLOSEDBLANK
1070
    41
1040
1.5
1002
}
  0
LINE
  5
B2D
100
AcDbEntity
  8
DIM_TEXT
100
AcDbLine
 10
37.012188
 20
69.005645
 30
0.0
 11
37.894287
 21
66.563381
 31
0.0
  0
LINE
  5
B2E
100
AcDbEntity
  8
DIM_TEXT
100
AcDbLine
 10
36.265598
 20
60.333082
 30
0.0
 11
35.111133
 21
60.058279
 31
0.0
  0
LINE
  5
B2F
100
AcDbEntity
  8
DIM_TEXT
100
AcDbLine
 10
36.265598
 20
60.333082
 30
0.0
 11
35.507586
 21
59.421117
 31
0.0
  0
LINE
  5
B30
100
AcDbEntity
  8
DIM_TEXT
100
AcDbLine
 10
35.507586
 20
59.421117
 30
0.0
 11
35.111133
 21
60.058279
 31
0.0
  0
LINE
  5
B31
100
AcDbEntity
  8
DIM_TEXT
100
AcDbLine
 10
38.276259
 20
65.505645
 30
0.0
 11
38.2475
 21
66.690693
 31
0.0
  0
LINE
  5
B32
100
AcDbEntity
  8
DIM_TEXT
100
AcDbLine
 10
38.2475
 20
66.690693
 30
0.0
 11
37.541134
 21
66.436148
 31
0.0
  0
LINE
  5
B33
100
AcDbEntity
  8
DIM_TEXT
100
AcDbLine
 10
38.276259
 20
65.505645
 30
0.0
 11
37.541134
 21
66.436148
 31
0.0
  0
LINE
  5
B34
100
AcDbEntity
  8
DIM_TEXT
100
AcDbLine
 10
36.263709
 20
69.005645
 30
0.0
 11
37.012188
 21
69.005645
 31
0.0
  0
LINE
  5
B35
100
AcDbEntity
  8
DIM_TEXT
100
AcDbLine
 10
46.33255
 20
54.765849
 30
0.0
 11
46.06327
 21
53.610949
 31
0.0
  0
LINE
  5
B36
100
AcDbEntity
  8
DIM_TEXT
100
AcDbLine
 10
46.33255
 20
54.765849
 30
0.0
 11
46.81009
 21
53.680349
 31
0.0
  0
TEXT
  5
B37
100
AcDbEntity
  8
DIM_TEXT
100
AcDbText
 10
47.66141
 20
47.019589
 30
0.0
 40
1.125
  1
ANCHORAGE
 51
15.0
  7
INFO
100
AcDbText
  0
TEXT
  5
B38
100
AcDbEntity
  8
DIM_TEXT
100
AcDbText
 10
47.66141
 20
48.948119
 30
0.0
 40
1.125
  1
WALL/ROOF
 51
15.0
  7
INFO
100
AcDbText
  0
LINE
  5
B39
100
AcDbEntity
  8
DIM_TEXT
100
AcDbLine
 10
46.81009
 20
53.680349
 30
0.0
 11
46.06327
 21
53.610949
 31
0.0
  0
LINE
  5
B3A
100
AcDbEntity
  8
DIM_TEXT
100
AcDbLine
 10
46.80496
 20
49.686449
 30
0.0
 11
46.4368
 21
53.645649
 31
0.0
  0
LINE
  5
B3B
100
AcDbEntity
  8
DIM_TEXT
100
AcDbLine
 10
47.33646
 20
49.686449
 30
0.0
 11
46.80496
 21
49.686449
 31
0.0
  0
LINE
  5
B3C
100
AcDbEntity
  8
DIM_TEXT
100
AcDbLine
 10
64.49419
 20
36.013429
 30
0.0
 11
61.1231
 21
37.227049
 31
0.0
  0
LINE
  5
B3D
100
AcDbEntity
  8
DIM_TEXT
100
AcDbLine
 10
60.0645
 20
37.608159
 30
0.0
 11
60.9959
 21
36.874269
 31
0.0
  0
LINE
  5
B3E
100
AcDbEntity
  8
DIM_TEXT
100
AcDbLine
 10
60.0645
 20
37.608159
 30
0.0
 11
61.25005
 21
37.579959
 31
0.0
  0
LINE
  5
B3F
100
AcDbEntity
  8
DIM_TEXT
100
AcDbLine
 10
61.25005
 20
37.579959
 30
0.0
 11
60.9959
 21
36.874269
 31
0.0
  0
LINE
  5
B40
100
AcDbEntity
  8
DIM_TEXT
100
AcDbLine
 10
66.26616
 20
35.836299
 30
0.0
 11
64.49419
 21
36.013429
 31
0.0
  0
LINE
  5
B41
100
AcDbEntity
  8
DIM_TEXT
100
AcDbLine
 10
65.55742
 20
43.278199
 30
0.0
 11
62.3748
 21
52.666749
 31
0.0
  0
LINE
  5
B42
100
AcDbEntity
  8
DIM_TEXT
100
AcDbLine
 10
62.73003
 20
52.787149
 30
0.0
 11
62.01958
 21
52.546349
 31
0.0
  0
LINE
  5
B43
100
AcDbEntity
  8
DIM_TEXT
100
AcDbLine
 10
62.01348
 20
53.732149
 30
0.0
 11
62.01958
 21
52.546349
 31
0.0
  0
LINE
  5
B44
100
AcDbEntity
  8
DIM_TEXT
100
AcDbLine
 10
62.01348
 20
53.732149
 30
0.0
 11
62.73003
 21
52.787149
 31
0.0
  0
LINE
  5
B45
100
AcDbEntity
  8
DIM_TEXT
100
AcDbLine
 10
66.79766
 20
43.278199
 30
0.0
 11
65.55742
 21
43.278199
 31
0.0
  0
LINE
  5
B46
100
AcDbEntity
  8
DIM_TEXT
100
AcDbLine
 10
68.60015
 20
52.982249
 30
0.0
 11
67.89604
 21
52.724049
 31
0.0
  0
LINE
  5
B47
100
AcDbEntity
  8
DIM_TEXT
100
AcDbLine
 10
67.86089
 20
53.909449
 30
0.0
 11
67.89604
 21
52.724049
 31
0.0
  0
LINE
  5
B48
100
AcDbEntity
  8
DIM_TEXT
100
AcDbLine
 10
67.86089
 20
53.909449
 30
0.0
 11
68.60015
 21
52.982249
 31
0.0
  0
LINE
  5
B49
100
AcDbEntity
  8
DIM_TEXT
100
AcDbLine
 10
69.80987
 20
48.593749
 30
0.0
 11
68.2481
 21
52.853149
 31
0.0
  0
TEXT
  5
B4A
100
AcDbEntity
  8
DIM_TEXT
100
AcDbText
 10
51.780644
 20
73.074658
 30
0.0
 40
1.125
  1
CHORD REINF.
 51
15.0
  7
INFO
100
AcDbText
  0
TEXT
  5
B4B
100
AcDbEntity
  8
DIM_TEXT
100
AcDbText
 10
71.93609
 20
46.259317
 30
0.0
 40
1.125
  1
& ANCHORAGE
 51
15.0
  7
INFO
100
AcDbText
  0
TEXT
  5
B4C
100
AcDbEntity
  8
DIM_TEXT
100
AcDbText
 10
71.93609
 20
48.062259
 30
0.0
 40
1.125
  1
2 X BLK'G @ STRAP
 51
15.0
  7
INFO
100
AcDbText
  0
ENDSEC
  0
SECTION
  2
OBJECTS
  0
DICTIONARY
  5
C
100
AcDbDictionary
  3
ACAD_GROUP
350
D
  3
ACAD_MLINESTYLE
350
1A
  3
ACDBVARIABLEDICTIONARY
350
2B
  0
DICTIONARY
  5
D
102
{ACAD_REACTORS
330
C
102
}
100
AcDbDictionary
  0
DICTIONARY
  5
1A
102
{ACAD_REACTORS
330
C
102
}
100
AcDbDictionary
  3
STANDARD
350
1B
  0
DICTIONARY
  5
2B
102
{ACAD_REACTORS
330
C
102
}
100
AcDbDictionary
  3
DIMADEC
350
2C
  0
MLINESTYLE
  5
1B
102
{ACAD_REACTORS
330
1A
102
}
100
AcDbMlineStyle
  2
STANDARD
 70
     0
  3

 62
   256
 51
90.0
 52
90.0
 71
     2
 49
0.5
 62
   256
  6
BYLAYER
 49
-0.5
 62
   256
  6
BYLAYER
  0
DICTIONARYVAR
  5
2C
102
{ACAD_REACTORS
330
2B
102
}
100
DictionaryVariables
280
     0
  1
0
  0
ENDSEC
  0
EOF
