  0
SECTION
  2
HEADER
  9
$ACADVER
  1
AC1014
  9
$ACADMAINTVER
 70
     8
  9
$DWGCODEPAGE
  3
ANSI_1252
  9
$INSBASE
 10
0.0
 20
0.0
 30
0.0
  9
$EXTMIN
 10
2.289637
 20
5.086431
 30
0.0
  9
$EXTMAX
 10
82.120113
 20
84.362704
 30
0.0
  9
$LIMMIN
 10
0.0
 20
0.0
  9
$LIMMAX
 10
85.0
 20
110.0
  9
$ORTHOMODE
 70
     1
  9
$REGENMODE
 70
     1
  9
$FILLMODE
 70
     1
  9
$QTEXTMODE
 70
     0
  9
$MIRRTEXT
 70
     1
  9
$DRAGMODE
 70
     2
  9
$LTSCALE
 40
3.0
  9
$OSMODE
 70
    37
  9
$ATTMODE
 70
     1
  9
$TEXTSIZE
 40
0.2
  9
$TRACEWID
 40
0.05
  9
$TEXTSTYLE
  7
STANDARD
  9
$CLAYER
  8
0
  9
$CELTYPE
  6
BYLAYER
  9
$CECOLOR
 62
   256
  9
$CELTSCALE
 40
1.0
  9
$DELOBJ
 70
     1
  9
$DISPSILH
 70
     0
  9
$DIMSCALE
 40
1.0
  9
$DIMASZ
 40
0.18
  9
$DIMEXO
 40
0.0625
  9
$DIMDLI
 40
0.38
  9
$DIMRND
 40
0.0
  9
$DIMDLE
 40
0.0
  9
$DIMEXE
 40
0.18
  9
$DIMTP
 40
0.0
  9
$DIMTM
 40
0.0
  9
$DIMTXT
 40
0.18
  9
$DIMCEN
 40
0.09
  9
$DIMTSZ
 40
0.0
  9
$DIMTOL
 70
     0
  9
$DIMLIM
 70
     0
  9
$DIMTIH
 70
     1
  9
$DIMTOH
 70
     1
  9
$DIMSE1
 70
     0
  9
$DIMSE2
 70
     0
  9
$DIMTAD
 70
     0
  9
$DIMZIN
 70
     0
  9
$DIMBLK
  1

  9
$DIMASO
 70
     1
  9
$DIMSHO
 70
     1
  9
$DIMPOST
  1

  9
$DIMAPOST
  1

  9
$DIMALT
 70
     0
  9
$DIMALTD
 70
     2
  9
$DIMALTF
 40
25.4
  9
$DIMLFAC
 40
1.0
  9
$DIMTOFL
 70
     0
  9
$DIMTVP
 40
0.0
  9
$DIMTIX
 70
     0
  9
$DIMSOXD
 70
     0
  9
$DIMSAH
 70
     0
  9
$DIMBLK1
  1

  9
$DIMBLK2
  1

  9
$DIMSTYLE
  2
STANDARD
  9
$DIMCLRD
 70
     0
  9
$DIMCLRE
 70
     0
  9
$DIMCLRT
 70
     0
  9
$DIMTFAC
 40
1.0
  9
$DIMGAP
 40
0.09
  9
$DIMJUST
 70
     0
  9
$DIMSD1
 70
     0
  9
$DIMSD2
 70
     0
  9
$DIMTOLJ
 70
     1
  9
$DIMTZIN
 70
     0
  9
$DIMALTZ
 70
     0
  9
$DIMALTTZ
 70
     0
  9
$DIMFIT
 70
     5
  9
$DIMUPT
 70
     0
  9
$DIMUNIT
 70
     4
  9
$DIMDEC
 70
     4
  9
$DIMTDEC
 70
     4
  9
$DIMALTU
 70
     4
  9
$DIMALTTD
 70
     2
  9
$DIMTXSTY
  7
STANDARD
  9
$DIMAUNIT
 70
     2
  9
$LUNITS
 70
     4
  9
$LUPREC
 70
     4
  9
$SKETCHINC
 40
0.1
  9
$FILLETRAD
 40
0.0
  9
$AUNITS
 70
     2
  9
$AUPREC
 70
     0
  9
$MENU
  1
acad
  9
$ELEVATION
 40
0.0
  9
$PELEVATION
 40
0.0
  9
$THICKNESS
 40
0.0
  9
$LIMCHECK
 70
     0
  9
$BLIPMODE
 70
     1
  9
$CHAMFERA
 40
0.0
  9
$CHAMFERB
 40
0.0
  9
$CHAMFERC
 40
0.0
  9
$CHAMFERD
 40
0.0
  9
$SKPOLY
 70
     0
  9
$TDCREATE
 40
2451166.423356018
  9
$TDUPDATE
 40
2452248.608711111
  9
$TDINDWG
 40
0.0351288194
  9
$TDUSRTIMER
 40
0.0351288194
  9
$USRTIMER
 70
     1
  9
$ANGBASE
 50
0.0
  9
$ANGDIR
 70
     0
  9
$PDMODE
 70
     0
  9
$PDSIZE
 40
0.0
  9
$PLINEWID
 40
0.0
  9
$COORDS
 70
     1
  9
$SPLFRAME
 70
     0
  9
$SPLINETYPE
 70
     6
  9
$SPLINESEGS
 70
     8
  9
$ATTDIA
 70
     0
  9
$ATTREQ
 70
     1
  9
$HANDLING
 70
     1
  9
$HANDSEED
  5
497
  9
$SURFTAB1
 70
     6
  9
$SURFTAB2
 70
     6
  9
$SURFTYPE
 70
     6
  9
$SURFU
 70
     6
  9
$SURFV
 70
     6
  9
$UCSNAME
  2

  9
$UCSORG
 10
0.0
 20
0.0
 30
0.0
  9
$UCSXDIR
 10
1.0
 20
0.0
 30
0.0
  9
$UCSYDIR
 10
0.0
 20
1.0
 30
0.0
  9
$PUCSNAME
  2

  9
$PUCSORG
 10
0.0
 20
0.0
 30
0.0
  9
$PUCSXDIR
 10
1.0
 20
0.0
 30
0.0
  9
$PUCSYDIR
 10
0.0
 20
1.0
 30
0.0
  9
$USERI1
 70
     0
  9
$USERI2
 70
     0
  9
$USERI3
 70
     0
  9
$USERI4
 70
     0
  9
$USERI5
 70
     0
  9
$USERR1
 40
0.0
  9
$USERR2
 40
0.0
  9
$USERR3
 40
0.0
  9
$USERR4
 40
0.0
  9
$USERR5
 40
0.0
  9
$WORLDVIEW
 70
     1
  9
$SHADEDGE
 70
     3
  9
$SHADEDIF
 70
    70
  9
$TILEMODE
 70
     1
  9
$MAXACTVP
 70
    16
  9
$PINSBASE
 10
0.0
 20
0.0
 30
0.0
  9
$PLIMCHECK
 70
     0
  9
$PEXTMIN
 10
1.000000E+20
 20
1.000000E+20
 30
1.000000E+20
  9
$PEXTMAX
 10
-1.000000E+20
 20
-1.000000E+20
 30
-1.000000E+20
  9
$PLIMMIN
 10
0.0
 20
0.0
  9
$PLIMMAX
 10
12.0
 20
9.0
  9
$UNITMODE
 70
     0
  9
$VISRETAIN
 70
     0
  9
$PLINEGEN
 70
     0
  9
$PSLTSCALE
 70
     1
  9
$TREEDEPTH
 70
  3020
  9
$PICKSTYLE
 70
     1
  9
$CMLSTYLE
  2
STANDARD
  9
$CMLJUST
 70
     0
  9
$CMLSCALE
 40
1.0
  9
$PROXYGRAPHICS
 70
     1
  9
$MEASUREMENT
 70
     0
  0
ENDSEC
  0
SECTION
  2
CLASSES
  0
CLASS
  1
DICTIONARYVAR
  2
AcDbDictionaryVar
  3
"AutoCAD"
 90
        0
280
     0
281
     0
  0
ENDSEC
  0
SECTION
  2
TABLES
  0
TABLE
  2
VPORT
  5
8
100
AcDbSymbolTable
 70
     1
  0
VPORT
  5
490
100
AcDbSymbolTableRecord
100
AcDbViewportTableRecord
  2
*ACTIVE
 70
     0
 10
0.0
 20
0.0
 11
1.0
 21
1.0
 12
43.007612
 22
45.883259
 13
0.0
 23
0.0
 14
1.0
 24
1.0
 15
1.0
 25
1.0
 16
0.0
 26
0.0
 36
1.0
 17
0.0
 27
0.0
 37
0.0
 40
86.732639
 41
1.474388
 42
50.0
 43
0.0
 44
0.0
 50
0.0
 51
0.0
 71
     0
 72
   100
 73
     1
 74
     1
 75
     0
 76
     0
 77
     0
 78
     0
  0
ENDTAB
  0
TABLE
  2
LTYPE
  5
5
100
AcDbSymbolTable
 70
     1
  0
LTYPE
  5
11
100
AcDbSymbolTableRecord
100
AcDbLinetypeTableRecord
  2
BYBLOCK
 70
     0
  3

 72
    65
 73
     0
 40
0.0
  0
LTYPE
  5
12
100
AcDbSymbolTableRecord
100
AcDbLinetypeTableRecord
  2
BYLAYER
 70
     0
  3

 72
    65
 73
     0
 40
0.0
  0
LTYPE
  5
13
100
AcDbSymbolTableRecord
100
AcDbLinetypeTableRecord
  2
CONTINUOUS
 70
     0
  3
Solid line
 72
    65
 73
     0
 40
0.0
  0
ENDTAB
  0
TABLE
  2
LAYER
  5
2
100
AcDbSymbolTable
 70
     6
  0
LAYER
  5
E
100
AcDbSymbolTableRecord
100
AcDbLayerTableRecord
  2
0
 70
     0
 62
     7
  6
CONTINUOUS
  0
LAYER
  5
22
100
AcDbSymbolTableRecord
100
AcDbLayerTableRecord
  2
DRAWING
 70
     0
 62
     7
  6
CONTINUOUS
  0
LAYER
  5
23
100
AcDbSymbolTableRecord
100
AcDbLayerTableRecord
  2
HATCH
 70
     0
 62
     3
  6
CONTINUOUS
  0
LAYER
  5
24
100
AcDbSymbolTableRecord
100
AcDbLayerTableRecord
  2
DIM_TEXT
 70
     0
 62
     6
  6
CONTINUOUS
  0
LAYER
  5
476
100
AcDbSymbolTableRecord
100
AcDbLayerTableRecord
  2
BORDER
 70
     0
 62
    14
  6
CONTINUOUS
  0
LAYER
  5
477
100
AcDbSymbolTableRecord
100
AcDbLayerTableRecord
  2
RF-SW
 70
     0
 62
     9
  6
CONTINUOUS
  0
ENDTAB
  0
TABLE
  2
STYLE
  5
3
100
AcDbSymbolTable
 70
     5
  0
STYLE
  5
F
100
AcDbSymbolTableRecord
100
AcDbTextStyleTableRecord
  2
STANDARD
 70
     0
 40
0.0
 41
1.0
 50
0.0
 71
     0
 42
0.2
  3
txt
  4

  0
STYLE
  5
1C
100
AcDbSymbolTableRecord
100
AcDbTextStyleTableRecord
  2
INFO
 70
     0
 40
0.0
 41
1.0
 50
15.0
 71
     0
 42
1.08
  3
C:\ACADWIN\FONTS\ROMANS.SHX
  4

  0
STYLE
  5
1D
100
AcDbSymbolTableRecord
100
AcDbTextStyleTableRecord
  2
TITLE
 70
     0
 40
0.0
 41
1.0
 50
0.0
 71
     0
 42
2.8
  3
C:\ACADWIN\FONTS\ROMANC.SHX
  4

  0
STYLE
  5
478
100
AcDbSymbolTableRecord
100
AcDbTextStyleTableRecord
  2
ROMAN
 70
     0
 40
0.0
 41
1.0
 50
0.0
 71
     0
 42
2.25
  3
romans.shx
  4

  0
STYLE
  5
479
100
AcDbSymbolTableRecord
100
AcDbTextStyleTableRecord
  2
ROMANS
 70
     0
 40
0.0
 41
1.0
 50
0.0
 71
     0
 42
2.25
  3
romans
  4

  0
ENDTAB
  0
TABLE
  2
VIEW
  5
6
100
AcDbSymbolTable
 70
     0
  0
ENDTAB
  0
TABLE
  2
UCS
  5
7
100
AcDbSymbolTable
 70
     0
  0
ENDTAB
  0
TABLE
  2
APPID
  5
9
100
AcDbSymbolTable
 70
     2
  0
APPID
  5
10
100
AcDbSymbolTableRecord
100
AcDbRegAppTableRecord
  2
ACAD
 70
     0
  0
APPID
  5
21
100
AcDbSymbolTableRecord
100
AcDbRegAppTableRecord
  2
ZIMM
 70
     0
  0
ENDTAB
  0
TABLE
  2
DIMSTYLE
  5
A
100
AcDbSymbolTable
 70
     2
  0
DIMSTYLE
105
46D
100
AcDbSymbolTableRecord
100
AcDbDimStyleTableRecord
  2
STANDARD
 70
     0
  3

  4

  5

  6

  7

 40
1.0
 41
0.18
 42
0.0625
 43
0.38
 44
0.18
 45
0.0
 46
0.0
 47
0.0
 48
0.0
140
0.18
141
0.09
142
0.0
143
25.4
144
1.0
145
0.0
146
1.0
147
0.09
 71
     0
 72
     0
 73
     1
 74
     1
 75
     0
 76
     0
 77
     0
 78
     0
170
     0
171
     2
172
     0
173
     0
174
     0
175
     0
176
     0
177
     0
178
     0
270
     2
271
     4
272
     4
273
     2
274
     2
340
F
275
     0
280
     0
281
     0
282
     0
283
     1
284
     0
285
     0
286
     0
287
     3
288
     0
  0
DIMSTYLE
105
47A
100
AcDbSymbolTableRecord
100
AcDbDimStyleTableRecord
  2
ARCHITECTURAL
 70
     0
  3

  4

  5

  6

  7

 40
1.0
 41
0.125
 42
0.0
 43
0.375
 44
0.0
 45
0.0
 46
0.0
 47
0.0
 48
0.0
140
0.09375
141
0.0625
142
0.0
143
25.4
144
1.0
145
0.0
146
1.0
147
0.0
 71
     0
 72
     0
 73
     0
 74
     0
 75
     0
 76
     0
 77
     1
 78
    13
170
     0
171
     2
172
     0
173
     0
174
     0
175
     0
176
    13
177
    13
178
     7
270
     6
271
     4
272
     4
273
     2
274
     2
340
479
275
     1
280
     0
281
     0
282
     0
283
     1
284
    13
285
     0
286
     0
287
     3
288
     0
  0
ENDTAB
  0
TABLE
  2
BLOCK_RECORD
  5
1
100
AcDbSymbolTable
 70
     2
  0
BLOCK_RECORD
  5
17
100
AcDbSymbolTableRecord
100
AcDbBlockTableRecord
  2
*MODEL_SPACE
  0
BLOCK_RECORD
  5
14
100
AcDbSymbolTableRecord
100
AcDbBlockTableRecord
  2
*PAPER_SPACE
  0
BLOCK_RECORD
  5
470
100
AcDbSymbolTableRecord
100
AcDbBlockTableRecord
  2
_CLOSEDBLANK
  0
BLOCK_RECORD
  5
47B
100
AcDbSymbolTableRecord
100
AcDbBlockTableRecord
  2
A$C77F6646D
  0
ENDTAB
  0
ENDSEC
  0
SECTION
  2
BLOCKS
  0
BLOCK
  5
27
100
AcDbEntity
  8
0
100
AcDbBlockBegin
  2
*MODEL_SPACE
 70
     0
 10
0.0
 20
0.0
 30
0.0
  3
*MODEL_SPACE
  1

  0
ENDBLK
  5
28
100
AcDbEntity
  8
0
100
AcDbBlockEnd
  0
BLOCK
  5
25
100
AcDbEntity
 67
     1
  8
0
100
AcDbBlockBegin
  2
*PAPER_SPACE
 70
     0
 10
0.0
 20
0.0
 30
0.0
  3
*PAPER_SPACE
  1

  0
ENDBLK
  5
26
100
AcDbEntity
 67
     1
  8
0
100
AcDbBlockEnd
  0
BLOCK
  5
474
100
AcDbEntity
  8
0
100
AcDbBlockBegin
  2
_CLOSEDBLANK
 70
     0
 10
0.0
 20
0.0
 30
0.0
  3
_CLOSEDBLANK
  1

  0
LINE
  5
471
100
AcDbEntity
  8
0
  6
BYBLOCK
 62
     0
100
AcDbLine
 10
-1.0
 20
0.166667
 30
0.0
 11
0.0
 21
0.0
 31
0.0
  0
LINE
  5
472
100
AcDbEntity
  8
0
  6
BYBLOCK
 62
     0
100
AcDbLine
 10
0.0
 20
0.0
 30
0.0
 11
-1.0
 21
-0.166667
 31
0.0
  0
LINE
  5
473
100
AcDbEntity
  8
0
  6
BYBLOCK
 62
     0
100
AcDbLine
 10
-1.0
 20
0.166667
 30
0.0
 11
-1.0
 21
-0.166667
 31
0.0
  0
ENDBLK
  5
475
100
AcDbEntity
  8
0
100
AcDbBlockEnd
  0
BLOCK
  5
484
100
AcDbEntity
  8
0
100
AcDbBlockBegin
  2
A$C77F6646D
 70
     0
 10
0.0
 20
0.0
 30
0.0
  3
A$C77F6646D
  1

  0
LEADER
  5
47C
100
AcDbEntity
  8
RF-SW
 62
    13
100
AcDbLeader
  3
ARCHITECTURAL
 76
     3
 10
33.651493
 20
19.82287
 30
0.0
 10
22.465355
 20
12.747711
 30
0.0
 10
20.676086
 20
12.747711
 30
0.0
 77
    13
1001
ACAD
1000
DSTYLE
1002
{
1070
    40
1040
12.0
1070
   173
1070
     1
1070
     7
1000
_CLOSEDBLANK
1070
     6
1000
_CLOSEDBLANK
1002
}
  0
LEADER
  5
47D
100
AcDbEntity
  8
RF-SW
 62
    13
100
AcDbLeader
  3
ARCHITECTURAL
 76
     3
 10
34.592215
 20
12.489731
 30
0.0
 10
22.935716
 20
4.44989
 30
0.0
 10
21.146447
 20
4.44989
 30
0.0
 77
    13
1001
ACAD
1000
DSTYLE
1002
{
1070
    40
1040
12.0
1070
   173
1070
     1
1070
     7
1000
_CLOSEDBLANK
1070
     6
1000
_CLOSEDBLANK
1002
}
  0
TEXT
  5
47E
100
AcDbEntity
  8
BORDER
  6
CONTINUOUS
 62
    15
100
AcDbText
 10
10.011985
 20
11.951035
 30
0.0
 40
1.124955
  1
VERT. REINF.
  7
ROMAN
100
AcDbText
  0
TEXT
  5
47F
100
AcDbEntity
  8
BORDER
  6
CONTINUOUS
 62
    15
100
AcDbText
 10
1.811411
 20
10.094229
 30
0.0
 40
1.124955
  1
(MIN. #4 @ 30" O.C.
  7
ROMAN
100
AcDbText
  0
TEXT
  5
480
100
AcDbEntity
  8
BORDER
  6
CONTINUOUS
 62
    15
100
AcDbText
 10
-0.214277
 20
7.964453
 30
0.0
 40
1.124955
  1
REQUIRED, PER DESIGN)
  7
ROMAN
100
AcDbText
  0
TEXT
  5
481
100
AcDbEntity
  8
BORDER
  6
CONTINUOUS
 62
    15
100
AcDbText
 10
8.567775
 20
4.248994
 30
0.0
 40
1.124955
  1
HORIZ. REINF.
  7
ROMAN
100
AcDbText
  0
TEXT
  5
482
100
AcDbEntity
  8
BORDER
  6
CONTINUOUS
 62
    15
100
AcDbText
 10
1.298875
 20
2.369961
 30
0.0
 40
1.124955
  1
(MIN. #4 @ 30" O.C.)
  7
ROMAN
100
AcDbText
  0
TEXT
  5
483
100
AcDbEntity
  8
BORDER
  6
CONTINUOUS
 62
    15
100
AcDbText
 10
-0.163848
 20
0.374985
 30
0.0
 40
1.124955
  1
REQUIRED, PER DESIGN)
  7
ROMAN
100
AcDbText
  0
ENDBLK
  5
485
100
AcDbEntity
  8
0
100
AcDbBlockEnd
  0
ENDSEC
  0
SECTION
  2
ENTITIES
  0
TEXT
  5
2B
100
AcDbEntity
  8
DIM_TEXT
100
AcDbText
 10
3.820302
 20
54.11905
 30
0.0
 40
1.125
  1
RASTRA WALL
 51
15.0
  7
INFO
100
AcDbText
  0
LINE
  5
30
100
AcDbEntity
  8
DRAWING
100
AcDbLine
 10
41.993202
 20
75.689704
 30
0.0
 11
41.993202
 21
68.034004
 31
0.0
  0
LINE
  5
31
100
AcDbEntity
  8
DRAWING
100
AcDbLine
 10
31.993202
 20
67.659004
 30
0.0
 11
31.993202
 21
75.689704
 31
0.0
  0
LINE
  5
32
100
AcDbEntity
  8
DRAWING
100
AcDbLine
 10
33.868202
 20
67.659004
 30
0.0
 11
33.868202
 21
75.689704
 31
0.0
  0
LINE
  5
33
100
AcDbEntity
  8
DRAWING
100
AcDbLine
 10
40.118202
 20
75.689704
 30
0.0
 11
40.118202
 21
71.511513
 31
0.0
  0
TEXT
  5
34
100
AcDbEntity
  8
DIM_TEXT
100
AcDbText
 10
50.243202
 20
79.812004
 30
0.0
 40
1.125
  1
4 X 8 LEDGER W/ 3/4" DIA. A.B.
 51
15.0
  7
INFO
100
AcDbText
  0
LINE
  5
35
100
AcDbEntity
  8
DIM_TEXT
100
AcDbLine
 10
48.412602
 20
83.946404
 30
0.0
 11
44.834702
 21
73.960804
 31
0.0
  0
LINE
  5
36
100
AcDbEntity
  8
DRAWING
100
AcDbLine
 10
37.131402
 20
75.693404
 30
0.0
 11
37.131402
 21
67.724898
 31
0.0
  0
LINE
  5
37
100
AcDbEntity
  8
HATCH
100
AcDbLine
 10
58.039602
 20
54.543063
 30
0.0
 11
62.292002
 21
53.302763
 31
0.0
  0
LINE
  5
38
100
AcDbEntity
  8
HATCH
100
AcDbLine
 10
62.292002
 20
53.302763
 30
0.0
 11
53.787102
 21
48.341563
 31
0.0
  0
TEXT
  5
39
100
AcDbEntity
  8
DIM_TEXT
100
AcDbText
 10
50.243202
 20
77.883404
 30
0.0
 40
1.125
  1
@ 30" O.C. W/ MIN. 1" CLR
 51
15.0
  7
INFO
100
AcDbText
  0
TEXT
  5
3A
100
AcDbEntity
  8
DIM_TEXT
100
AcDbText
 10
54.850102
 20
73.433204
 30
0.0
 40
1.125
  1
STRAP @ 48" O.C.
 51
15.0
  7
INFO
100
AcDbText
  0
TEXT
  5
3B
100
AcDbEntity
  8
DIM_TEXT
100
AcDbText
 10
56.090402
 20
31.042144
 30
0.0
 40
1.125
  1
CEILING JOIST PER PLAN
 51
15.0
  7
INFO
100
AcDbText
  0
TEXT
  5
3C
100
AcDbEntity
  8
DIM_TEXT
100
AcDbText
 10
54.495902
 20
28.915924
 30
0.0
 40
1.125
  1
"U" HANGER
 51
15.0
  7
INFO
100
AcDbText
  0
TEXT
  5
3D
100
AcDbEntity
  8
DIM_TEXT
100
AcDbText
 10
51.837902
 20
25.726534
 30
0.0
 40
1.125
  1
4 X 6 LEDGER W/ MIN. 5/8" DIA.
 51
15.0
  7
INFO
100
AcDbText
  0
TEXT
  5
3E
100
AcDbEntity
  8
DIM_TEXT
100
AcDbText
 10
51.837902
 20
23.797944
 30
0.0
 40
1.125
  1
A.B. @ 30" O.C. W/ MIN. 1" CLR.
 51
15.0
  7
INFO
100
AcDbText
  0
TEXT
  5
3F
100
AcDbEntity
  8
DIM_TEXT
100
AcDbText
 10
50.243202
 20
76.111504
 30
0.0
 40
1.125
  1
AROUND BOLT
 51
15.0
  7
INFO
100
AcDbText
  0
TEXT
  5
40
100
AcDbEntity
  8
DIM_TEXT
100
AcDbText
 10
51.837902
 20
22.026064
 30
0.0
 40
1.125
  1
AROUND BOLT
 51
15.0
  7
INFO
100
AcDbText
  0
LINE
  5
41
100
AcDbEntity
  8
DIM_TEXT
100
AcDbLine
 10
29.335202
 20
69.314704
 30
0.0
 11
37.100602
 21
67.451004
 31
0.0
  0
ARC
  5
42
100
AcDbEntity
  8
DRAWING
100
AcDbCircle
 10
36.993202
 20
37.659024
 30
0.0
 40
3.0
100
AcDbArc
 50
0.0
 51
180.0
  0
ARC
  5
43
100
AcDbEntity
  8
DRAWING
100
AcDbCircle
 10
36.993202
 20
52.659004
 30
0.0
 40
3.0
100
AcDbArc
 50
180.0
 51
0.0
  0
ARC
  5
44
100
AcDbEntity
  8
DRAWING
100
AcDbCircle
 10
36.993202
 20
37.659024
 30
0.0
 40
3.0
100
AcDbArc
 50
180.0
 51
0.0
  0
LINE
  5
45
100
AcDbEntity
  8
HATCH
100
AcDbLine
 10
36.097702
 20
31.282134
 30
0.0
 11
38.046702
 21
27.974634
 31
0.0
  0
ARC
  5
46
100
AcDbEntity
  8
DRAWING
100
AcDbCircle
 10
36.993202
 20
67.659004
 30
0.0
 40
3.0
100
AcDbArc
 50
7.180756
 51
180.0
  0
LINE
  5
47
100
AcDbEntity
  8
DRAWING
100
AcDbLine
 10
41.993202
 20
71.519604
 30
0.0
 11
35.329902
 21
68.532727
 31
0.0
  0
CIRCLE
  5
48
100
AcDbEntity
  8
DRAWING
100
AcDbCircle
 10
36.535202
 20
35.442324
 30
0.0
 40
0.375
  0
CIRCLE
  5
49
100
AcDbEntity
  8
DRAWING
100
AcDbCircle
 10
36.535202
 20
65.454659
 30
0.0
 40
0.375
  0
CIRCLE
  5
4A
100
AcDbEntity
  8
DRAWING
100
AcDbCircle
 10
36.535202
 20
50.562304
 30
0.0
 40
0.375
  0
LINE
  5
4B
100
AcDbEntity
  8
DRAWING
100
AcDbLine
 10
31.993202
 20
52.659004
 30
0.0
 11
31.993202
 21
37.659024
 31
0.0
  0
LINE
  5
4C
100
AcDbEntity
  8
DRAWING
100
AcDbLine
 10
33.868202
 20
52.659004
 30
0.0
 11
33.868202
 21
37.659024
 31
0.0
  0
LINE
  5
4D
100
AcDbEntity
  8
DRAWING
100
AcDbLine
 10
31.993202
 20
37.659024
 30
0.0
 11
31.993202
 21
29.628384
 31
0.0
  0
LINE
  5
4E
100
AcDbEntity
  8
DRAWING
100
AcDbLine
 10
33.868202
 20
37.659024
 30
0.0
 11
33.868202
 21
29.628384
 31
0.0
  0
LINE
  5
4F
100
AcDbEntity
  8
HATCH
100
AcDbLine
 10
35.270802
 20
29.628384
 30
0.0
 11
30.841102
 21
29.628384
 31
0.0
  0
LINE
  5
50
100
AcDbEntity
  8
HATCH
100
AcDbLine
 10
32.440002
 20
33.304534
 30
0.0
 11
32.440002
 21
33.304534
 31
0.0
  0
LINE
  5
51
100
AcDbEntity
  8
HATCH
100
AcDbLine
 10
32.908702
 20
33.304534
 30
0.0
 11
32.908702
 21
33.304534
 31
0.0
  0
LINE
  5
52
100
AcDbEntity
  8
HATCH
100
AcDbLine
 10
32.205602
 20
32.835784
 30
0.0
 11
32.205602
 21
32.835784
 31
0.0
  0
LINE
  5
53
100
AcDbEntity
  8
HATCH
100
AcDbLine
 10
32.674302
 20
32.835784
 30
0.0
 11
32.674302
 21
32.835784
 31
0.0
  0
LINE
  5
54
100
AcDbEntity
  8
HATCH
100
AcDbLine
 10
33.143102
 20
32.835784
 30
0.0
 11
33.143102
 21
32.835784
 31
0.0
  0
LINE
  5
55
100
AcDbEntity
  8
HATCH
100
AcDbLine
 10
32.440002
 20
32.367034
 30
0.0
 11
32.440002
 21
32.367034
 31
0.0
  0
LINE
  5
56
100
AcDbEntity
  8
HATCH
100
AcDbLine
 10
32.908702
 20
32.367034
 30
0.0
 11
32.908702
 21
32.367034
 31
0.0
  0
LINE
  5
57
100
AcDbEntity
  8
HATCH
100
AcDbLine
 10
32.205602
 20
31.898284
 30
0.0
 11
32.205602
 21
31.898284
 31
0.0
  0
LINE
  5
58
100
AcDbEntity
  8
HATCH
100
AcDbLine
 10
32.674302
 20
31.898284
 30
0.0
 11
32.674302
 21
31.898284
 31
0.0
  0
LINE
  5
59
100
AcDbEntity
  8
HATCH
100
AcDbLine
 10
33.143102
 20
31.898284
 30
0.0
 11
33.143102
 21
31.898284
 31
0.0
  0
LINE
  5
5A
100
AcDbEntity
  8
HATCH
100
AcDbLine
 10
32.440002
 20
31.429534
 30
0.0
 11
32.440002
 21
31.429534
 31
0.0
  0
LINE
  5
5B
100
AcDbEntity
  8
HATCH
100
AcDbLine
 10
32.908702
 20
31.429534
 30
0.0
 11
32.908702
 21
31.429534
 31
0.0
  0
LINE
  5
5C
100
AcDbEntity
  8
HATCH
100
AcDbLine
 10
32.205602
 20
30.960784
 30
0.0
 11
32.205602
 21
30.960784
 31
0.0
  0
LINE
  5
5D
100
AcDbEntity
  8
HATCH
100
AcDbLine
 10
32.674302
 20
30.960784
 30
0.0
 11
32.674302
 21
30.960784
 31
0.0
  0
LINE
  5
5E
100
AcDbEntity
  8
HATCH
100
AcDbLine
 10
33.143102
 20
30.960784
 30
0.0
 11
33.143102
 21
30.960784
 31
0.0
  0
LINE
  5
5F
100
AcDbEntity
  8
HATCH
100
AcDbLine
 10
32.440002
 20
30.492034
 30
0.0
 11
32.440002
 21
30.492034
 31
0.0
  0
LINE
  5
60
100
AcDbEntity
  8
HATCH
100
AcDbLine
 10
32.908702
 20
30.492034
 30
0.0
 11
32.908702
 21
30.492034
 31
0.0
  0
LINE
  5
61
100
AcDbEntity
  8
HATCH
100
AcDbLine
 10
32.205602
 20
30.023284
 30
0.0
 11
32.205602
 21
30.023284
 31
0.0
  0
LINE
  5
62
100
AcDbEntity
  8
HATCH
100
AcDbLine
 10
32.674302
 20
30.023284
 30
0.0
 11
32.674302
 21
30.023284
 31
0.0
  0
LINE
  5
63
100
AcDbEntity
  8
HATCH
100
AcDbLine
 10
33.143102
 20
30.023284
 30
0.0
 11
33.143102
 21
30.023284
 31
0.0
  0
LINE
  5
64
100
AcDbEntity
  8
HATCH
100
AcDbLine
 10
34.401602
 20
31.144194
 30
0.0
 11
34.460502
 21
31.165554
 31
0.0
  0
LINE
  5
65
100
AcDbEntity
  8
HATCH
100
AcDbLine
 10
35.272202
 20
31.718474
 30
0.0
 11
35.308102
 21
31.769744
 31
0.0
  0
LINE
  5
66
100
AcDbEntity
  8
HATCH
100
AcDbLine
 10
35.570302
 20
30.302884
 30
0.0
 11
35.581102
 21
30.364474
 31
0.0
  0
LINE
  5
67
100
AcDbEntity
  8
HATCH
100
AcDbLine
 10
36.004402
 20
32.764924
 30
0.0
 11
36.015202
 21
32.826504
 31
0.0
  0
LINE
  5
68
100
AcDbEntity
  8
HATCH
100
AcDbLine
 10
33.377502
 20
33.304534
 30
0.0
 11
33.377502
 21
33.304534
 31
0.0
  0
LINE
  5
69
100
AcDbEntity
  8
HATCH
100
AcDbLine
 10
33.846202
 20
33.304534
 30
0.0
 11
33.846202
 21
33.304534
 31
0.0
  0
LINE
  5
6A
100
AcDbEntity
  8
HATCH
100
AcDbLine
 10
33.611802
 20
32.835784
 30
0.0
 11
33.611802
 21
32.835784
 31
0.0
  0
LINE
  5
6B
100
AcDbEntity
  8
HATCH
100
AcDbLine
 10
33.377502
 20
32.367034
 30
0.0
 11
33.377502
 21
32.367034
 31
0.0
  0
LINE
  5
6C
100
AcDbEntity
  8
HATCH
100
AcDbLine
 10
33.846202
 20
32.367034
 30
0.0
 11
33.846202
 21
32.367034
 31
0.0
  0
LINE
  5
6D
100
AcDbEntity
  8
HATCH
100
AcDbLine
 10
33.611802
 20
31.898284
 30
0.0
 11
33.611802
 21
31.898284
 31
0.0
  0
LINE
  5
6E
100
AcDbEntity
  8
HATCH
100
AcDbLine
 10
33.377502
 20
31.429534
 30
0.0
 11
33.377502
 21
31.429534
 31
0.0
  0
LINE
  5
6F
100
AcDbEntity
  8
HATCH
100
AcDbLine
 10
33.846202
 20
31.429534
 30
0.0
 11
33.846202
 21
31.429534
 31
0.0
  0
LINE
  5
70
100
AcDbEntity
  8
HATCH
100
AcDbLine
 10
33.611802
 20
30.960784
 30
0.0
 11
33.611802
 21
30.960784
 31
0.0
  0
LINE
  5
71
100
AcDbEntity
  8
HATCH
100
AcDbLine
 10
33.377502
 20
30.492034
 30
0.0
 11
33.377502
 21
30.492034
 31
0.0
  0
LINE
  5
72
100
AcDbEntity
  8
HATCH
100
AcDbLine
 10
33.846202
 20
30.492034
 30
0.0
 11
33.846202
 21
30.492034
 31
0.0
  0
LINE
  5
73
100
AcDbEntity
  8
HATCH
100
AcDbLine
 10
33.611802
 20
30.023284
 30
0.0
 11
33.611802
 21
30.023284
 31
0.0
  0
LINE
  5
74
100
AcDbEntity
  8
HATCH
100
AcDbLine
 10
35.270802
 20
29.628384
 30
0.0
 11
36.097702
 21
31.282134
 31
0.0
  0
LINE
  5
75
100
AcDbEntity
  8
DRAWING
100
AcDbLine
 10
33.868202
 20
37.659024
 30
0.0
 11
31.993202
 21
37.659024
 31
0.0
  0
LINE
  5
76
100
AcDbEntity
  8
DRAWING
100
AcDbLine
 10
31.993202
 20
37.659024
 30
0.0
 11
33.868202
 21
37.659024
 31
0.0
  0
LINE
  5
77
100
AcDbEntity
  8
DRAWING
100
AcDbLine
 10
33.868202
 20
37.659024
 30
0.0
 11
31.993202
 21
37.659024
 31
0.0
  0
LINE
  5
78
100
AcDbEntity
  8
DRAWING
100
AcDbLine
 10
31.993202
 20
37.659024
 30
0.0
 11
33.868202
 21
37.659024
 31
0.0
  0
LINE
  5
79
100
AcDbEntity
  8
HATCH
100
AcDbLine
 10
32.440002
 20
39.867034
 30
0.0
 11
32.440002
 21
39.867034
 31
0.0
  0
LINE
  5
7A
100
AcDbEntity
  8
HATCH
100
AcDbLine
 10
32.908702
 20
39.867034
 30
0.0
 11
32.908702
 21
39.867034
 31
0.0
  0
LINE
  5
7B
100
AcDbEntity
  8
HATCH
100
AcDbLine
 10
32.205602
 20
39.398284
 30
0.0
 11
32.205602
 21
39.398284
 31
0.0
  0
LINE
  5
7C
100
AcDbEntity
  8
HATCH
100
AcDbLine
 10
32.674302
 20
39.398284
 30
0.0
 11
32.674302
 21
39.398284
 31
0.0
  0
LINE
  5
7D
100
AcDbEntity
  8
HATCH
100
AcDbLine
 10
33.143102
 20
39.398284
 30
0.0
 11
33.143102
 21
39.398284
 31
0.0
  0
LINE
  5
7E
100
AcDbEntity
  8
HATCH
100
AcDbLine
 10
32.440002
 20
38.929534
 30
0.0
 11
32.440002
 21
38.929534
 31
0.0
  0
LINE
  5
7F
100
AcDbEntity
  8
HATCH
100
AcDbLine
 10
32.908702
 20
38.929534
 30
0.0
 11
32.908702
 21
38.929534
 31
0.0
  0
LINE
  5
80
100
AcDbEntity
  8
HATCH
100
AcDbLine
 10
32.205602
 20
38.460784
 30
0.0
 11
32.205602
 21
38.460784
 31
0.0
  0
LINE
  5
81
100
AcDbEntity
  8
HATCH
100
AcDbLine
 10
32.674302
 20
38.460784
 30
0.0
 11
32.674302
 21
38.460784
 31
0.0
  0
LINE
  5
82
100
AcDbEntity
  8
HATCH
100
AcDbLine
 10
33.143102
 20
38.460784
 30
0.0
 11
33.143102
 21
38.460784
 31
0.0
  0
LINE
  5
83
100
AcDbEntity
  8
HATCH
100
AcDbLine
 10
32.440002
 20
37.992034
 30
0.0
 11
32.440002
 21
37.992034
 31
0.0
  0
LINE
  5
84
100
AcDbEntity
  8
HATCH
100
AcDbLine
 10
32.908702
 20
37.992034
 30
0.0
 11
32.908702
 21
37.992034
 31
0.0
  0
LINE
  5
85
100
AcDbEntity
  8
HATCH
100
AcDbLine
 10
32.205602
 20
37.523284
 30
0.0
 11
32.205602
 21
37.523284
 31
0.0
  0
LINE
  5
86
100
AcDbEntity
  8
HATCH
100
AcDbLine
 10
32.674302
 20
37.523284
 30
0.0
 11
32.674302
 21
37.523284
 31
0.0
  0
LINE
  5
87
100
AcDbEntity
  8
HATCH
100
AcDbLine
 10
33.143102
 20
37.523284
 30
0.0
 11
33.143102
 21
37.523284
 31
0.0
  0
LINE
  5
88
100
AcDbEntity
  8
HATCH
100
AcDbLine
 10
32.440002
 20
37.054534
 30
0.0
 11
32.440002
 21
37.054534
 31
0.0
  0
LINE
  5
89
100
AcDbEntity
  8
HATCH
100
AcDbLine
 10
32.908702
 20
37.054534
 30
0.0
 11
32.908702
 21
37.054534
 31
0.0
  0
LINE
  5
8A
100
AcDbEntity
  8
HATCH
100
AcDbLine
 10
32.205602
 20
36.585784
 30
0.0
 11
32.205602
 21
36.585784
 31
0.0
  0
LINE
  5
8B
100
AcDbEntity
  8
HATCH
100
AcDbLine
 10
32.674302
 20
36.585784
 30
0.0
 11
32.674302
 21
36.585784
 31
0.0
  0
LINE
  5
8C
100
AcDbEntity
  8
HATCH
100
AcDbLine
 10
33.143102
 20
36.585784
 30
0.0
 11
33.143102
 21
36.585784
 31
0.0
  0
LINE
  5
8D
100
AcDbEntity
  8
HATCH
100
AcDbLine
 10
32.440002
 20
36.117034
 30
0.0
 11
32.440002
 21
36.117034
 31
0.0
  0
LINE
  5
8E
100
AcDbEntity
  8
HATCH
100
AcDbLine
 10
32.908702
 20
36.117034
 30
0.0
 11
32.908702
 21
36.117034
 31
0.0
  0
LINE
  5
8F
100
AcDbEntity
  8
HATCH
100
AcDbLine
 10
32.205602
 20
35.648284
 30
0.0
 11
32.205602
 21
35.648284
 31
0.0
  0
LINE
  5
90
100
AcDbEntity
  8
HATCH
100
AcDbLine
 10
32.674302
 20
35.648284
 30
0.0
 11
32.674302
 21
35.648284
 31
0.0
  0
LINE
  5
91
100
AcDbEntity
  8
HATCH
100
AcDbLine
 10
33.143102
 20
35.648284
 30
0.0
 11
33.143102
 21
35.648284
 31
0.0
  0
LINE
  5
92
100
AcDbEntity
  8
HATCH
100
AcDbLine
 10
32.440002
 20
35.179534
 30
0.0
 11
32.440002
 21
35.179534
 31
0.0
  0
LINE
  5
93
100
AcDbEntity
  8
HATCH
100
AcDbLine
 10
32.908702
 20
35.179534
 30
0.0
 11
32.908702
 21
35.179534
 31
0.0
  0
LINE
  5
94
100
AcDbEntity
  8
HATCH
100
AcDbLine
 10
32.205602
 20
34.710784
 30
0.0
 11
32.205602
 21
34.710784
 31
0.0
  0
LINE
  5
95
100
AcDbEntity
  8
HATCH
100
AcDbLine
 10
32.674302
 20
34.710784
 30
0.0
 11
32.674302
 21
34.710784
 31
0.0
  0
LINE
  5
96
100
AcDbEntity
  8
HATCH
100
AcDbLine
 10
33.143102
 20
34.710784
 30
0.0
 11
33.143102
 21
34.710784
 31
0.0
  0
LINE
  5
97
100
AcDbEntity
  8
HATCH
100
AcDbLine
 10
32.440002
 20
34.242034
 30
0.0
 11
32.440002
 21
34.242034
 31
0.0
  0
LINE
  5
98
100
AcDbEntity
  8
HATCH
100
AcDbLine
 10
32.908702
 20
34.242034
 30
0.0
 11
32.908702
 21
34.242034
 31
0.0
  0
LINE
  5
99
100
AcDbEntity
  8
HATCH
100
AcDbLine
 10
32.205602
 20
33.773284
 30
0.0
 11
32.205602
 21
33.773284
 31
0.0
  0
LINE
  5
9A
100
AcDbEntity
  8
HATCH
100
AcDbLine
 10
32.674302
 20
33.773284
 30
0.0
 11
32.674302
 21
33.773284
 31
0.0
  0
LINE
  5
9B
100
AcDbEntity
  8
HATCH
100
AcDbLine
 10
33.143102
 20
33.773284
 30
0.0
 11
33.143102
 21
33.773284
 31
0.0
  0
LINE
  5
9C
100
AcDbEntity
  8
HATCH
100
AcDbLine
 10
33.377502
 20
39.867034
 30
0.0
 11
33.377502
 21
39.867034
 31
0.0
  0
LINE
  5
9D
100
AcDbEntity
  8
HATCH
100
AcDbLine
 10
33.846202
 20
39.867034
 30
0.0
 11
33.846202
 21
39.867034
 31
0.0
  0
LINE
  5
9E
100
AcDbEntity
  8
HATCH
100
AcDbLine
 10
33.611802
 20
39.398284
 30
0.0
 11
33.611802
 21
39.398284
 31
0.0
  0
LINE
  5
9F
100
AcDbEntity
  8
HATCH
100
AcDbLine
 10
33.377502
 20
38.929534
 30
0.0
 11
33.377502
 21
38.929534
 31
0.0
  0
LINE
  5
A0
100
AcDbEntity
  8
HATCH
100
AcDbLine
 10
33.846202
 20
38.929534
 30
0.0
 11
33.846202
 21
38.929534
 31
0.0
  0
LINE
  5
A1
100
AcDbEntity
  8
HATCH
100
AcDbLine
 10
33.611802
 20
38.460784
 30
0.0
 11
33.611802
 21
38.460784
 31
0.0
  0
LINE
  5
A2
100
AcDbEntity
  8
HATCH
100
AcDbLine
 10
33.377502
 20
37.992034
 30
0.0
 11
33.377502
 21
37.992034
 31
0.0
  0
LINE
  5
A3
100
AcDbEntity
  8
HATCH
100
AcDbLine
 10
33.846202
 20
37.992034
 30
0.0
 11
33.846202
 21
37.992034
 31
0.0
  0
LINE
  5
A4
100
AcDbEntity
  8
HATCH
100
AcDbLine
 10
34.846002
 20
39.591154
 30
0.0
 11
34.772502
 21
39.564424
 31
0.0
  0
LINE
  5
A5
100
AcDbEntity
  8
HATCH
100
AcDbLine
 10
35.193602
 20
37.546844
 30
0.0
 11
35.148702
 21
37.482814
 31
0.0
  0
LINE
  5
A6
100
AcDbEntity
  8
HATCH
100
AcDbLine
 10
35.896002
 20
34.348474
 30
0.0
 11
35.954902
 21
34.369844
 31
0.0
  0
LINE
  5
A7
100
AcDbEntity
  8
HATCH
100
AcDbLine
 10
34.658202
 20
35.200344
 30
0.0
 11
34.694102
 21
35.251554
 31
0.0
  0
LINE
  5
A8
100
AcDbEntity
  8
HATCH
100
AcDbLine
 10
33.976602
 20
35.660974
 30
0.0
 11
33.987302
 21
35.722564
 31
0.0
  0
LINE
  5
A9
100
AcDbEntity
  8
HATCH
100
AcDbLine
 10
33.611802
 20
37.523284
 30
0.0
 11
33.611802
 21
37.523284
 31
0.0
  0
LINE
  5
AA
100
AcDbEntity
  8
HATCH
100
AcDbLine
 10
33.377502
 20
37.054534
 30
0.0
 11
33.377502
 21
37.054534
 31
0.0
  0
LINE
  5
AB
100
AcDbEntity
  8
HATCH
100
AcDbLine
 10
33.846202
 20
37.054534
 30
0.0
 11
33.846202
 21
37.054534
 31
0.0
  0
LINE
  5
AC
100
AcDbEntity
  8
HATCH
100
AcDbLine
 10
33.611802
 20
36.585784
 30
0.0
 11
33.611802
 21
36.585784
 31
0.0
  0
LINE
  5
AD
100
AcDbEntity
  8
HATCH
100
AcDbLine
 10
33.377502
 20
36.117034
 30
0.0
 11
33.377502
 21
36.117034
 31
0.0
  0
LINE
  5
AE
100
AcDbEntity
  8
HATCH
100
AcDbLine
 10
33.846202
 20
36.117034
 30
0.0
 11
33.846202
 21
36.117034
 31
0.0
  0
LINE
  5
AF
100
AcDbEntity
  8
HATCH
100
AcDbLine
 10
33.611802
 20
35.648284
 30
0.0
 11
33.611802
 21
35.648284
 31
0.0
  0
LINE
  5
B0
100
AcDbEntity
  8
HATCH
100
AcDbLine
 10
33.377502
 20
35.179534
 30
0.0
 11
33.377502
 21
35.179534
 31
0.0
  0
LINE
  5
B1
100
AcDbEntity
  8
HATCH
100
AcDbLine
 10
33.846202
 20
35.179534
 30
0.0
 11
33.846202
 21
35.179534
 31
0.0
  0
LINE
  5
B2
100
AcDbEntity
  8
HATCH
100
AcDbLine
 10
33.611802
 20
34.710784
 30
0.0
 11
33.611802
 21
34.710784
 31
0.0
  0
LINE
  5
B3
100
AcDbEntity
  8
HATCH
100
AcDbLine
 10
33.377502
 20
34.242034
 30
0.0
 11
33.377502
 21
34.242034
 31
0.0
  0
LINE
  5
B4
100
AcDbEntity
  8
HATCH
100
AcDbLine
 10
33.846202
 20
34.242034
 30
0.0
 11
33.846202
 21
34.242034
 31
0.0
  0
LINE
  5
B5
100
AcDbEntity
  8
HATCH
100
AcDbLine
 10
33.611802
 20
33.773284
 30
0.0
 11
33.611802
 21
33.773284
 31
0.0
  0
LINE
  5
B6
100
AcDbEntity
  8
HATCH
100
AcDbLine
 10
36.098402
 20
35.398404
 30
0.0
 11
36.084702
 21
35.321444
 31
0.0
  0
LINE
  5
B7
100
AcDbEntity
  8
HATCH
100
AcDbLine
 10
32.205602
 20
46.898304
 30
0.0
 11
32.205602
 21
46.898304
 31
0.0
  0
LINE
  5
B8
100
AcDbEntity
  8
HATCH
100
AcDbLine
 10
32.674302
 20
46.898304
 30
0.0
 11
32.674302
 21
46.898304
 31
0.0
  0
LINE
  5
B9
100
AcDbEntity
  8
HATCH
100
AcDbLine
 10
33.143102
 20
46.898304
 30
0.0
 11
33.143102
 21
46.898304
 31
0.0
  0
LINE
  5
BA
100
AcDbEntity
  8
HATCH
100
AcDbLine
 10
32.440002
 20
46.429504
 30
0.0
 11
32.440002
 21
46.429504
 31
0.0
  0
LINE
  5
BB
100
AcDbEntity
  8
HATCH
100
AcDbLine
 10
32.908702
 20
46.429504
 30
0.0
 11
32.908702
 21
46.429504
 31
0.0
  0
LINE
  5
BC
100
AcDbEntity
  8
HATCH
100
AcDbLine
 10
32.205602
 20
45.960804
 30
0.0
 11
32.205602
 21
45.960804
 31
0.0
  0
LINE
  5
BD
100
AcDbEntity
  8
HATCH
100
AcDbLine
 10
32.674302
 20
45.960804
 30
0.0
 11
32.674302
 21
45.960804
 31
0.0
  0
LINE
  5
BE
100
AcDbEntity
  8
HATCH
100
AcDbLine
 10
33.143102
 20
45.960804
 30
0.0
 11
33.143102
 21
45.960804
 31
0.0
  0
LINE
  5
BF
100
AcDbEntity
  8
HATCH
100
AcDbLine
 10
32.440002
 20
45.492004
 30
0.0
 11
32.440002
 21
45.492004
 31
0.0
  0
LINE
  5
C0
100
AcDbEntity
  8
HATCH
100
AcDbLine
 10
32.908702
 20
45.492004
 30
0.0
 11
32.908702
 21
45.492004
 31
0.0
  0
LINE
  5
C1
100
AcDbEntity
  8
HATCH
100
AcDbLine
 10
32.205602
 20
45.023304
 30
0.0
 11
32.205602
 21
45.023304
 31
0.0
  0
LINE
  5
C2
100
AcDbEntity
  8
HATCH
100
AcDbLine
 10
32.674302
 20
45.023304
 30
0.0
 11
32.674302
 21
45.023304
 31
0.0
  0
LINE
  5
C3
100
AcDbEntity
  8
HATCH
100
AcDbLine
 10
33.143102
 20
45.023304
 30
0.0
 11
33.143102
 21
45.023304
 31
0.0
  0
LINE
  5
C4
100
AcDbEntity
  8
HATCH
100
AcDbLine
 10
32.440002
 20
44.554504
 30
0.0
 11
32.440002
 21
44.554504
 31
0.0
  0
LINE
  5
C5
100
AcDbEntity
  8
HATCH
100
AcDbLine
 10
32.908702
 20
44.554504
 30
0.0
 11
32.908702
 21
44.554504
 31
0.0
  0
LINE
  5
C6
100
AcDbEntity
  8
HATCH
100
AcDbLine
 10
32.205602
 20
44.085804
 30
0.0
 11
32.205602
 21
44.085804
 31
0.0
  0
LINE
  5
C7
100
AcDbEntity
  8
HATCH
100
AcDbLine
 10
32.674302
 20
44.085804
 30
0.0
 11
32.674302
 21
44.085804
 31
0.0
  0
LINE
  5
C8
100
AcDbEntity
  8
HATCH
100
AcDbLine
 10
33.143102
 20
44.085804
 30
0.0
 11
33.143102
 21
44.085804
 31
0.0
  0
LINE
  5
C9
100
AcDbEntity
  8
HATCH
100
AcDbLine
 10
32.440002
 20
43.617004
 30
0.0
 11
32.440002
 21
43.617004
 31
0.0
  0
LINE
  5
CA
100
AcDbEntity
  8
HATCH
100
AcDbLine
 10
32.908702
 20
43.617004
 30
0.0
 11
32.908702
 21
43.617004
 31
0.0
  0
LINE
  5
CB
100
AcDbEntity
  8
HATCH
100
AcDbLine
 10
32.205602
 20
43.148304
 30
0.0
 11
32.205602
 21
43.148304
 31
0.0
  0
LINE
  5
CC
100
AcDbEntity
  8
HATCH
100
AcDbLine
 10
32.674302
 20
43.148304
 30
0.0
 11
32.674302
 21
43.148304
 31
0.0
  0
LINE
  5
CD
100
AcDbEntity
  8
HATCH
100
AcDbLine
 10
33.143102
 20
43.148304
 30
0.0
 11
33.143102
 21
43.148304
 31
0.0
  0
LINE
  5
CE
100
AcDbEntity
  8
HATCH
100
AcDbLine
 10
32.440002
 20
42.679504
 30
0.0
 11
32.440002
 21
42.679504
 31
0.0
  0
LINE
  5
CF
100
AcDbEntity
  8
HATCH
100
AcDbLine
 10
32.908702
 20
42.679504
 30
0.0
 11
32.908702
 21
42.679504
 31
0.0
  0
LINE
  5
D0
100
AcDbEntity
  8
HATCH
100
AcDbLine
 10
32.205602
 20
42.210784
 30
0.0
 11
32.205602
 21
42.210784
 31
0.0
  0
LINE
  5
D1
100
AcDbEntity
  8
HATCH
100
AcDbLine
 10
32.674302
 20
42.210784
 30
0.0
 11
32.674302
 21
42.210784
 31
0.0
  0
LINE
  5
D2
100
AcDbEntity
  8
HATCH
100
AcDbLine
 10
33.143102
 20
42.210784
 30
0.0
 11
33.143102
 21
42.210784
 31
0.0
  0
LINE
  5
D3
100
AcDbEntity
  8
HATCH
100
AcDbLine
 10
32.440002
 20
41.742034
 30
0.0
 11
32.440002
 21
41.742034
 31
0.0
  0
LINE
  5
D4
100
AcDbEntity
  8
HATCH
100
AcDbLine
 10
32.908702
 20
41.742034
 30
0.0
 11
32.908702
 21
41.742034
 31
0.0
  0
LINE
  5
D5
100
AcDbEntity
  8
HATCH
100
AcDbLine
 10
32.205602
 20
41.273284
 30
0.0
 11
32.205602
 21
41.273284
 31
0.0
  0
LINE
  5
D6
100
AcDbEntity
  8
HATCH
100
AcDbLine
 10
32.674302
 20
41.273284
 30
0.0
 11
32.674302
 21
41.273284
 31
0.0
  0
LINE
  5
D7
100
AcDbEntity
  8
HATCH
100
AcDbLine
 10
33.143102
 20
41.273284
 30
0.0
 11
33.143102
 21
41.273284
 31
0.0
  0
LINE
  5
D8
100
AcDbEntity
  8
HATCH
100
AcDbLine
 10
32.440002
 20
40.804534
 30
0.0
 11
32.440002
 21
40.804534
 31
0.0
  0
LINE
  5
D9
100
AcDbEntity
  8
HATCH
100
AcDbLine
 10
32.908702
 20
40.804534
 30
0.0
 11
32.908702
 21
40.804534
 31
0.0
  0
LINE
  5
DA
100
AcDbEntity
  8
HATCH
100
AcDbLine
 10
32.205602
 20
40.335784
 30
0.0
 11
32.205602
 21
40.335784
 31
0.0
  0
LINE
  5
DB
100
AcDbEntity
  8
HATCH
100
AcDbLine
 10
32.674302
 20
40.335784
 30
0.0
 11
32.674302
 21
40.335784
 31
0.0
  0
LINE
  5
DC
100
AcDbEntity
  8
HATCH
100
AcDbLine
 10
33.143102
 20
40.335784
 30
0.0
 11
33.143102
 21
40.335784
 31
0.0
  0
LINE
  5
DD
100
AcDbEntity
  8
HATCH
100
AcDbLine
 10
34.401602
 20
46.144204
 30
0.0
 11
34.460502
 21
46.165604
 31
0.0
  0
LINE
  5
DE
100
AcDbEntity
  8
HATCH
100
AcDbLine
 10
35.256602
 20
43.794904
 30
0.0
 11
35.315502
 21
43.816304
 31
0.0
  0
LINE
  5
DF
100
AcDbEntity
  8
HATCH
100
AcDbLine
 10
36.111602
 20
41.445764
 30
0.0
 11
36.170402
 21
41.467134
 31
0.0
  0
LINE
  5
E0
100
AcDbEntity
  8
HATCH
100
AcDbLine
 10
35.272202
 20
46.718504
 30
0.0
 11
35.308102
 21
46.769704
 31
0.0
  0
LINE
  5
E1
100
AcDbEntity
  8
HATCH
100
AcDbLine
 10
34.451902
 20
41.188874
 30
0.0
 11
34.487802
 21
41.240084
 31
0.0
  0
LINE
  5
E2
100
AcDbEntity
  8
HATCH
100
AcDbLine
 10
35.886002
 20
43.236804
 30
0.0
 11
35.921902
 21
43.287904
 31
0.0
  0
LINE
  5
E3
100
AcDbEntity
  8
HATCH
100
AcDbLine
 10
34.702202
 20
40.378814
 30
0.0
 11
34.712902
 21
40.440394
 31
0.0
  0
LINE
  5
E4
100
AcDbEntity
  8
HATCH
100
AcDbLine
 10
35.136302
 20
42.840804
 30
0.0
 11
35.147002
 21
42.902404
 31
0.0
  0
LINE
  5
E5
100
AcDbEntity
  8
HATCH
100
AcDbLine
 10
35.570302
 20
45.302904
 30
0.0
 11
35.581102
 21
45.364504
 31
0.0
  0
LINE
  5
E6
100
AcDbEntity
  8
HATCH
100
AcDbLine
 10
33.611802
 20
46.898304
 30
0.0
 11
33.611802
 21
46.898304
 31
0.0
  0
LINE
  5
E7
100
AcDbEntity
  8
HATCH
100
AcDbLine
 10
33.377502
 20
46.429504
 30
0.0
 11
33.377502
 21
46.429504
 31
0.0
  0
LINE
  5
E8
100
AcDbEntity
  8
HATCH
100
AcDbLine
 10
33.846202
 20
46.429504
 30
0.0
 11
33.846202
 21
46.429504
 31
0.0
  0
LINE
  5
E9
100
AcDbEntity
  8
HATCH
100
AcDbLine
 10
33.611802
 20
45.960804
 30
0.0
 11
33.611802
 21
45.960804
 31
0.0
  0
LINE
  5
EA
100
AcDbEntity
  8
HATCH
100
AcDbLine
 10
33.377502
 20
45.492004
 30
0.0
 11
33.377502
 21
45.492004
 31
0.0
  0
LINE
  5
EB
100
AcDbEntity
  8
HATCH
100
AcDbLine
 10
33.846202
 20
45.492004
 30
0.0
 11
33.846202
 21
45.492004
 31
0.0
  0
LINE
  5
EC
100
AcDbEntity
  8
HATCH
100
AcDbLine
 10
33.611802
 20
45.023304
 30
0.0
 11
33.611802
 21
45.023304
 31
0.0
  0
LINE
  5
ED
100
AcDbEntity
  8
HATCH
100
AcDbLine
 10
33.377502
 20
44.554504
 30
0.0
 11
33.377502
 21
44.554504
 31
0.0
  0
LINE
  5
EE
100
AcDbEntity
  8
HATCH
100
AcDbLine
 10
33.846202
 20
44.554504
 30
0.0
 11
33.846202
 21
44.554504
 31
0.0
  0
LINE
  5
EF
100
AcDbEntity
  8
HATCH
100
AcDbLine
 10
33.611802
 20
44.085804
 30
0.0
 11
33.611802
 21
44.085804
 31
0.0
  0
LINE
  5
F0
100
AcDbEntity
  8
HATCH
100
AcDbLine
 10
33.377502
 20
43.617004
 30
0.0
 11
33.377502
 21
43.617004
 31
0.0
  0
LINE
  5
F1
100
AcDbEntity
  8
HATCH
100
AcDbLine
 10
33.846202
 20
43.617004
 30
0.0
 11
33.846202
 21
43.617004
 31
0.0
  0
LINE
  5
F2
100
AcDbEntity
  8
HATCH
100
AcDbLine
 10
33.611802
 20
43.148304
 30
0.0
 11
33.611802
 21
43.148304
 31
0.0
  0
LINE
  5
F3
100
AcDbEntity
  8
HATCH
100
AcDbLine
 10
33.377502
 20
42.679504
 30
0.0
 11
33.377502
 21
42.679504
 31
0.0
  0
LINE
  5
F4
100
AcDbEntity
  8
HATCH
100
AcDbLine
 10
33.846202
 20
42.679504
 30
0.0
 11
33.846202
 21
42.679504
 31
0.0
  0
LINE
  5
F5
100
AcDbEntity
  8
HATCH
100
AcDbLine
 10
33.611802
 20
42.210784
 30
0.0
 11
33.611802
 21
42.210784
 31
0.0
  0
LINE
  5
F6
100
AcDbEntity
  8
HATCH
100
AcDbLine
 10
33.377502
 20
41.742034
 30
0.0
 11
33.377502
 21
41.742034
 31
0.0
  0
LINE
  5
F7
100
AcDbEntity
  8
HATCH
100
AcDbLine
 10
33.846202
 20
41.742034
 30
0.0
 11
33.846202
 21
41.742034
 31
0.0
  0
LINE
  5
F8
100
AcDbEntity
  8
HATCH
100
AcDbLine
 10
33.611802
 20
41.273284
 30
0.0
 11
33.611802
 21
41.273284
 31
0.0
  0
LINE
  5
F9
100
AcDbEntity
  8
HATCH
100
AcDbLine
 10
33.377502
 20
40.804534
 30
0.0
 11
33.377502
 21
40.804534
 31
0.0
  0
LINE
  5
FA
100
AcDbEntity
  8
HATCH
100
AcDbLine
 10
33.846202
 20
40.804534
 30
0.0
 11
33.846202
 21
40.804534
 31
0.0
  0
LINE
  5
FB
100
AcDbEntity
  8
HATCH
100
AcDbLine
 10
33.611802
 20
40.335784
 30
0.0
 11
33.611802
 21
40.335784
 31
0.0
  0
TEXT
  5
FC
100
AcDbEntity
  8
DIM_TEXT
100
AcDbText
 10
14.982902
 20
68.605904
 30
0.0
 40
1.125
  1
REMOVE CORE
 51
15.0
  7
INFO
100
AcDbText
  0
TEXT
  5
FD
100
AcDbEntity
  8
DIM_TEXT
100
AcDbText
 10
14.805702
 20
66.656804
 30
0.0
 40
1.125
  1
FOR STRAP
 51
15.0
  7
INFO
100
AcDbText
  0
LINE
  5
FE
100
AcDbEntity
  8
DIM_TEXT
100
AcDbLine
 10
21.007302
 20
55.35935
 30
0.0
 11
30.888502
 21
57.27185
 31
0.0
  0
LINE
  5
FF
100
AcDbEntity
  8
DIM_TEXT
100
AcDbLine
 10
18.172402
 20
55.00495
 30
0.0
 11
21.007302
 21
55.35935
 31
0.0
  0
LINE
  5
100
100
AcDbEntity
  8
DRAWING
100
AcDbLine
 10
31.993202
 20
67.659004
 30
0.0
 11
31.993202
 21
52.659004
 31
0.0
  0
LINE
  5
101
100
AcDbEntity
  8
DRAWING
100
AcDbLine
 10
33.868202
 20
67.659004
 30
0.0
 11
33.868202
 21
52.659004
 31
0.0
  0
LINE
  5
102
100
AcDbEntity
  8
DRAWING
100
AcDbLine
 10
33.868202
 20
52.659004
 30
0.0
 11
31.993202
 21
52.659004
 31
0.0
  0
LINE
  5
103
100
AcDbEntity
  8
DRAWING
100
AcDbLine
 10
31.993202
 20
52.659004
 30
0.0
 11
33.868202
 21
52.659004
 31
0.0
  0
LINE
  5
104
100
AcDbEntity
  8
DRAWING
100
AcDbLine
 10
33.868202
 20
52.659004
 30
0.0
 11
31.993202
 21
52.659004
 31
0.0
  0
LINE
  5
105
100
AcDbEntity
  8
DRAWING
100
AcDbLine
 10
31.993202
 20
52.659004
 30
0.0
 11
33.868202
 21
52.659004
 31
0.0
  0
LINE
  5
106
100
AcDbEntity
  8
DIM_TEXT
100
AcDbLine
 10
31.992902
 20
57.48555
 30
0.0
 11
30.959702
 21
56.90365
 31
0.0
  0
LINE
  5
107
100
AcDbEntity
  8
DIM_TEXT
100
AcDbLine
 10
31.992902
 20
57.48555
 30
0.0
 11
30.817202
 21
57.63995
 31
0.0
  0
LINE
  5
108
100
AcDbEntity
  8
DIM_TEXT
100
AcDbLine
 10
30.959702
 20
56.90365
 30
0.0
 11
30.817202
 21
57.63995
 31
0.0
  0
LINE
  5
109
100
AcDbEntity
  8
HATCH
100
AcDbLine
 10
32.205602
 20
53.460804
 30
0.0
 11
32.205602
 21
53.460804
 31
0.0
  0
LINE
  5
10A
100
AcDbEntity
  8
HATCH
100
AcDbLine
 10
32.674302
 20
53.460804
 30
0.0
 11
32.674302
 21
53.460804
 31
0.0
  0
LINE
  5
10B
100
AcDbEntity
  8
HATCH
100
AcDbLine
 10
33.143102
 20
53.460804
 30
0.0
 11
33.143102
 21
53.460804
 31
0.0
  0
LINE
  5
10C
100
AcDbEntity
  8
HATCH
100
AcDbLine
 10
32.440002
 20
52.992004
 30
0.0
 11
32.440002
 21
52.992004
 31
0.0
  0
LINE
  5
10D
100
AcDbEntity
  8
HATCH
100
AcDbLine
 10
32.908702
 20
52.992004
 30
0.0
 11
32.908702
 21
52.992004
 31
0.0
  0
LINE
  5
10E
100
AcDbEntity
  8
HATCH
100
AcDbLine
 10
32.205602
 20
52.523304
 30
0.0
 11
32.205602
 21
52.523304
 31
0.0
  0
LINE
  5
10F
100
AcDbEntity
  8
HATCH
100
AcDbLine
 10
32.674302
 20
52.523304
 30
0.0
 11
32.674302
 21
52.523304
 31
0.0
  0
LINE
  5
110
100
AcDbEntity
  8
HATCH
100
AcDbLine
 10
33.143102
 20
52.523304
 30
0.0
 11
33.143102
 21
52.523304
 31
0.0
  0
LINE
  5
111
100
AcDbEntity
  8
HATCH
100
AcDbLine
 10
32.440002
 20
52.054504
 30
0.0
 11
32.440002
 21
52.054504
 31
0.0
  0
LINE
  5
112
100
AcDbEntity
  8
HATCH
100
AcDbLine
 10
32.908702
 20
52.054504
 30
0.0
 11
32.908702
 21
52.054504
 31
0.0
  0
LINE
  5
113
100
AcDbEntity
  8
HATCH
100
AcDbLine
 10
32.205602
 20
51.585804
 30
0.0
 11
32.205602
 21
51.585804
 31
0.0
  0
LINE
  5
114
100
AcDbEntity
  8
HATCH
100
AcDbLine
 10
32.674302
 20
51.585804
 30
0.0
 11
32.674302
 21
51.585804
 31
0.0
  0
LINE
  5
115
100
AcDbEntity
  8
HATCH
100
AcDbLine
 10
33.143102
 20
51.585804
 30
0.0
 11
33.143102
 21
51.585804
 31
0.0
  0
LINE
  5
116
100
AcDbEntity
  8
HATCH
100
AcDbLine
 10
32.440002
 20
51.117004
 30
0.0
 11
32.440002
 21
51.117004
 31
0.0
  0
LINE
  5
117
100
AcDbEntity
  8
HATCH
100
AcDbLine
 10
32.908702
 20
51.117004
 30
0.0
 11
32.908702
 21
51.117004
 31
0.0
  0
LINE
  5
118
100
AcDbEntity
  8
HATCH
100
AcDbLine
 10
32.205602
 20
50.648304
 30
0.0
 11
32.205602
 21
50.648304
 31
0.0
  0
LINE
  5
119
100
AcDbEntity
  8
HATCH
100
AcDbLine
 10
32.674302
 20
50.648304
 30
0.0
 11
32.674302
 21
50.648304
 31
0.0
  0
LINE
  5
11A
100
AcDbEntity
  8
HATCH
100
AcDbLine
 10
33.143102
 20
50.648304
 30
0.0
 11
33.143102
 21
50.648304
 31
0.0
  0
LINE
  5
11B
100
AcDbEntity
  8
HATCH
100
AcDbLine
 10
32.440002
 20
50.179504
 30
0.0
 11
32.440002
 21
50.179504
 31
0.0
  0
LINE
  5
11C
100
AcDbEntity
  8
HATCH
100
AcDbLine
 10
32.908702
 20
50.179504
 30
0.0
 11
32.908702
 21
50.179504
 31
0.0
  0
LINE
  5
11D
100
AcDbEntity
  8
HATCH
100
AcDbLine
 10
32.205602
 20
49.710804
 30
0.0
 11
32.205602
 21
49.710804
 31
0.0
  0
LINE
  5
11E
100
AcDbEntity
  8
HATCH
100
AcDbLine
 10
32.674302
 20
49.710804
 30
0.0
 11
32.674302
 21
49.710804
 31
0.0
  0
LINE
  5
11F
100
AcDbEntity
  8
HATCH
100
AcDbLine
 10
33.143102
 20
49.710804
 30
0.0
 11
33.143102
 21
49.710804
 31
0.0
  0
LINE
  5
120
100
AcDbEntity
  8
HATCH
100
AcDbLine
 10
32.440002
 20
49.242004
 30
0.0
 11
32.440002
 21
49.242004
 31
0.0
  0
LINE
  5
121
100
AcDbEntity
  8
HATCH
100
AcDbLine
 10
32.908702
 20
49.242004
 30
0.0
 11
32.908702
 21
49.242004
 31
0.0
  0
LINE
  5
122
100
AcDbEntity
  8
HATCH
100
AcDbLine
 10
32.205602
 20
48.773304
 30
0.0
 11
32.205602
 21
48.773304
 31
0.0
  0
LINE
  5
123
100
AcDbEntity
  8
HATCH
100
AcDbLine
 10
32.674302
 20
48.773304
 30
0.0
 11
32.674302
 21
48.773304
 31
0.0
  0
LINE
  5
124
100
AcDbEntity
  8
HATCH
100
AcDbLine
 10
33.143102
 20
48.773304
 30
0.0
 11
33.143102
 21
48.773304
 31
0.0
  0
LINE
  5
125
100
AcDbEntity
  8
HATCH
100
AcDbLine
 10
32.440002
 20
48.304504
 30
0.0
 11
32.440002
 21
48.304504
 31
0.0
  0
LINE
  5
126
100
AcDbEntity
  8
HATCH
100
AcDbLine
 10
32.908702
 20
48.304504
 30
0.0
 11
32.908702
 21
48.304504
 31
0.0
  0
LINE
  5
127
100
AcDbEntity
  8
HATCH
100
AcDbLine
 10
32.205602
 20
47.835804
 30
0.0
 11
32.205602
 21
47.835804
 31
0.0
  0
LINE
  5
128
100
AcDbEntity
  8
HATCH
100
AcDbLine
 10
32.674302
 20
47.835804
 30
0.0
 11
32.674302
 21
47.835804
 31
0.0
  0
LINE
  5
129
100
AcDbEntity
  8
HATCH
100
AcDbLine
 10
33.143102
 20
47.835804
 30
0.0
 11
33.143102
 21
47.835804
 31
0.0
  0
LINE
  5
12A
100
AcDbEntity
  8
HATCH
100
AcDbLine
 10
32.440002
 20
47.367004
 30
0.0
 11
32.440002
 21
47.367004
 31
0.0
  0
LINE
  5
12B
100
AcDbEntity
  8
HATCH
100
AcDbLine
 10
32.908702
 20
47.367004
 30
0.0
 11
32.908702
 21
47.367004
 31
0.0
  0
LINE
  5
12C
100
AcDbEntity
  8
HATCH
100
AcDbLine
 10
33.611802
 20
53.460804
 30
0.0
 11
33.611802
 21
53.460804
 31
0.0
  0
LINE
  5
12D
100
AcDbEntity
  8
HATCH
100
AcDbLine
 10
33.377502
 20
52.992004
 30
0.0
 11
33.377502
 21
52.992004
 31
0.0
  0
LINE
  5
12E
100
AcDbEntity
  8
HATCH
100
AcDbLine
 10
33.846202
 20
52.992004
 30
0.0
 11
33.846202
 21
52.992004
 31
0.0
  0
LINE
  5
12F
100
AcDbEntity
  8
HATCH
100
AcDbLine
 10
35.193602
 20
52.546804
 30
0.0
 11
35.148702
 21
52.482804
 31
0.0
  0
LINE
  5
130
100
AcDbEntity
  8
HATCH
100
AcDbLine
 10
35.896002
 20
49.348504
 30
0.0
 11
35.954902
 21
49.369804
 31
0.0
  0
LINE
  5
131
100
AcDbEntity
  8
HATCH
100
AcDbLine
 10
34.658202
 20
50.200304
 30
0.0
 11
34.694102
 21
50.251604
 31
0.0
  0
LINE
  5
132
100
AcDbEntity
  8
HATCH
100
AcDbLine
 10
33.976602
 20
50.661004
 30
0.0
 11
33.987302
 21
50.722604
 31
0.0
  0
LINE
  5
133
100
AcDbEntity
  8
HATCH
100
AcDbLine
 10
36.004402
 20
47.764904
 30
0.0
 11
36.015202
 21
47.826504
 31
0.0
  0
LINE
  5
134
100
AcDbEntity
  8
HATCH
100
AcDbLine
 10
33.611802
 20
52.523304
 30
0.0
 11
33.611802
 21
52.523304
 31
0.0
  0
LINE
  5
135
100
AcDbEntity
  8
HATCH
100
AcDbLine
 10
33.377502
 20
52.054504
 30
0.0
 11
33.377502
 21
52.054504
 31
0.0
  0
LINE
  5
136
100
AcDbEntity
  8
HATCH
100
AcDbLine
 10
33.846202
 20
52.054504
 30
0.0
 11
33.846202
 21
52.054504
 31
0.0
  0
LINE
  5
137
100
AcDbEntity
  8
HATCH
100
AcDbLine
 10
33.611802
 20
51.585804
 30
0.0
 11
33.611802
 21
51.585804
 31
0.0
  0
LINE
  5
138
100
AcDbEntity
  8
HATCH
100
AcDbLine
 10
33.377502
 20
51.117004
 30
0.0
 11
33.377502
 21
51.117004
 31
0.0
  0
LINE
  5
139
100
AcDbEntity
  8
HATCH
100
AcDbLine
 10
33.846202
 20
51.117004
 30
0.0
 11
33.846202
 21
51.117004
 31
0.0
  0
LINE
  5
13A
100
AcDbEntity
  8
HATCH
100
AcDbLine
 10
33.611802
 20
50.648304
 30
0.0
 11
33.611802
 21
50.648304
 31
0.0
  0
LINE
  5
13B
100
AcDbEntity
  8
HATCH
100
AcDbLine
 10
33.377502
 20
50.179504
 30
0.0
 11
33.377502
 21
50.179504
 31
0.0
  0
LINE
  5
13C
100
AcDbEntity
  8
HATCH
100
AcDbLine
 10
33.846202
 20
50.179504
 30
0.0
 11
33.846202
 21
50.179504
 31
0.0
  0
LINE
  5
13D
100
AcDbEntity
  8
HATCH
100
AcDbLine
 10
33.611802
 20
49.710804
 30
0.0
 11
33.611802
 21
49.710804
 31
0.0
  0
LINE
  5
13E
100
AcDbEntity
  8
HATCH
100
AcDbLine
 10
33.377502
 20
49.242004
 30
0.0
 11
33.377502
 21
49.242004
 31
0.0
  0
LINE
  5
13F
100
AcDbEntity
  8
HATCH
100
AcDbLine
 10
33.846202
 20
49.242004
 30
0.0
 11
33.846202
 21
49.242004
 31
0.0
  0
LINE
  5
140
100
AcDbEntity
  8
HATCH
100
AcDbLine
 10
33.611802
 20
48.773304
 30
0.0
 11
33.611802
 21
48.773304
 31
0.0
  0
LINE
  5
141
100
AcDbEntity
  8
HATCH
100
AcDbLine
 10
33.377502
 20
48.304504
 30
0.0
 11
33.377502
 21
48.304504
 31
0.0
  0
LINE
  5
142
100
AcDbEntity
  8
HATCH
100
AcDbLine
 10
33.846202
 20
48.304504
 30
0.0
 11
33.846202
 21
48.304504
 31
0.0
  0
LINE
  5
143
100
AcDbEntity
  8
HATCH
100
AcDbLine
 10
33.611802
 20
47.835804
 30
0.0
 11
33.611802
 21
47.835804
 31
0.0
  0
LINE
  5
144
100
AcDbEntity
  8
HATCH
100
AcDbLine
 10
33.377502
 20
47.367004
 30
0.0
 11
33.377502
 21
47.367004
 31
0.0
  0
LINE
  5
145
100
AcDbEntity
  8
HATCH
100
AcDbLine
 10
33.846202
 20
47.367004
 30
0.0
 11
33.846202
 21
47.367004
 31
0.0
  0
LINE
  5
146
100
AcDbEntity
  8
HATCH
100
AcDbLine
 10
36.098402
 20
50.398404
 30
0.0
 11
36.084702
 21
50.321404
 31
0.0
  0
LINE
  5
147
100
AcDbEntity
  8
HATCH
100
AcDbLine
 10
32.205602
 20
60.023304
 30
0.0
 11
32.205602
 21
60.023304
 31
0.0
  0
LINE
  5
148
100
AcDbEntity
  8
HATCH
100
AcDbLine
 10
32.674302
 20
60.023304
 30
0.0
 11
32.674302
 21
60.023304
 31
0.0
  0
LINE
  5
149
100
AcDbEntity
  8
HATCH
100
AcDbLine
 10
33.143102
 20
60.023304
 30
0.0
 11
33.143102
 21
60.023304
 31
0.0
  0
LINE
  5
14A
100
AcDbEntity
  8
HATCH
100
AcDbLine
 10
32.440002
 20
59.554504
 30
0.0
 11
32.440002
 21
59.554504
 31
0.0
  0
LINE
  5
14B
100
AcDbEntity
  8
HATCH
100
AcDbLine
 10
32.908702
 20
59.554504
 30
0.0
 11
32.908702
 21
59.554504
 31
0.0
  0
LINE
  5
14C
100
AcDbEntity
  8
HATCH
100
AcDbLine
 10
32.205602
 20
59.085804
 30
0.0
 11
32.205602
 21
59.085804
 31
0.0
  0
LINE
  5
14D
100
AcDbEntity
  8
HATCH
100
AcDbLine
 10
32.674302
 20
59.085804
 30
0.0
 11
32.674302
 21
59.085804
 31
0.0
  0
LINE
  5
14E
100
AcDbEntity
  8
HATCH
100
AcDbLine
 10
33.143102
 20
59.085804
 30
0.0
 11
33.143102
 21
59.085804
 31
0.0
  0
LINE
  5
14F
100
AcDbEntity
  8
HATCH
100
AcDbLine
 10
32.440002
 20
58.617004
 30
0.0
 11
32.440002
 21
58.617004
 31
0.0
  0
LINE
  5
150
100
AcDbEntity
  8
HATCH
100
AcDbLine
 10
32.908702
 20
58.617004
 30
0.0
 11
32.908702
 21
58.617004
 31
0.0
  0
LINE
  5
151
100
AcDbEntity
  8
HATCH
100
AcDbLine
 10
32.205602
 20
58.148304
 30
0.0
 11
32.205602
 21
58.148304
 31
0.0
  0
LINE
  5
152
100
AcDbEntity
  8
HATCH
100
AcDbLine
 10
32.674302
 20
58.148304
 30
0.0
 11
32.674302
 21
58.148304
 31
0.0
  0
LINE
  5
153
100
AcDbEntity
  8
HATCH
100
AcDbLine
 10
33.143102
 20
58.148304
 30
0.0
 11
33.143102
 21
58.148304
 31
0.0
  0
LINE
  5
154
100
AcDbEntity
  8
HATCH
100
AcDbLine
 10
32.440002
 20
57.679504
 30
0.0
 11
32.440002
 21
57.679504
 31
0.0
  0
LINE
  5
155
100
AcDbEntity
  8
HATCH
100
AcDbLine
 10
32.908702
 20
57.679504
 30
0.0
 11
32.908702
 21
57.679504
 31
0.0
  0
LINE
  5
156
100
AcDbEntity
  8
HATCH
100
AcDbLine
 10
32.205602
 20
57.210804
 30
0.0
 11
32.205602
 21
57.210804
 31
0.0
  0
LINE
  5
157
100
AcDbEntity
  8
HATCH
100
AcDbLine
 10
32.674302
 20
57.210804
 30
0.0
 11
32.674302
 21
57.210804
 31
0.0
  0
LINE
  5
158
100
AcDbEntity
  8
HATCH
100
AcDbLine
 10
33.143102
 20
57.210804
 30
0.0
 11
33.143102
 21
57.210804
 31
0.0
  0
LINE
  5
159
100
AcDbEntity
  8
HATCH
100
AcDbLine
 10
32.440002
 20
56.742004
 30
0.0
 11
32.440002
 21
56.742004
 31
0.0
  0
LINE
  5
15A
100
AcDbEntity
  8
HATCH
100
AcDbLine
 10
32.908702
 20
56.742004
 30
0.0
 11
32.908702
 21
56.742004
 31
0.0
  0
LINE
  5
15B
100
AcDbEntity
  8
HATCH
100
AcDbLine
 10
32.205602
 20
56.273304
 30
0.0
 11
32.205602
 21
56.273304
 31
0.0
  0
LINE
  5
15C
100
AcDbEntity
  8
HATCH
100
AcDbLine
 10
32.674302
 20
56.273304
 30
0.0
 11
32.674302
 21
56.273304
 31
0.0
  0
LINE
  5
15D
100
AcDbEntity
  8
HATCH
100
AcDbLine
 10
33.143102
 20
56.273304
 30
0.0
 11
33.143102
 21
56.273304
 31
0.0
  0
LINE
  5
15E
100
AcDbEntity
  8
HATCH
100
AcDbLine
 10
32.440002
 20
55.804504
 30
0.0
 11
32.440002
 21
55.804504
 31
0.0
  0
LINE
  5
15F
100
AcDbEntity
  8
HATCH
100
AcDbLine
 10
32.908702
 20
55.804504
 30
0.0
 11
32.908702
 21
55.804504
 31
0.0
  0
LINE
  5
160
100
AcDbEntity
  8
HATCH
100
AcDbLine
 10
32.205602
 20
55.335804
 30
0.0
 11
32.205602
 21
55.335804
 31
0.0
  0
LINE
  5
161
100
AcDbEntity
  8
HATCH
100
AcDbLine
 10
32.674302
 20
55.335804
 30
0.0
 11
32.674302
 21
55.335804
 31
0.0
  0
LINE
  5
162
100
AcDbEntity
  8
HATCH
100
AcDbLine
 10
33.143102
 20
55.335804
 30
0.0
 11
33.143102
 21
55.335804
 31
0.0
  0
LINE
  5
163
100
AcDbEntity
  8
HATCH
100
AcDbLine
 10
32.440002
 20
54.867004
 30
0.0
 11
32.440002
 21
54.867004
 31
0.0
  0
LINE
  5
164
100
AcDbEntity
  8
HATCH
100
AcDbLine
 10
32.908702
 20
54.867004
 30
0.0
 11
32.908702
 21
54.867004
 31
0.0
  0
LINE
  5
165
100
AcDbEntity
  8
HATCH
100
AcDbLine
 10
32.205602
 20
54.398304
 30
0.0
 11
32.205602
 21
54.398304
 31
0.0
  0
LINE
  5
166
100
AcDbEntity
  8
HATCH
100
AcDbLine
 10
32.674302
 20
54.398304
 30
0.0
 11
32.674302
 21
54.398304
 31
0.0
  0
LINE
  5
167
100
AcDbEntity
  8
HATCH
100
AcDbLine
 10
33.143102
 20
54.398304
 30
0.0
 11
33.143102
 21
54.398304
 31
0.0
  0
LINE
  5
168
100
AcDbEntity
  8
HATCH
100
AcDbLine
 10
32.440002
 20
53.929504
 30
0.0
 11
32.440002
 21
53.929504
 31
0.0
  0
LINE
  5
169
100
AcDbEntity
  8
HATCH
100
AcDbLine
 10
32.908702
 20
53.929504
 30
0.0
 11
32.908702
 21
53.929504
 31
0.0
  0
LINE
  5
16A
100
AcDbEntity
  8
HATCH
100
AcDbLine
 10
35.256602
 20
58.794904
 30
0.0
 11
35.315502
 21
58.816304
 31
0.0
  0
LINE
  5
16B
100
AcDbEntity
  8
HATCH
100
AcDbLine
 10
36.111602
 20
56.445804
 30
0.0
 11
36.170402
 21
56.467104
 31
0.0
  0
LINE
  5
16C
100
AcDbEntity
  8
HATCH
100
AcDbLine
 10
34.451902
 20
56.188904
 30
0.0
 11
34.487802
 21
56.240104
 31
0.0
  0
LINE
  5
16D
100
AcDbEntity
  8
HATCH
100
AcDbLine
 10
35.886002
 20
58.236804
 30
0.0
 11
35.921902
 21
58.287904
 31
0.0
  0
LINE
  5
16E
100
AcDbEntity
  8
HATCH
100
AcDbLine
 10
34.702202
 20
55.378804
 30
0.0
 11
34.712902
 21
55.440404
 31
0.0
  0
LINE
  5
16F
100
AcDbEntity
  8
HATCH
100
AcDbLine
 10
35.136302
 20
57.840804
 30
0.0
 11
35.147002
 21
57.902404
 31
0.0
  0
LINE
  5
170
100
AcDbEntity
  8
HATCH
100
AcDbLine
 10
35.570302
 20
60.302904
 30
0.0
 11
35.581102
 21
60.364504
 31
0.0
  0
LINE
  5
171
100
AcDbEntity
  8
HATCH
100
AcDbLine
 10
33.611802
 20
60.023304
 30
0.0
 11
33.611802
 21
60.023304
 31
0.0
  0
LINE
  5
172
100
AcDbEntity
  8
HATCH
100
AcDbLine
 10
33.377502
 20
59.554504
 30
0.0
 11
33.377502
 21
59.554504
 31
0.0
  0
LINE
  5
173
100
AcDbEntity
  8
HATCH
100
AcDbLine
 10
33.846202
 20
59.554504
 30
0.0
 11
33.846202
 21
59.554504
 31
0.0
  0
LINE
  5
174
100
AcDbEntity
  8
HATCH
100
AcDbLine
 10
33.611802
 20
59.085804
 30
0.0
 11
33.611802
 21
59.085804
 31
0.0
  0
LINE
  5
175
100
AcDbEntity
  8
HATCH
100
AcDbLine
 10
33.377502
 20
58.617004
 30
0.0
 11
33.377502
 21
58.617004
 31
0.0
  0
LINE
  5
176
100
AcDbEntity
  8
HATCH
100
AcDbLine
 10
33.846202
 20
58.617004
 30
0.0
 11
33.846202
 21
58.617004
 31
0.0
  0
LINE
  5
177
100
AcDbEntity
  8
HATCH
100
AcDbLine
 10
33.611802
 20
58.148304
 30
0.0
 11
33.611802
 21
58.148304
 31
0.0
  0
LINE
  5
178
100
AcDbEntity
  8
HATCH
100
AcDbLine
 10
33.377502
 20
57.679504
 30
0.0
 11
33.377502
 21
57.679504
 31
0.0
  0
LINE
  5
179
100
AcDbEntity
  8
HATCH
100
AcDbLine
 10
33.846202
 20
57.679504
 30
0.0
 11
33.846202
 21
57.679504
 31
0.0
  0
LINE
  5
17A
100
AcDbEntity
  8
HATCH
100
AcDbLine
 10
33.611802
 20
57.210804
 30
0.0
 11
33.611802
 21
57.210804
 31
0.0
  0
LINE
  5
17B
100
AcDbEntity
  8
HATCH
100
AcDbLine
 10
33.377502
 20
56.742004
 30
0.0
 11
33.377502
 21
56.742004
 31
0.0
  0
LINE
  5
17C
100
AcDbEntity
  8
HATCH
100
AcDbLine
 10
33.846202
 20
56.742004
 30
0.0
 11
33.846202
 21
56.742004
 31
0.0
  0
LINE
  5
17D
100
AcDbEntity
  8
HATCH
100
AcDbLine
 10
33.611802
 20
56.273304
 30
0.0
 11
33.611802
 21
56.273304
 31
0.0
  0
LINE
  5
17E
100
AcDbEntity
  8
HATCH
100
AcDbLine
 10
33.377502
 20
55.804504
 30
0.0
 11
33.377502
 21
55.804504
 31
0.0
  0
LINE
  5
17F
100
AcDbEntity
  8
HATCH
100
AcDbLine
 10
33.846202
 20
55.804504
 30
0.0
 11
33.846202
 21
55.804504
 31
0.0
  0
LINE
  5
180
100
AcDbEntity
  8
HATCH
100
AcDbLine
 10
33.611802
 20
55.335804
 30
0.0
 11
33.611802
 21
55.335804
 31
0.0
  0
LINE
  5
181
100
AcDbEntity
  8
HATCH
100
AcDbLine
 10
33.377502
 20
54.867004
 30
0.0
 11
33.377502
 21
54.867004
 31
0.0
  0
LINE
  5
182
100
AcDbEntity
  8
HATCH
100
AcDbLine
 10
33.846202
 20
54.867004
 30
0.0
 11
33.846202
 21
54.867004
 31
0.0
  0
LINE
  5
183
100
AcDbEntity
  8
HATCH
100
AcDbLine
 10
33.611802
 20
54.398304
 30
0.0
 11
33.611802
 21
54.398304
 31
0.0
  0
LINE
  5
184
100
AcDbEntity
  8
HATCH
100
AcDbLine
 10
33.377502
 20
53.929504
 30
0.0
 11
33.377502
 21
53.929504
 31
0.0
  0
LINE
  5
185
100
AcDbEntity
  8
HATCH
100
AcDbLine
 10
33.846202
 20
53.929504
 30
0.0
 11
33.846202
 21
53.929504
 31
0.0
  0
LINE
  5
186
100
AcDbEntity
  8
HATCH
100
AcDbLine
 10
34.846002
 20
54.591104
 30
0.0
 11
34.772502
 21
54.564404
 31
0.0
  0
LINE
  5
187
100
AcDbEntity
  8
DIM_TEXT
100
AcDbLine
 10
27.740502
 20
69.314704
 30
0.0
 11
29.335202
 21
69.314704
 31
0.0
  0
LINE
  5
188
100
AcDbEntity
  8
HATCH
100
AcDbLine
 10
32.440002
 20
67.054504
 30
0.0
 11
32.440002
 21
67.054504
 31
0.0
  0
LINE
  5
189
100
AcDbEntity
  8
HATCH
100
AcDbLine
 10
32.908702
 20
67.054504
 30
0.0
 11
32.908702
 21
67.054504
 31
0.0
  0
LINE
  5
18A
100
AcDbEntity
  8
HATCH
100
AcDbLine
 10
32.205602
 20
66.585804
 30
0.0
 11
32.205602
 21
66.585804
 31
0.0
  0
LINE
  5
18B
100
AcDbEntity
  8
HATCH
100
AcDbLine
 10
32.674302
 20
66.585804
 30
0.0
 11
32.674302
 21
66.585804
 31
0.0
  0
LINE
  5
18C
100
AcDbEntity
  8
HATCH
100
AcDbLine
 10
33.143102
 20
66.585804
 30
0.0
 11
33.143102
 21
66.585804
 31
0.0
  0
LINE
  5
18D
100
AcDbEntity
  8
HATCH
100
AcDbLine
 10
32.440002
 20
66.117004
 30
0.0
 11
32.440002
 21
66.117004
 31
0.0
  0
LINE
  5
18E
100
AcDbEntity
  8
HATCH
100
AcDbLine
 10
32.908702
 20
66.117004
 30
0.0
 11
32.908702
 21
66.117004
 31
0.0
  0
LINE
  5
18F
100
AcDbEntity
  8
HATCH
100
AcDbLine
 10
32.205602
 20
65.648304
 30
0.0
 11
32.205602
 21
65.648304
 31
0.0
  0
LINE
  5
190
100
AcDbEntity
  8
HATCH
100
AcDbLine
 10
32.674302
 20
65.648304
 30
0.0
 11
32.674302
 21
65.648304
 31
0.0
  0
LINE
  5
191
100
AcDbEntity
  8
HATCH
100
AcDbLine
 10
33.143102
 20
65.648304
 30
0.0
 11
33.143102
 21
65.648304
 31
0.0
  0
LINE
  5
192
100
AcDbEntity
  8
HATCH
100
AcDbLine
 10
32.440002
 20
65.179504
 30
0.0
 11
32.440002
 21
65.179504
 31
0.0
  0
LINE
  5
193
100
AcDbEntity
  8
HATCH
100
AcDbLine
 10
32.908702
 20
65.179504
 30
0.0
 11
32.908702
 21
65.179504
 31
0.0
  0
LINE
  5
194
100
AcDbEntity
  8
HATCH
100
AcDbLine
 10
32.205602
 20
64.710804
 30
0.0
 11
32.205602
 21
64.710804
 31
0.0
  0
LINE
  5
195
100
AcDbEntity
  8
HATCH
100
AcDbLine
 10
32.674302
 20
64.710804
 30
0.0
 11
32.674302
 21
64.710804
 31
0.0
  0
LINE
  5
196
100
AcDbEntity
  8
HATCH
100
AcDbLine
 10
33.143102
 20
64.710804
 30
0.0
 11
33.143102
 21
64.710804
 31
0.0
  0
LINE
  5
197
100
AcDbEntity
  8
HATCH
100
AcDbLine
 10
32.440002
 20
64.242004
 30
0.0
 11
32.440002
 21
64.242004
 31
0.0
  0
LINE
  5
198
100
AcDbEntity
  8
HATCH
100
AcDbLine
 10
32.908702
 20
64.242004
 30
0.0
 11
32.908702
 21
64.242004
 31
0.0
  0
LINE
  5
199
100
AcDbEntity
  8
HATCH
100
AcDbLine
 10
32.205602
 20
63.773304
 30
0.0
 11
32.205602
 21
63.773304
 31
0.0
  0
LINE
  5
19A
100
AcDbEntity
  8
HATCH
100
AcDbLine
 10
32.674302
 20
63.773304
 30
0.0
 11
32.674302
 21
63.773304
 31
0.0
  0
LINE
  5
19B
100
AcDbEntity
  8
HATCH
100
AcDbLine
 10
33.143102
 20
63.773304
 30
0.0
 11
33.143102
 21
63.773304
 31
0.0
  0
LINE
  5
19C
100
AcDbEntity
  8
HATCH
100
AcDbLine
 10
32.440002
 20
63.304504
 30
0.0
 11
32.440002
 21
63.304504
 31
0.0
  0
LINE
  5
19D
100
AcDbEntity
  8
HATCH
100
AcDbLine
 10
32.908702
 20
63.304504
 30
0.0
 11
32.908702
 21
63.304504
 31
0.0
  0
LINE
  5
19E
100
AcDbEntity
  8
HATCH
100
AcDbLine
 10
32.205602
 20
62.835804
 30
0.0
 11
32.205602
 21
62.835804
 31
0.0
  0
LINE
  5
19F
100
AcDbEntity
  8
HATCH
100
AcDbLine
 10
32.674302
 20
62.835804
 30
0.0
 11
32.674302
 21
62.835804
 31
0.0
  0
LINE
  5
1A0
100
AcDbEntity
  8
HATCH
100
AcDbLine
 10
33.143102
 20
62.835804
 30
0.0
 11
33.143102
 21
62.835804
 31
0.0
  0
LINE
  5
1A1
100
AcDbEntity
  8
HATCH
100
AcDbLine
 10
32.440002
 20
62.367004
 30
0.0
 11
32.440002
 21
62.367004
 31
0.0
  0
LINE
  5
1A2
100
AcDbEntity
  8
HATCH
100
AcDbLine
 10
32.908702
 20
62.367004
 30
0.0
 11
32.908702
 21
62.367004
 31
0.0
  0
LINE
  5
1A3
100
AcDbEntity
  8
HATCH
100
AcDbLine
 10
32.205602
 20
61.898304
 30
0.0
 11
32.205602
 21
61.898304
 31
0.0
  0
LINE
  5
1A4
100
AcDbEntity
  8
HATCH
100
AcDbLine
 10
32.674302
 20
61.898304
 30
0.0
 11
32.674302
 21
61.898304
 31
0.0
  0
LINE
  5
1A5
100
AcDbEntity
  8
HATCH
100
AcDbLine
 10
33.143102
 20
61.898304
 30
0.0
 11
33.143102
 21
61.898304
 31
0.0
  0
LINE
  5
1A6
100
AcDbEntity
  8
HATCH
100
AcDbLine
 10
32.440002
 20
61.429504
 30
0.0
 11
32.440002
 21
61.429504
 31
0.0
  0
LINE
  5
1A7
100
AcDbEntity
  8
HATCH
100
AcDbLine
 10
32.908702
 20
61.429504
 30
0.0
 11
32.908702
 21
61.429504
 31
0.0
  0
LINE
  5
1A8
100
AcDbEntity
  8
HATCH
100
AcDbLine
 10
32.205602
 20
60.960804
 30
0.0
 11
32.205602
 21
60.960804
 31
0.0
  0
LINE
  5
1A9
100
AcDbEntity
  8
HATCH
100
AcDbLine
 10
32.674302
 20
60.960804
 30
0.0
 11
32.674302
 21
60.960804
 31
0.0
  0
LINE
  5
1AA
100
AcDbEntity
  8
HATCH
100
AcDbLine
 10
33.143102
 20
60.960804
 30
0.0
 11
33.143102
 21
60.960804
 31
0.0
  0
LINE
  5
1AB
100
AcDbEntity
  8
HATCH
100
AcDbLine
 10
32.440002
 20
60.492004
 30
0.0
 11
32.440002
 21
60.492004
 31
0.0
  0
LINE
  5
1AC
100
AcDbEntity
  8
HATCH
100
AcDbLine
 10
32.908702
 20
60.492004
 30
0.0
 11
32.908702
 21
60.492004
 31
0.0
  0
LINE
  5
1AD
100
AcDbEntity
  8
HATCH
100
AcDbLine
 10
35.896002
 20
64.348504
 30
0.0
 11
35.954902
 21
64.369804
 31
0.0
  0
LINE
  5
1AE
100
AcDbEntity
  8
HATCH
100
AcDbLine
 10
34.401602
 20
61.144204
 30
0.0
 11
34.460502
 21
61.165604
 31
0.0
  0
LINE
  5
1AF
100
AcDbEntity
  8
HATCH
100
AcDbLine
 10
34.658202
 20
65.200304
 30
0.0
 11
34.694102
 21
65.251604
 31
0.0
  0
LINE
  5
1B0
100
AcDbEntity
  8
HATCH
100
AcDbLine
 10
35.272202
 20
61.718504
 30
0.0
 11
35.308102
 21
61.769704
 31
0.0
  0
LINE
  5
1B1
100
AcDbEntity
  8
HATCH
100
AcDbLine
 10
33.976602
 20
65.661004
 30
0.0
 11
33.987302
 21
65.722604
 31
0.0
  0
LINE
  5
1B2
100
AcDbEntity
  8
HATCH
100
AcDbLine
 10
36.004402
 20
62.764904
 30
0.0
 11
36.015202
 21
62.826504
 31
0.0
  0
LINE
  5
1B3
100
AcDbEntity
  8
HATCH
100
AcDbLine
 10
33.377502
 20
67.054504
 30
0.0
 11
33.377502
 21
67.054504
 31
0.0
  0
LINE
  5
1B4
100
AcDbEntity
  8
HATCH
100
AcDbLine
 10
33.846202
 20
67.054504
 30
0.0
 11
33.846202
 21
67.054504
 31
0.0
  0
LINE
  5
1B5
100
AcDbEntity
  8
HATCH
100
AcDbLine
 10
33.611802
 20
66.585804
 30
0.0
 11
33.611802
 21
66.585804
 31
0.0
  0
LINE
  5
1B6
100
AcDbEntity
  8
HATCH
100
AcDbLine
 10
33.377502
 20
66.117004
 30
0.0
 11
33.377502
 21
66.117004
 31
0.0
  0
LINE
  5
1B7
100
AcDbEntity
  8
HATCH
100
AcDbLine
 10
33.846202
 20
66.117004
 30
0.0
 11
33.846202
 21
66.117004
 31
0.0
  0
LINE
  5
1B8
100
AcDbEntity
  8
HATCH
100
AcDbLine
 10
33.611802
 20
65.648304
 30
0.0
 11
33.611802
 21
65.648304
 31
0.0
  0
LINE
  5
1B9
100
AcDbEntity
  8
HATCH
100
AcDbLine
 10
33.377502
 20
65.179504
 30
0.0
 11
33.377502
 21
65.179504
 31
0.0
  0
LINE
  5
1BA
100
AcDbEntity
  8
HATCH
100
AcDbLine
 10
33.846202
 20
65.179504
 30
0.0
 11
33.846202
 21
65.179504
 31
0.0
  0
LINE
  5
1BB
100
AcDbEntity
  8
HATCH
100
AcDbLine
 10
33.611802
 20
64.710804
 30
0.0
 11
33.611802
 21
64.710804
 31
0.0
  0
LINE
  5
1BC
100
AcDbEntity
  8
HATCH
100
AcDbLine
 10
33.377502
 20
64.242004
 30
0.0
 11
33.377502
 21
64.242004
 31
0.0
  0
LINE
  5
1BD
100
AcDbEntity
  8
HATCH
100
AcDbLine
 10
33.846202
 20
64.242004
 30
0.0
 11
33.846202
 21
64.242004
 31
0.0
  0
LINE
  5
1BE
100
AcDbEntity
  8
HATCH
100
AcDbLine
 10
33.611802
 20
63.773304
 30
0.0
 11
33.611802
 21
63.773304
 31
0.0
  0
LINE
  5
1BF
100
AcDbEntity
  8
HATCH
100
AcDbLine
 10
33.377502
 20
63.304504
 30
0.0
 11
33.377502
 21
63.304504
 31
0.0
  0
LINE
  5
1C0
100
AcDbEntity
  8
HATCH
100
AcDbLine
 10
33.846202
 20
63.304504
 30
0.0
 11
33.846202
 21
63.304504
 31
0.0
  0
LINE
  5
1C1
100
AcDbEntity
  8
HATCH
100
AcDbLine
 10
33.611802
 20
62.835804
 30
0.0
 11
33.611802
 21
62.835804
 31
0.0
  0
LINE
  5
1C2
100
AcDbEntity
  8
HATCH
100
AcDbLine
 10
33.377502
 20
62.367004
 30
0.0
 11
33.377502
 21
62.367004
 31
0.0
  0
LINE
  5
1C3
100
AcDbEntity
  8
HATCH
100
AcDbLine
 10
33.846202
 20
62.367004
 30
0.0
 11
33.846202
 21
62.367004
 31
0.0
  0
LINE
  5
1C4
100
AcDbEntity
  8
HATCH
100
AcDbLine
 10
33.611802
 20
61.898304
 30
0.0
 11
33.611802
 21
61.898304
 31
0.0
  0
LINE
  5
1C5
100
AcDbEntity
  8
HATCH
100
AcDbLine
 10
33.377502
 20
61.429504
 30
0.0
 11
33.377502
 21
61.429504
 31
0.0
  0
LINE
  5
1C6
100
AcDbEntity
  8
HATCH
100
AcDbLine
 10
33.846202
 20
61.429504
 30
0.0
 11
33.846202
 21
61.429504
 31
0.0
  0
LINE
  5
1C7
100
AcDbEntity
  8
HATCH
100
AcDbLine
 10
33.611802
 20
60.960804
 30
0.0
 11
33.611802
 21
60.960804
 31
0.0
  0
LINE
  5
1C8
100
AcDbEntity
  8
HATCH
100
AcDbLine
 10
33.377502
 20
60.492004
 30
0.0
 11
33.377502
 21
60.492004
 31
0.0
  0
LINE
  5
1C9
100
AcDbEntity
  8
HATCH
100
AcDbLine
 10
33.846202
 20
60.492004
 30
0.0
 11
33.846202
 21
60.492004
 31
0.0
  0
LINE
  5
1CA
100
AcDbEntity
  8
HATCH
100
AcDbLine
 10
36.098402
 20
65.398404
 30
0.0
 11
36.084702
 21
65.321404
 31
0.0
  0
LINE
  5
1CB
100
AcDbEntity
  8
DRAWING
100
AcDbLine
 10
35.329902
 20
68.532727
 30
0.0
 11
35.329902
 21
67.115227
 31
0.0
  0
LINE
  5
1CC
100
AcDbEntity
  8
DRAWING
100
AcDbLine
 10
33.868202
 20
67.659004
 30
0.0
 11
31.993202
 21
67.659004
 31
0.0
  0
LINE
  5
1CD
100
AcDbEntity
  8
DRAWING
100
AcDbLine
 10
31.993202
 20
67.659004
 30
0.0
 11
33.868202
 21
67.659004
 31
0.0
  0
LINE
  5
1CE
100
AcDbEntity
  8
DRAWING
100
AcDbLine
 10
33.868202
 20
67.659004
 30
0.0
 11
31.993202
 21
67.659004
 31
0.0
  0
LINE
  5
1CF
100
AcDbEntity
  8
DRAWING
100
AcDbLine
 10
31.993202
 20
67.659004
 30
0.0
 11
33.868202
 21
67.659004
 31
0.0
  0
LINE
  5
1D0
100
AcDbEntity
  8
HATCH
100
AcDbLine
 10
32.205602
 20
67.523304
 30
0.0
 11
32.205602
 21
67.523304
 31
0.0
  0
LINE
  5
1D1
100
AcDbEntity
  8
HATCH
100
AcDbLine
 10
32.674302
 20
67.523304
 30
0.0
 11
32.674302
 21
67.523304
 31
0.0
  0
LINE
  5
1D2
100
AcDbEntity
  8
HATCH
100
AcDbLine
 10
33.143102
 20
67.523304
 30
0.0
 11
33.143102
 21
67.523304
 31
0.0
  0
LINE
  5
1D3
100
AcDbEntity
  8
HATCH
100
AcDbLine
 10
32.205602
 20
67.794804
 30
0.0
 11
32.205602
 21
67.794804
 31
0.0
  0
LINE
  5
1D4
100
AcDbEntity
  8
HATCH
100
AcDbLine
 10
32.674302
 20
67.794804
 30
0.0
 11
32.674302
 21
67.794804
 31
0.0
  0
LINE
  5
1D5
100
AcDbEntity
  8
HATCH
100
AcDbLine
 10
33.143102
 20
67.794804
 30
0.0
 11
33.143102
 21
67.794804
 31
0.0
  0
LINE
  5
1D6
100
AcDbEntity
  8
HATCH
100
AcDbLine
 10
32.440002
 20
68.263504
 30
0.0
 11
32.440002
 21
68.263504
 31
0.0
  0
LINE
  5
1D7
100
AcDbEntity
  8
HATCH
100
AcDbLine
 10
32.908702
 20
68.263504
 30
0.0
 11
32.908702
 21
68.263504
 31
0.0
  0
LINE
  5
1D8
100
AcDbEntity
  8
HATCH
100
AcDbLine
 10
32.205602
 20
68.732304
 30
0.0
 11
32.205602
 21
68.732304
 31
0.0
  0
LINE
  5
1D9
100
AcDbEntity
  8
HATCH
100
AcDbLine
 10
32.674302
 20
68.732304
 30
0.0
 11
32.674302
 21
68.732304
 31
0.0
  0
LINE
  5
1DA
100
AcDbEntity
  8
HATCH
100
AcDbLine
 10
33.143102
 20
68.732304
 30
0.0
 11
33.143102
 21
68.732304
 31
0.0
  0
LINE
  5
1DB
100
AcDbEntity
  8
HATCH
100
AcDbLine
 10
32.440002
 20
69.201004
 30
0.0
 11
32.440002
 21
69.201004
 31
0.0
  0
LINE
  5
1DC
100
AcDbEntity
  8
HATCH
100
AcDbLine
 10
32.908702
 20
69.201004
 30
0.0
 11
32.908702
 21
69.201004
 31
0.0
  0
LINE
  5
1DD
100
AcDbEntity
  8
HATCH
100
AcDbLine
 10
32.205602
 20
69.669804
 30
0.0
 11
32.205602
 21
69.669804
 31
0.0
  0
LINE
  5
1DE
100
AcDbEntity
  8
HATCH
100
AcDbLine
 10
32.674302
 20
69.669804
 30
0.0
 11
32.674302
 21
69.669804
 31
0.0
  0
LINE
  5
1DF
100
AcDbEntity
  8
HATCH
100
AcDbLine
 10
33.143102
 20
69.669804
 30
0.0
 11
33.143102
 21
69.669804
 31
0.0
  0
LINE
  5
1E0
100
AcDbEntity
  8
HATCH
100
AcDbLine
 10
32.440002
 20
70.138504
 30
0.0
 11
32.440002
 21
70.138504
 31
0.0
  0
LINE
  5
1E1
100
AcDbEntity
  8
HATCH
100
AcDbLine
 10
32.908702
 20
70.138504
 30
0.0
 11
32.908702
 21
70.138504
 31
0.0
  0
LINE
  5
1E2
100
AcDbEntity
  8
HATCH
100
AcDbLine
 10
32.205602
 20
70.607304
 30
0.0
 11
32.205602
 21
70.607304
 31
0.0
  0
LINE
  5
1E3
100
AcDbEntity
  8
HATCH
100
AcDbLine
 10
32.674302
 20
70.607304
 30
0.0
 11
32.674302
 21
70.607304
 31
0.0
  0
LINE
  5
1E4
100
AcDbEntity
  8
HATCH
100
AcDbLine
 10
33.143102
 20
70.607304
 30
0.0
 11
33.143102
 21
70.607304
 31
0.0
  0
LINE
  5
1E5
100
AcDbEntity
  8
HATCH
100
AcDbLine
 10
32.440002
 20
71.076004
 30
0.0
 11
32.440002
 21
71.076004
 31
0.0
  0
LINE
  5
1E6
100
AcDbEntity
  8
HATCH
100
AcDbLine
 10
32.908702
 20
71.076004
 30
0.0
 11
32.908702
 21
71.076004
 31
0.0
  0
LINE
  5
1E7
100
AcDbEntity
  8
HATCH
100
AcDbLine
 10
32.205602
 20
71.544804
 30
0.0
 11
32.205602
 21
71.544804
 31
0.0
  0
LINE
  5
1E8
100
AcDbEntity
  8
HATCH
100
AcDbLine
 10
32.674302
 20
71.544804
 30
0.0
 11
32.674302
 21
71.544804
 31
0.0
  0
LINE
  5
1E9
100
AcDbEntity
  8
HATCH
100
AcDbLine
 10
33.143102
 20
71.544804
 30
0.0
 11
33.143102
 21
71.544804
 31
0.0
  0
LINE
  5
1EA
100
AcDbEntity
  8
HATCH
100
AcDbLine
 10
32.440002
 20
72.013504
 30
0.0
 11
32.440002
 21
72.013504
 31
0.0
  0
LINE
  5
1EB
100
AcDbEntity
  8
HATCH
100
AcDbLine
 10
32.908702
 20
72.013504
 30
0.0
 11
32.908702
 21
72.013504
 31
0.0
  0
LINE
  5
1EC
100
AcDbEntity
  8
HATCH
100
AcDbLine
 10
32.205602
 20
72.482304
 30
0.0
 11
32.205602
 21
72.482304
 31
0.0
  0
LINE
  5
1ED
100
AcDbEntity
  8
HATCH
100
AcDbLine
 10
32.674302
 20
72.482304
 30
0.0
 11
32.674302
 21
72.482304
 31
0.0
  0
LINE
  5
1EE
100
AcDbEntity
  8
HATCH
100
AcDbLine
 10
33.143102
 20
72.482304
 30
0.0
 11
33.143102
 21
72.482304
 31
0.0
  0
LINE
  5
1EF
100
AcDbEntity
  8
HATCH
100
AcDbLine
 10
32.440002
 20
72.951004
 30
0.0
 11
32.440002
 21
72.951004
 31
0.0
  0
LINE
  5
1F0
100
AcDbEntity
  8
HATCH
100
AcDbLine
 10
32.908702
 20
72.951004
 30
0.0
 11
32.908702
 21
72.951004
 31
0.0
  0
LINE
  5
1F1
100
AcDbEntity
  8
HATCH
100
AcDbLine
 10
32.205602
 20
73.419804
 30
0.0
 11
32.205602
 21
73.419804
 31
0.0
  0
LINE
  5
1F2
100
AcDbEntity
  8
HATCH
100
AcDbLine
 10
32.674302
 20
73.419804
 30
0.0
 11
32.674302
 21
73.419804
 31
0.0
  0
LINE
  5
1F3
100
AcDbEntity
  8
HATCH
100
AcDbLine
 10
33.143102
 20
73.419804
 30
0.0
 11
33.143102
 21
73.419804
 31
0.0
  0
LINE
  5
1F4
100
AcDbEntity
  8
HATCH
100
AcDbLine
 10
32.440002
 20
73.888504
 30
0.0
 11
32.440002
 21
73.888504
 31
0.0
  0
LINE
  5
1F5
100
AcDbEntity
  8
HATCH
100
AcDbLine
 10
32.908702
 20
73.888504
 30
0.0
 11
32.908702
 21
73.888504
 31
0.0
  0
LINE
  5
1F6
100
AcDbEntity
  8
HATCH
100
AcDbLine
 10
33.611802
 20
67.523304
 30
0.0
 11
33.611802
 21
67.523304
 31
0.0
  0
LINE
  5
1F7
100
AcDbEntity
  8
HATCH
100
AcDbLine
 10
35.896002
 20
70.969604
 30
0.0
 11
35.954902
 21
70.948204
 31
0.0
  0
LINE
  5
1F8
100
AcDbEntity
  8
HATCH
100
AcDbLine
 10
34.658202
 20
70.117704
 30
0.0
 11
34.694102
 21
70.066504
 31
0.0
  0
LINE
  5
1F9
100
AcDbEntity
  8
HATCH
100
AcDbLine
 10
35.272202
 20
73.599604
 30
0.0
 11
35.308102
 21
73.548304
 31
0.0
  0
LINE
  5
1FA
100
AcDbEntity
  8
HATCH
100
AcDbLine
 10
33.976602
 20
69.657104
 30
0.0
 11
33.987302
 21
69.595504
 31
0.0
  0
LINE
  5
1FB
100
AcDbEntity
  8
HATCH
100
AcDbLine
 10
36.004402
 20
72.553104
 30
0.0
 11
36.015202
 21
72.491504
 31
0.0
  0
LINE
  5
1FC
100
AcDbEntity
  8
HATCH
100
AcDbLine
 10
33.611802
 20
67.794804
 30
0.0
 11
33.611802
 21
67.794804
 31
0.0
  0
LINE
  5
1FD
100
AcDbEntity
  8
HATCH
100
AcDbLine
 10
33.377502
 20
68.263504
 30
0.0
 11
33.377502
 21
68.263504
 31
0.0
  0
LINE
  5
1FE
100
AcDbEntity
  8
HATCH
100
AcDbLine
 10
33.846202
 20
68.263504
 30
0.0
 11
33.846202
 21
68.263504
 31
0.0
  0
LINE
  5
1FF
100
AcDbEntity
  8
HATCH
100
AcDbLine
 10
33.611802
 20
68.732304
 30
0.0
 11
33.611802
 21
68.732304
 31
0.0
  0
LINE
  5
200
100
AcDbEntity
  8
HATCH
100
AcDbLine
 10
33.377502
 20
69.201004
 30
0.0
 11
33.377502
 21
69.201004
 31
0.0
  0
LINE
  5
201
100
AcDbEntity
  8
HATCH
100
AcDbLine
 10
33.846202
 20
69.201004
 30
0.0
 11
33.846202
 21
69.201004
 31
0.0
  0
LINE
  5
202
100
AcDbEntity
  8
HATCH
100
AcDbLine
 10
33.611802
 20
69.669804
 30
0.0
 11
33.611802
 21
69.669804
 31
0.0
  0
LINE
  5
203
100
AcDbEntity
  8
HATCH
100
AcDbLine
 10
33.377502
 20
70.138504
 30
0.0
 11
33.377502
 21
70.138504
 31
0.0
  0
LINE
  5
204
100
AcDbEntity
  8
HATCH
100
AcDbLine
 10
33.846202
 20
70.138504
 30
0.0
 11
33.846202
 21
70.138504
 31
0.0
  0
LINE
  5
205
100
AcDbEntity
  8
HATCH
100
AcDbLine
 10
33.611802
 20
70.607304
 30
0.0
 11
33.611802
 21
70.607304
 31
0.0
  0
LINE
  5
206
100
AcDbEntity
  8
HATCH
100
AcDbLine
 10
33.377502
 20
71.076004
 30
0.0
 11
33.377502
 21
71.076004
 31
0.0
  0
LINE
  5
207
100
AcDbEntity
  8
HATCH
100
AcDbLine
 10
33.846202
 20
71.076004
 30
0.0
 11
33.846202
 21
71.076004
 31
0.0
  0
LINE
  5
208
100
AcDbEntity
  8
HATCH
100
AcDbLine
 10
33.611802
 20
71.544804
 30
0.0
 11
33.611802
 21
71.544804
 31
0.0
  0
LINE
  5
209
100
AcDbEntity
  8
HATCH
100
AcDbLine
 10
33.377502
 20
72.013504
 30
0.0
 11
33.377502
 21
72.013504
 31
0.0
  0
LINE
  5
20A
100
AcDbEntity
  8
HATCH
100
AcDbLine
 10
33.846202
 20
72.013504
 30
0.0
 11
33.846202
 21
72.013504
 31
0.0
  0
LINE
  5
20B
100
AcDbEntity
  8
HATCH
100
AcDbLine
 10
33.611802
 20
72.482304
 30
0.0
 11
33.611802
 21
72.482304
 31
0.0
  0
LINE
  5
20C
100
AcDbEntity
  8
HATCH
100
AcDbLine
 10
33.377502
 20
72.951004
 30
0.0
 11
33.377502
 21
72.951004
 31
0.0
  0
LINE
  5
20D
100
AcDbEntity
  8
HATCH
100
AcDbLine
 10
33.846202
 20
72.951004
 30
0.0
 11
33.846202
 21
72.951004
 31
0.0
  0
LINE
  5
20E
100
AcDbEntity
  8
HATCH
100
AcDbLine
 10
33.611802
 20
73.419804
 30
0.0
 11
33.611802
 21
73.419804
 31
0.0
  0
LINE
  5
20F
100
AcDbEntity
  8
HATCH
100
AcDbLine
 10
33.377502
 20
73.888504
 30
0.0
 11
33.377502
 21
73.888504
 31
0.0
  0
LINE
  5
210
100
AcDbEntity
  8
HATCH
100
AcDbLine
 10
33.846202
 20
73.888504
 30
0.0
 11
33.846202
 21
73.888504
 31
0.0
  0
LINE
  5
211
100
AcDbEntity
  8
HATCH
100
AcDbLine
 10
36.098402
 20
69.919604
 30
0.0
 11
36.084702
 21
69.996604
 31
0.0
  0
LINE
  5
212
100
AcDbEntity
  8
DRAWING
100
AcDbLine
 10
41.993202
 20
37.659024
 30
0.0
 11
41.993202
 21
52.659004
 31
0.0
  0
LINE
  5
213
100
AcDbEntity
  8
DRAWING
100
AcDbLine
 10
40.118202
 20
39.251864
 30
0.0
 11
40.118202
 21
52.659004
 31
0.0
  0
LINE
  5
214
100
AcDbEntity
  8
HATCH
100
AcDbLine
 10
36.751002
 20
46.999204
 30
0.0
 11
36.809802
 21
47.020604
 31
0.0
  0
LINE
  5
215
100
AcDbEntity
  8
DIM_TEXT
100
AcDbLine
 10
53.196302
 20
29.299834
 30
0.0
 11
47.635502
 21
34.551784
 31
0.0
  0
LINE
  5
216
100
AcDbEntity
  8
DIM_TEXT
100
AcDbLine
 10
49.534402
 20
26.346704
 30
0.0
 11
44.416302
 21
34.261384
 31
0.0
  0
LINE
  5
217
100
AcDbEntity
  8
DRAWING
100
AcDbLine
 10
41.993202
 20
40.804534
 30
0.0
 11
58.039602
 21
40.804534
 31
0.0
  0
LINE
  5
218
100
AcDbEntity
  8
DRAWING
100
AcDbLine
 10
41.993202
 20
35.304534
 30
0.0
 11
58.039602
 21
35.304534
 31
0.0
  0
LINE
  5
219
100
AcDbEntity
  8
DRAWING
100
AcDbLine
 10
41.993202
 20
29.628384
 30
0.0
 11
41.993202
 21
37.659024
 31
0.0
  0
LINE
  5
21A
100
AcDbEntity
  8
DRAWING
100
AcDbLine
 10
40.118202
 20
29.628384
 30
0.0
 11
40.118202
 21
36.446374
 31
0.0
  0
LINE
  5
21B
100
AcDbEntity
  8
HATCH
100
AcDbLine
 10
43.126202
 20
29.628384
 30
0.0
 11
38.696602
 21
29.628384
 31
0.0
  0
LINE
  5
21C
100
AcDbEntity
  8
HATCH
100
AcDbLine
 10
36.751002
 20
31.999234
 30
0.0
 11
36.809802
 21
32.020594
 31
0.0
  0
LINE
  5
21D
100
AcDbEntity
  8
HATCH
100
AcDbLine
 10
39.100402
 20
32.854274
 30
0.0
 11
39.159202
 21
32.875634
 31
0.0
  0
LINE
  5
21E
100
AcDbEntity
  8
HATCH
100
AcDbLine
 10
37.606002
 20
29.649994
 30
0.0
 11
37.664802
 21
29.671354
 31
0.0
  0
LINE
  5
21F
100
AcDbEntity
  8
HATCH
100
AcDbLine
 10
37.320102
 20
30.284634
 30
0.0
 11
37.356002
 21
30.335844
 31
0.0
  0
LINE
  5
220
100
AcDbEntity
  8
HATCH
100
AcDbLine
 10
38.754202
 20
32.332484
 30
0.0
 11
38.790102
 21
32.383754
 31
0.0
  0
LINE
  5
221
100
AcDbEntity
  8
HATCH
100
AcDbLine
 10
38.032002
 20
29.868804
 30
0.0
 11
38.042702
 21
29.930384
 31
0.0
  0
LINE
  5
222
100
AcDbEntity
  8
HATCH
100
AcDbLine
 10
38.466102
 20
32.330834
 30
0.0
 11
38.476802
 21
32.392424
 31
0.0
  0
LINE
  5
223
100
AcDbEntity
  8
HATCH
100
AcDbLine
 10
38.046702
 20
27.974634
 30
0.0
 11
38.696602
 21
29.628384
 31
0.0
  0
LINE
  5
224
100
AcDbEntity
  8
HATCH
100
AcDbLine
 10
39.955302
 20
30.505034
 30
0.0
 11
40.014202
 21
30.526394
 31
0.0
  0
LINE
  5
225
100
AcDbEntity
  8
HATCH
100
AcDbLine
 10
40.408702
 20
33.304534
 30
0.0
 11
40.408702
 21
33.304534
 31
0.0
  0
LINE
  5
226
100
AcDbEntity
  8
HATCH
100
AcDbLine
 10
40.877502
 20
33.304534
 30
0.0
 11
40.877502
 21
33.304534
 31
0.0
  0
LINE
  5
227
100
AcDbEntity
  8
HATCH
100
AcDbLine
 10
41.346202
 20
33.304534
 30
0.0
 11
41.346202
 21
33.304534
 31
0.0
  0
LINE
  5
228
100
AcDbEntity
  8
HATCH
100
AcDbLine
 10
41.815002
 20
33.304534
 30
0.0
 11
41.815002
 21
33.304534
 31
0.0
  0
LINE
  5
229
100
AcDbEntity
  8
HATCH
100
AcDbLine
 10
40.174302
 20
32.835784
 30
0.0
 11
40.174302
 21
32.835784
 31
0.0
  0
LINE
  5
22A
100
AcDbEntity
  8
HATCH
100
AcDbLine
 10
40.643102
 20
32.835784
 30
0.0
 11
40.643102
 21
32.835784
 31
0.0
  0
LINE
  5
22B
100
AcDbEntity
  8
HATCH
100
AcDbLine
 10
41.111802
 20
32.835784
 30
0.0
 11
41.111802
 21
32.835784
 31
0.0
  0
LINE
  5
22C
100
AcDbEntity
  8
HATCH
100
AcDbLine
 10
41.580602
 20
32.835784
 30
0.0
 11
41.580602
 21
32.835784
 31
0.0
  0
LINE
  5
22D
100
AcDbEntity
  8
HATCH
100
AcDbLine
 10
40.408702
 20
32.367034
 30
0.0
 11
40.408702
 21
32.367034
 31
0.0
  0
LINE
  5
22E
100
AcDbEntity
  8
HATCH
100
AcDbLine
 10
40.877502
 20
32.367034
 30
0.0
 11
40.877502
 21
32.367034
 31
0.0
  0
LINE
  5
22F
100
AcDbEntity
  8
HATCH
100
AcDbLine
 10
41.346202
 20
32.367034
 30
0.0
 11
41.346202
 21
32.367034
 31
0.0
  0
LINE
  5
230
100
AcDbEntity
  8
HATCH
100
AcDbLine
 10
41.815002
 20
32.367034
 30
0.0
 11
41.815002
 21
32.367034
 31
0.0
  0
LINE
  5
231
100
AcDbEntity
  8
HATCH
100
AcDbLine
 10
40.174302
 20
31.898284
 30
0.0
 11
40.174302
 21
31.898284
 31
0.0
  0
LINE
  5
232
100
AcDbEntity
  8
HATCH
100
AcDbLine
 10
40.643102
 20
31.898284
 30
0.0
 11
40.643102
 21
31.898284
 31
0.0
  0
LINE
  5
233
100
AcDbEntity
  8
HATCH
100
AcDbLine
 10
41.111802
 20
31.898284
 30
0.0
 11
41.111802
 21
31.898284
 31
0.0
  0
LINE
  5
234
100
AcDbEntity
  8
HATCH
100
AcDbLine
 10
41.580602
 20
31.898284
 30
0.0
 11
41.580602
 21
31.898284
 31
0.0
  0
LINE
  5
235
100
AcDbEntity
  8
HATCH
100
AcDbLine
 10
40.408702
 20
31.429534
 30
0.0
 11
40.408702
 21
31.429534
 31
0.0
  0
LINE
  5
236
100
AcDbEntity
  8
HATCH
100
AcDbLine
 10
40.877502
 20
31.429534
 30
0.0
 11
40.877502
 21
31.429534
 31
0.0
  0
LINE
  5
237
100
AcDbEntity
  8
HATCH
100
AcDbLine
 10
41.346202
 20
31.429534
 30
0.0
 11
41.346202
 21
31.429534
 31
0.0
  0
LINE
  5
238
100
AcDbEntity
  8
HATCH
100
AcDbLine
 10
41.815002
 20
31.429534
 30
0.0
 11
41.815002
 21
31.429534
 31
0.0
  0
LINE
  5
239
100
AcDbEntity
  8
HATCH
100
AcDbLine
 10
40.174302
 20
30.960784
 30
0.0
 11
40.174302
 21
30.960784
 31
0.0
  0
LINE
  5
23A
100
AcDbEntity
  8
HATCH
100
AcDbLine
 10
40.643102
 20
30.960784
 30
0.0
 11
40.643102
 21
30.960784
 31
0.0
  0
LINE
  5
23B
100
AcDbEntity
  8
HATCH
100
AcDbLine
 10
41.111802
 20
30.960784
 30
0.0
 11
41.111802
 21
30.960784
 31
0.0
  0
LINE
  5
23C
100
AcDbEntity
  8
HATCH
100
AcDbLine
 10
41.580602
 20
30.960784
 30
0.0
 11
41.580602
 21
30.960784
 31
0.0
  0
LINE
  5
23D
100
AcDbEntity
  8
HATCH
100
AcDbLine
 10
40.408702
 20
30.492034
 30
0.0
 11
40.408702
 21
30.492034
 31
0.0
  0
LINE
  5
23E
100
AcDbEntity
  8
HATCH
100
AcDbLine
 10
40.877502
 20
30.492034
 30
0.0
 11
40.877502
 21
30.492034
 31
0.0
  0
LINE
  5
23F
100
AcDbEntity
  8
HATCH
100
AcDbLine
 10
41.346202
 20
30.492034
 30
0.0
 11
41.346202
 21
30.492034
 31
0.0
  0
LINE
  5
240
100
AcDbEntity
  8
HATCH
100
AcDbLine
 10
41.815002
 20
30.492034
 30
0.0
 11
41.815002
 21
30.492034
 31
0.0
  0
LINE
  5
241
100
AcDbEntity
  8
HATCH
100
AcDbLine
 10
40.174302
 20
30.023284
 30
0.0
 11
40.174302
 21
30.023284
 31
0.0
  0
LINE
  5
242
100
AcDbEntity
  8
HATCH
100
AcDbLine
 10
40.643102
 20
30.023284
 30
0.0
 11
40.643102
 21
30.023284
 31
0.0
  0
LINE
  5
243
100
AcDbEntity
  8
HATCH
100
AcDbLine
 10
41.111802
 20
30.023284
 30
0.0
 11
41.111802
 21
30.023284
 31
0.0
  0
LINE
  5
244
100
AcDbEntity
  8
HATCH
100
AcDbLine
 10
41.580602
 20
30.023284
 30
0.0
 11
41.580602
 21
30.023284
 31
0.0
  0
LINE
  5
245
100
AcDbEntity
  8
HATCH
100
AcDbLine
 10
45.493202
 20
40.804534
 30
0.0
 11
41.993202
 21
35.304534
 31
0.0
  0
LINE
  5
246
100
AcDbEntity
  8
HATCH
100
AcDbLine
 10
41.993202
 20
40.804534
 30
0.0
 11
45.493202
 21
35.304534
 31
0.0
  0
LINE
  5
247
100
AcDbEntity
  8
DRAWING
100
AcDbLine
 10
45.493202
 20
38.429534
 30
0.0
 11
37.738102
 21
38.429534
 31
0.0
  0
LINE
  5
248
100
AcDbEntity
  8
DRAWING
100
AcDbLine
 10
45.493202
 20
37.679534
 30
0.0
 11
38.113102
 21
37.679534
 31
0.0
  0
LINE
  5
249
100
AcDbEntity
  8
HATCH
100
AcDbLine
 10
39.315702
 20
39.951504
 30
0.0
 11
39.374502
 21
39.972864
 31
0.0
  0
LINE
  5
24A
100
AcDbEntity
  8
HATCH
100
AcDbLine
 10
36.986102
 20
40.106654
 30
0.0
 11
36.941202
 21
40.042694
 31
0.0
  0
LINE
  5
24B
100
AcDbEntity
  8
HATCH
100
AcDbLine
 10
37.320102
 20
38.610564
 30
0.0
 11
37.356002
 21
38.661774
 31
0.0
  0
LINE
  5
24C
100
AcDbEntity
  8
HATCH
100
AcDbLine
 10
36.706302
 20
33.766384
 30
0.0
 11
36.742202
 21
33.817594
 31
0.0
  0
LINE
  5
24D
100
AcDbEntity
  8
HATCH
100
AcDbLine
 10
38.900202
 20
34.792874
 30
0.0
 11
38.910902
 21
34.854464
 31
0.0
  0
LINE
  5
24E
100
AcDbEntity
  8
HATCH
100
AcDbLine
 10
37.512502
 20
35.538424
 30
0.0
 11
37.439002
 21
35.511684
 31
0.0
  0
LINE
  5
24F
100
AcDbEntity
  8
HATCH
100
AcDbLine
 10
37.243702
 20
36.371184
 30
0.0
 11
37.198802
 21
36.307154
 31
0.0
  0
ARC
  5
250
100
AcDbEntity
  8
DRAWING
100
AcDbCircle
 10
37.738102
 20
37.679534
 30
0.0
 40
0.749981
100
AcDbArc
 50
90.00001
 51
180.0
  0
ARC
  5
251
100
AcDbEntity
  8
DRAWING
100
AcDbCircle
 10
38.113102
 20
37.304534
 30
0.0
 40
0.374991
100
AcDbArc
 50
90.00001
 51
180.0
  0
LINE
  5
252
100
AcDbEntity
  8
DRAWING
100
AcDbLine
 10
37.738102
 20
37.304534
 30
0.0
 11
37.738102
 21
36.411344
 31
0.0
  0
LINE
  5
253
100
AcDbEntity
  8
DRAWING
100
AcDbLine
 10
37.738102
 20
36.411344
 30
0.0
 11
36.988102
 21
36.411344
 31
0.0
  0
LINE
  5
254
100
AcDbEntity
  8
DRAWING
100
AcDbLine
 10
36.988102
 20
37.679534
 30
0.0
 11
36.988102
 21
36.411344
 31
0.0
  0
LINE
  5
255
100
AcDbEntity
  8
HATCH
100
AcDbLine
 10
39.625802
 20
39.510584
 30
0.0
 11
39.636502
 21
39.572174
 31
0.0
  0
LINE
  5
256
100
AcDbEntity
  8
HATCH
100
AcDbLine
 10
40.408702
 20
36.117034
 30
0.0
 11
40.408702
 21
36.117034
 31
0.0
  0
LINE
  5
257
100
AcDbEntity
  8
HATCH
100
AcDbLine
 10
40.877502
 20
36.117034
 30
0.0
 11
40.877502
 21
36.117034
 31
0.0
  0
LINE
  5
258
100
AcDbEntity
  8
HATCH
100
AcDbLine
 10
41.346202
 20
36.117034
 30
0.0
 11
41.346202
 21
36.117034
 31
0.0
  0
LINE
  5
259
100
AcDbEntity
  8
HATCH
100
AcDbLine
 10
41.815002
 20
36.117034
 30
0.0
 11
41.815002
 21
36.117034
 31
0.0
  0
LINE
  5
25A
100
AcDbEntity
  8
HATCH
100
AcDbLine
 10
40.174302
 20
35.648284
 30
0.0
 11
40.174302
 21
35.648284
 31
0.0
  0
LINE
  5
25B
100
AcDbEntity
  8
HATCH
100
AcDbLine
 10
40.643102
 20
35.648284
 30
0.0
 11
40.643102
 21
35.648284
 31
0.0
  0
LINE
  5
25C
100
AcDbEntity
  8
HATCH
100
AcDbLine
 10
41.111802
 20
35.648284
 30
0.0
 11
41.111802
 21
35.648284
 31
0.0
  0
LINE
  5
25D
100
AcDbEntity
  8
HATCH
100
AcDbLine
 10
41.580602
 20
35.648284
 30
0.0
 11
41.580602
 21
35.648284
 31
0.0
  0
LINE
  5
25E
100
AcDbEntity
  8
HATCH
100
AcDbLine
 10
40.408702
 20
35.179534
 30
0.0
 11
40.408702
 21
35.179534
 31
0.0
  0
LINE
  5
25F
100
AcDbEntity
  8
HATCH
100
AcDbLine
 10
40.877502
 20
35.179534
 30
0.0
 11
40.877502
 21
35.179534
 31
0.0
  0
LINE
  5
260
100
AcDbEntity
  8
HATCH
100
AcDbLine
 10
41.346202
 20
35.179534
 30
0.0
 11
41.346202
 21
35.179534
 31
0.0
  0
LINE
  5
261
100
AcDbEntity
  8
HATCH
100
AcDbLine
 10
41.815002
 20
35.179534
 30
0.0
 11
41.815002
 21
35.179534
 31
0.0
  0
LINE
  5
262
100
AcDbEntity
  8
HATCH
100
AcDbLine
 10
40.174302
 20
34.710784
 30
0.0
 11
40.174302
 21
34.710784
 31
0.0
  0
LINE
  5
263
100
AcDbEntity
  8
HATCH
100
AcDbLine
 10
40.643102
 20
34.710784
 30
0.0
 11
40.643102
 21
34.710784
 31
0.0
  0
LINE
  5
264
100
AcDbEntity
  8
HATCH
100
AcDbLine
 10
41.111802
 20
34.710784
 30
0.0
 11
41.111802
 21
34.710784
 31
0.0
  0
LINE
  5
265
100
AcDbEntity
  8
HATCH
100
AcDbLine
 10
41.580602
 20
34.710784
 30
0.0
 11
41.580602
 21
34.710784
 31
0.0
  0
LINE
  5
266
100
AcDbEntity
  8
HATCH
100
AcDbLine
 10
40.408702
 20
34.242034
 30
0.0
 11
40.408702
 21
34.242034
 31
0.0
  0
LINE
  5
267
100
AcDbEntity
  8
HATCH
100
AcDbLine
 10
40.877502
 20
34.242034
 30
0.0
 11
40.877502
 21
34.242034
 31
0.0
  0
LINE
  5
268
100
AcDbEntity
  8
HATCH
100
AcDbLine
 10
41.346202
 20
34.242034
 30
0.0
 11
41.346202
 21
34.242034
 31
0.0
  0
LINE
  5
269
100
AcDbEntity
  8
HATCH
100
AcDbLine
 10
41.815002
 20
34.242034
 30
0.0
 11
41.815002
 21
34.242034
 31
0.0
  0
LINE
  5
26A
100
AcDbEntity
  8
HATCH
100
AcDbLine
 10
40.174302
 20
33.773284
 30
0.0
 11
40.174302
 21
33.773284
 31
0.0
  0
LINE
  5
26B
100
AcDbEntity
  8
HATCH
100
AcDbLine
 10
40.643102
 20
33.773284
 30
0.0
 11
40.643102
 21
33.773284
 31
0.0
  0
LINE
  5
26C
100
AcDbEntity
  8
HATCH
100
AcDbLine
 10
41.111802
 20
33.773284
 30
0.0
 11
41.111802
 21
33.773284
 31
0.0
  0
LINE
  5
26D
100
AcDbEntity
  8
HATCH
100
AcDbLine
 10
41.580602
 20
33.773284
 30
0.0
 11
41.580602
 21
33.773284
 31
0.0
  0
LINE
  5
26E
100
AcDbEntity
  8
DRAWING
100
AcDbLine
 10
40.158202
 20
39.251864
 30
0.0
 11
41.993202
 21
39.251864
 31
0.0
  0
LINE
  5
26F
100
AcDbEntity
  8
DRAWING
100
AcDbLine
 10
40.099102
 20
36.446374
 30
0.0
 11
41.993202
 21
36.446374
 31
0.0
  0
LINE
  5
270
100
AcDbEntity
  8
HATCH
100
AcDbLine
 10
37.606002
 20
44.650004
 30
0.0
 11
37.664802
 21
44.671304
 31
0.0
  0
LINE
  5
271
100
AcDbEntity
  8
HATCH
100
AcDbLine
 10
38.461002
 20
42.300744
 30
0.0
 11
38.519802
 21
42.322114
 31
0.0
  0
LINE
  5
272
100
AcDbEntity
  8
HATCH
100
AcDbLine
 10
37.320102
 20
45.284604
 30
0.0
 11
37.356002
 21
45.335804
 31
0.0
  0
LINE
  5
273
100
AcDbEntity
  8
HATCH
100
AcDbLine
 10
37.933902
 20
41.802824
 30
0.0
 11
37.969802
 21
41.854034
 31
0.0
  0
LINE
  5
274
100
AcDbEntity
  8
HATCH
100
AcDbLine
 10
39.367902
 20
43.850704
 30
0.0
 11
39.403802
 21
43.901904
 31
0.0
  0
LINE
  5
275
100
AcDbEntity
  8
HATCH
100
AcDbLine
 10
37.597902
 20
42.406804
 30
0.0
 11
37.608702
 21
42.468304
 31
0.0
  0
LINE
  5
276
100
AcDbEntity
  8
HATCH
100
AcDbLine
 10
38.032002
 20
44.868804
 30
0.0
 11
38.042702
 21
44.930404
 31
0.0
  0
LINE
  5
277
100
AcDbEntity
  8
HATCH
100
AcDbLine
 10
37.545202
 20
40.607754
 30
0.0
 11
37.534202
 21
40.546294
 31
0.0
  0
LINE
  5
278
100
AcDbEntity
  8
HATCH
100
AcDbLine
 10
39.955302
 20
45.505004
 30
0.0
 11
40.014202
 21
45.526404
 31
0.0
  0
LINE
  5
279
100
AcDbEntity
  8
HATCH
100
AcDbLine
 10
39.981502
 20
40.369044
 30
0.0
 11
40.017402
 21
40.420254
 31
0.0
  0
LINE
  5
27A
100
AcDbEntity
  8
HATCH
100
AcDbLine
 10
40.059802
 20
41.972624
 30
0.0
 11
40.070602
 21
42.034204
 31
0.0
  0
LINE
  5
27B
100
AcDbEntity
  8
HATCH
100
AcDbLine
 10
40.174302
 20
46.898304
 30
0.0
 11
40.174302
 21
46.898304
 31
0.0
  0
LINE
  5
27C
100
AcDbEntity
  8
HATCH
100
AcDbLine
 10
40.643102
 20
46.898304
 30
0.0
 11
40.643102
 21
46.898304
 31
0.0
  0
LINE
  5
27D
100
AcDbEntity
  8
HATCH
100
AcDbLine
 10
41.111802
 20
46.898304
 30
0.0
 11
41.111802
 21
46.898304
 31
0.0
  0
LINE
  5
27E
100
AcDbEntity
  8
HATCH
100
AcDbLine
 10
41.580602
 20
46.898304
 30
0.0
 11
41.580602
 21
46.898304
 31
0.0
  0
LINE
  5
27F
100
AcDbEntity
  8
HATCH
100
AcDbLine
 10
40.408702
 20
46.429504
 30
0.0
 11
40.408702
 21
46.429504
 31
0.0
  0
LINE
  5
280
100
AcDbEntity
  8
HATCH
100
AcDbLine
 10
40.877502
 20
46.429504
 30
0.0
 11
40.877502
 21
46.429504
 31
0.0
  0
LINE
  5
281
100
AcDbEntity
  8
HATCH
100
AcDbLine
 10
41.346202
 20
46.429504
 30
0.0
 11
41.346202
 21
46.429504
 31
0.0
  0
LINE
  5
282
100
AcDbEntity
  8
HATCH
100
AcDbLine
 10
41.815002
 20
46.429504
 30
0.0
 11
41.815002
 21
46.429504
 31
0.0
  0
LINE
  5
283
100
AcDbEntity
  8
HATCH
100
AcDbLine
 10
40.174302
 20
45.960804
 30
0.0
 11
40.174302
 21
45.960804
 31
0.0
  0
LINE
  5
284
100
AcDbEntity
  8
HATCH
100
AcDbLine
 10
40.643102
 20
45.960804
 30
0.0
 11
40.643102
 21
45.960804
 31
0.0
  0
LINE
  5
285
100
AcDbEntity
  8
HATCH
100
AcDbLine
 10
41.111802
 20
45.960804
 30
0.0
 11
41.111802
 21
45.960804
 31
0.0
  0
LINE
  5
286
100
AcDbEntity
  8
HATCH
100
AcDbLine
 10
41.580602
 20
45.960804
 30
0.0
 11
41.580602
 21
45.960804
 31
0.0
  0
LINE
  5
287
100
AcDbEntity
  8
HATCH
100
AcDbLine
 10
40.408702
 20
45.492004
 30
0.0
 11
40.408702
 21
45.492004
 31
0.0
  0
LINE
  5
288
100
AcDbEntity
  8
HATCH
100
AcDbLine
 10
40.877502
 20
45.492004
 30
0.0
 11
40.877502
 21
45.492004
 31
0.0
  0
LINE
  5
289
100
AcDbEntity
  8
HATCH
100
AcDbLine
 10
41.346202
 20
45.492004
 30
0.0
 11
41.346202
 21
45.492004
 31
0.0
  0
LINE
  5
28A
100
AcDbEntity
  8
HATCH
100
AcDbLine
 10
41.815002
 20
45.492004
 30
0.0
 11
41.815002
 21
45.492004
 31
0.0
  0
LINE
  5
28B
100
AcDbEntity
  8
HATCH
100
AcDbLine
 10
40.174302
 20
45.023304
 30
0.0
 11
40.174302
 21
45.023304
 31
0.0
  0
LINE
  5
28C
100
AcDbEntity
  8
HATCH
100
AcDbLine
 10
40.643102
 20
45.023304
 30
0.0
 11
40.643102
 21
45.023304
 31
0.0
  0
LINE
  5
28D
100
AcDbEntity
  8
HATCH
100
AcDbLine
 10
41.111802
 20
45.023304
 30
0.0
 11
41.111802
 21
45.023304
 31
0.0
  0
LINE
  5
28E
100
AcDbEntity
  8
HATCH
100
AcDbLine
 10
41.580602
 20
45.023304
 30
0.0
 11
41.580602
 21
45.023304
 31
0.0
  0
LINE
  5
28F
100
AcDbEntity
  8
HATCH
100
AcDbLine
 10
40.408702
 20
44.554504
 30
0.0
 11
40.408702
 21
44.554504
 31
0.0
  0
LINE
  5
290
100
AcDbEntity
  8
HATCH
100
AcDbLine
 10
40.877502
 20
44.554504
 30
0.0
 11
40.877502
 21
44.554504
 31
0.0
  0
LINE
  5
291
100
AcDbEntity
  8
HATCH
100
AcDbLine
 10
41.346202
 20
44.554504
 30
0.0
 11
41.346202
 21
44.554504
 31
0.0
  0
LINE
  5
292
100
AcDbEntity
  8
HATCH
100
AcDbLine
 10
41.815002
 20
44.554504
 30
0.0
 11
41.815002
 21
44.554504
 31
0.0
  0
LINE
  5
293
100
AcDbEntity
  8
HATCH
100
AcDbLine
 10
40.174302
 20
44.085804
 30
0.0
 11
40.174302
 21
44.085804
 31
0.0
  0
LINE
  5
294
100
AcDbEntity
  8
HATCH
100
AcDbLine
 10
40.643102
 20
44.085804
 30
0.0
 11
40.643102
 21
44.085804
 31
0.0
  0
LINE
  5
295
100
AcDbEntity
  8
HATCH
100
AcDbLine
 10
41.111802
 20
44.085804
 30
0.0
 11
41.111802
 21
44.085804
 31
0.0
  0
LINE
  5
296
100
AcDbEntity
  8
HATCH
100
AcDbLine
 10
41.580602
 20
44.085804
 30
0.0
 11
41.580602
 21
44.085804
 31
0.0
  0
LINE
  5
297
100
AcDbEntity
  8
HATCH
100
AcDbLine
 10
40.408702
 20
43.617004
 30
0.0
 11
40.408702
 21
43.617004
 31
0.0
  0
LINE
  5
298
100
AcDbEntity
  8
HATCH
100
AcDbLine
 10
40.877502
 20
43.617004
 30
0.0
 11
40.877502
 21
43.617004
 31
0.0
  0
LINE
  5
299
100
AcDbEntity
  8
HATCH
100
AcDbLine
 10
41.346202
 20
43.617004
 30
0.0
 11
41.346202
 21
43.617004
 31
0.0
  0
LINE
  5
29A
100
AcDbEntity
  8
HATCH
100
AcDbLine
 10
41.815002
 20
43.617004
 30
0.0
 11
41.815002
 21
43.617004
 31
0.0
  0
LINE
  5
29B
100
AcDbEntity
  8
HATCH
100
AcDbLine
 10
40.174302
 20
43.148304
 30
0.0
 11
40.174302
 21
43.148304
 31
0.0
  0
LINE
  5
29C
100
AcDbEntity
  8
HATCH
100
AcDbLine
 10
40.643102
 20
43.148304
 30
0.0
 11
40.643102
 21
43.148304
 31
0.0
  0
LINE
  5
29D
100
AcDbEntity
  8
HATCH
100
AcDbLine
 10
41.111802
 20
43.148304
 30
0.0
 11
41.111802
 21
43.148304
 31
0.0
  0
LINE
  5
29E
100
AcDbEntity
  8
HATCH
100
AcDbLine
 10
41.580602
 20
43.148304
 30
0.0
 11
41.580602
 21
43.148304
 31
0.0
  0
LINE
  5
29F
100
AcDbEntity
  8
HATCH
100
AcDbLine
 10
40.408702
 20
42.679504
 30
0.0
 11
40.408702
 21
42.679504
 31
0.0
  0
LINE
  5
2A0
100
AcDbEntity
  8
HATCH
100
AcDbLine
 10
40.877502
 20
42.679504
 30
0.0
 11
40.877502
 21
42.679504
 31
0.0
  0
LINE
  5
2A1
100
AcDbEntity
  8
HATCH
100
AcDbLine
 10
41.346202
 20
42.679504
 30
0.0
 11
41.346202
 21
42.679504
 31
0.0
  0
LINE
  5
2A2
100
AcDbEntity
  8
HATCH
100
AcDbLine
 10
41.815002
 20
42.679504
 30
0.0
 11
41.815002
 21
42.679504
 31
0.0
  0
LINE
  5
2A3
100
AcDbEntity
  8
HATCH
100
AcDbLine
 10
40.174302
 20
42.210784
 30
0.0
 11
40.174302
 21
42.210784
 31
0.0
  0
LINE
  5
2A4
100
AcDbEntity
  8
HATCH
100
AcDbLine
 10
40.643102
 20
42.210784
 30
0.0
 11
40.643102
 21
42.210784
 31
0.0
  0
LINE
  5
2A5
100
AcDbEntity
  8
HATCH
100
AcDbLine
 10
41.111802
 20
42.210784
 30
0.0
 11
41.111802
 21
42.210784
 31
0.0
  0
LINE
  5
2A6
100
AcDbEntity
  8
HATCH
100
AcDbLine
 10
41.580602
 20
42.210784
 30
0.0
 11
41.580602
 21
42.210784
 31
0.0
  0
LINE
  5
2A7
100
AcDbEntity
  8
HATCH
100
AcDbLine
 10
40.408702
 20
41.742034
 30
0.0
 11
40.408702
 21
41.742034
 31
0.0
  0
LINE
  5
2A8
100
AcDbEntity
  8
HATCH
100
AcDbLine
 10
40.877502
 20
41.742034
 30
0.0
 11
40.877502
 21
41.742034
 31
0.0
  0
LINE
  5
2A9
100
AcDbEntity
  8
HATCH
100
AcDbLine
 10
41.346202
 20
41.742034
 30
0.0
 11
41.346202
 21
41.742034
 31
0.0
  0
LINE
  5
2AA
100
AcDbEntity
  8
HATCH
100
AcDbLine
 10
41.815002
 20
41.742034
 30
0.0
 11
41.815002
 21
41.742034
 31
0.0
  0
LINE
  5
2AB
100
AcDbEntity
  8
HATCH
100
AcDbLine
 10
40.174302
 20
41.273284
 30
0.0
 11
40.174302
 21
41.273284
 31
0.0
  0
LINE
  5
2AC
100
AcDbEntity
  8
HATCH
100
AcDbLine
 10
40.643102
 20
41.273284
 30
0.0
 11
40.643102
 21
41.273284
 31
0.0
  0
LINE
  5
2AD
100
AcDbEntity
  8
HATCH
100
AcDbLine
 10
41.111802
 20
41.273284
 30
0.0
 11
41.111802
 21
41.273284
 31
0.0
  0
LINE
  5
2AE
100
AcDbEntity
  8
HATCH
100
AcDbLine
 10
41.580602
 20
41.273284
 30
0.0
 11
41.580602
 21
41.273284
 31
0.0
  0
LINE
  5
2AF
100
AcDbEntity
  8
HATCH
100
AcDbLine
 10
40.408702
 20
40.804534
 30
0.0
 11
40.408702
 21
40.804534
 31
0.0
  0
LINE
  5
2B0
100
AcDbEntity
  8
HATCH
100
AcDbLine
 10
40.877502
 20
40.804534
 30
0.0
 11
40.877502
 21
40.804534
 31
0.0
  0
LINE
  5
2B1
100
AcDbEntity
  8
HATCH
100
AcDbLine
 10
41.346202
 20
40.804534
 30
0.0
 11
41.346202
 21
40.804534
 31
0.0
  0
LINE
  5
2B2
100
AcDbEntity
  8
HATCH
100
AcDbLine
 10
41.815002
 20
40.804534
 30
0.0
 11
41.815002
 21
40.804534
 31
0.0
  0
LINE
  5
2B3
100
AcDbEntity
  8
HATCH
100
AcDbLine
 10
40.174302
 20
40.335784
 30
0.0
 11
40.174302
 21
40.335784
 31
0.0
  0
LINE
  5
2B4
100
AcDbEntity
  8
HATCH
100
AcDbLine
 10
40.643102
 20
40.335784
 30
0.0
 11
40.643102
 21
40.335784
 31
0.0
  0
LINE
  5
2B5
100
AcDbEntity
  8
HATCH
100
AcDbLine
 10
41.111802
 20
40.335784
 30
0.0
 11
41.111802
 21
40.335784
 31
0.0
  0
LINE
  5
2B6
100
AcDbEntity
  8
HATCH
100
AcDbLine
 10
41.580602
 20
40.335784
 30
0.0
 11
41.580602
 21
40.335784
 31
0.0
  0
LINE
  5
2B7
100
AcDbEntity
  8
DRAWING
100
AcDbLine
 10
45.493202
 20
35.304534
 30
0.0
 11
45.493202
 21
40.804534
 31
0.0
  0
LINE
  5
2B8
100
AcDbEntity
  8
DRAWING
100
AcDbLine
 10
45.493202
 20
38.663544
 30
0.0
 11
46.008802
 21
38.663544
 31
0.0
  0
LINE
  5
2B9
100
AcDbEntity
  8
DRAWING
100
AcDbLine
 10
45.493202
 20
38.419644
 30
0.0
 11
45.869702
 21
38.419644
 31
0.0
  0
LINE
  5
2BA
100
AcDbEntity
  8
DRAWING
100
AcDbLine
 10
45.493202
 20
37.700044
 30
0.0
 11
45.869702
 21
37.700044
 31
0.0
  0
LINE
  5
2BB
100
AcDbEntity
  8
DRAWING
100
AcDbLine
 10
46.008802
 20
37.445524
 30
0.0
 11
45.493202
 21
37.445524
 31
0.0
  0
LINE
  5
2BC
100
AcDbEntity
  8
DRAWING
100
AcDbLine
 10
45.493202
 20
35.245454
 30
0.0
 11
47.493202
 21
35.245454
 31
0.0
  0
LINE
  5
2BD
100
AcDbEntity
  8
DRAWING
100
AcDbLine
 10
45.493202
 20
39.995454
 30
0.0
 11
46.493202
 21
39.995454
 31
0.0
  0
LINE
  5
2BE
100
AcDbEntity
  8
DIM_TEXT
100
AcDbLine
 10
43.805402
 20
35.206084
 30
0.0
 11
44.731202
 21
34.464994
 31
0.0
  0
LINE
  5
2BF
100
AcDbEntity
  8
DIM_TEXT
100
AcDbLine
 10
43.805402
 20
35.206084
 30
0.0
 11
44.101302
 21
34.057764
 31
0.0
  0
LINE
  5
2C0
100
AcDbEntity
  8
DIM_TEXT
100
AcDbLine
 10
44.731202
 20
34.464994
 30
0.0
 11
44.101302
 21
34.057764
 31
0.0
  0
LINE
  5
2C1
100
AcDbEntity
  8
DRAWING
100
AcDbLine
 10
45.493202
 20
35.245454
 30
0.0
 11
45.493202
 21
39.995454
 31
0.0
  0
LINE
  5
2C2
100
AcDbEntity
  8
DRAWING
100
AcDbLine
 10
45.586902
 20
35.245454
 30
0.0
 11
45.586902
 21
39.995454
 31
0.0
  0
LINE
  5
2C3
100
AcDbEntity
  8
DRAWING
100
AcDbLine
 10
46.817702
 20
35.324244
 30
0.0
 11
47.893102
 21
34.824434
 31
0.0
  0
LINE
  5
2C4
100
AcDbEntity
  8
DIM_TEXT
100
AcDbLine
 10
46.817702
 20
35.324244
 30
0.0
 11
47.378002
 21
34.279144
 31
0.0
  0
LINE
  5
2C5
100
AcDbEntity
  8
DIM_TEXT
100
AcDbLine
 10
47.893102
 20
34.824434
 30
0.0
 11
47.378002
 21
34.279144
 31
0.0
  0
LINE
  5
2C6
100
AcDbEntity
  8
DRAWING
100
AcDbLine
 10
45.869702
 20
38.419644
 30
0.0
 11
46.008802
 21
38.525844
 31
0.0
  0
LINE
  5
2C7
100
AcDbEntity
  8
DRAWING
100
AcDbLine
 10
45.869702
 20
38.419644
 30
0.0
 11
46.008802
 21
38.314174
 31
0.0
  0
LINE
  5
2C8
100
AcDbEntity
  8
DRAWING
100
AcDbLine
 10
45.869702
 20
37.700044
 30
0.0
 11
46.008802
 21
37.805874
 31
0.0
  0
LINE
  5
2C9
100
AcDbEntity
  8
DRAWING
100
AcDbLine
 10
45.869702
 20
37.700044
 30
0.0
 11
46.008802
 21
37.594204
 31
0.0
  0
LINE
  5
2CA
100
AcDbEntity
  8
DRAWING
100
AcDbLine
 10
46.008802
 20
37.679534
 30
0.0
 11
46.527602
 21
37.679534
 31
0.0
  0
LINE
  5
2CB
100
AcDbEntity
  8
DRAWING
100
AcDbLine
 10
46.527602
 20
37.679534
 30
0.0
 11
46.527602
 21
38.429534
 31
0.0
  0
LINE
  5
2CC
100
AcDbEntity
  8
DRAWING
100
AcDbLine
 10
46.527602
 20
38.429534
 30
0.0
 11
46.008802
 21
38.429534
 31
0.0
  0
LINE
  5
2CD
100
AcDbEntity
  8
DRAWING
100
AcDbLine
 10
46.008802
 20
38.663544
 30
0.0
 11
46.008802
 21
37.445524
 31
0.0
  0
LINE
  5
2CE
100
AcDbEntity
  8
DRAWING
100
AcDbLine
 10
46.493202
 20
39.995454
 30
0.0
 11
46.493202
 21
39.028164
 31
0.0
  0
LINE
  5
2CF
100
AcDbEntity
  8
DRAWING
100
AcDbLine
 10
46.493202
 20
38.449554
 30
0.0
 11
46.493202
 21
37.981294
 31
0.0
  0
LINE
  5
2D0
100
AcDbEntity
  8
DRAWING
100
AcDbLine
 10
46.493202
 20
37.402674
 30
0.0
 11
46.493202
 21
36.934414
 31
0.0
  0
LINE
  5
2D1
100
AcDbEntity
  8
DRAWING
100
AcDbLine
 10
46.539102
 20
36.274744
 30
0.0
 11
47.493202
 21
35.245454
 31
0.0
  0
LINE
  5
2D2
100
AcDbEntity
  8
DRAWING
100
AcDbLine
 10
46.642102
 20
36.556974
 30
0.0
 11
46.537902
 21
36.452484
 31
0.0
  0
LINE
  5
2D3
100
AcDbEntity
  8
DRAWING
100
AcDbLine
 10
46.529802
 20
36.846034
 30
0.0
 11
46.642102
 21
36.733734
 31
0.0
  0
ARC
  5
2D4
100
AcDbEntity
  8
DRAWING
100
AcDbCircle
 10
46.553702
 20
36.645354
 30
0.0
 40
0.125
100
AcDbArc
 50
315.0
 51
45.0
  0
LINE
  5
2D5
100
AcDbEntity
  8
DRAWING
100
AcDbLine
 10
46.642102
 20
37.603854
 30
0.0
 11
46.529602
 21
37.491054
 31
0.0
  0
LINE
  5
2D6
100
AcDbEntity
  8
DRAWING
100
AcDbLine
 10
46.529802
 20
37.892914
 30
0.0
 11
46.642102
 21
37.780604
 31
0.0
  0
ARC
  5
2D7
100
AcDbEntity
  8
DRAWING
100
AcDbCircle
 10
46.553702
 20
37.692224
 30
0.0
 40
0.125
100
AcDbArc
 50
315.0
 51
45.0
  0
LINE
  5
2D8
100
AcDbEntity
  8
DRAWING
100
AcDbLine
 10
46.642102
 20
38.650724
 30
0.0
 11
46.529602
 21
38.537934
 31
0.0
  0
LINE
  5
2D9
100
AcDbEntity
  8
DRAWING
100
AcDbLine
 10
46.529802
 20
38.939784
 30
0.0
 11
46.642102
 21
38.827484
 31
0.0
  0
ARC
  5
2DA
100
AcDbEntity
  8
DRAWING
100
AcDbCircle
 10
46.553702
 20
38.739104
 30
0.0
 40
0.125
100
AcDbArc
 50
315.0
 51
45.0
  0
CIRCLE
  5
2DB
100
AcDbEntity
  8
DRAWING
100
AcDbCircle
 10
46.559602
 20
36.652184
 30
0.0
 40
0.039063
  0
CIRCLE
  5
2DC
100
AcDbEntity
  8
DRAWING
100
AcDbCircle
 10
46.559602
 20
37.699064
 30
0.0
 40
0.039063
  0
CIRCLE
  5
2DD
100
AcDbEntity
  8
DRAWING
100
AcDbCircle
 10
46.559602
 20
38.745934
 30
0.0
 40
0.039063
  0
ARC
  5
2DE
100
AcDbEntity
  8
DRAWING
100
AcDbCircle
 10
46.626502
 20
36.364104
 30
0.0
 40
0.125
100
AcDbArc
 50
135.079
 51
225.6331
  0
ARC
  5
2DF
100
AcDbEntity
  8
DRAWING
100
AcDbCircle
 10
46.618202
 20
36.934414
 30
0.0
 40
0.125
100
AcDbArc
 50
180.0
 51
225.0
  0
ARC
  5
2E0
100
AcDbEntity
  8
DRAWING
100
AcDbCircle
 10
46.618202
 20
37.402674
 30
0.0
 40
0.125
100
AcDbArc
 50
135.079
 51
180.0
  0
ARC
  5
2E1
100
AcDbEntity
  8
DRAWING
100
AcDbCircle
 10
46.618202
 20
37.981294
 30
0.0
 40
0.125
100
AcDbArc
 50
180.0
 51
225.0
  0
ARC
  5
2E2
100
AcDbEntity
  8
DRAWING
100
AcDbCircle
 10
46.618202
 20
39.028164
 30
0.0
 40
0.125
100
AcDbArc
 50
180.0
 51
225.0
  0
ARC
  5
2E3
100
AcDbEntity
  8
DRAWING
100
AcDbCircle
 10
46.618202
 20
38.449554
 30
0.0
 40
0.125
100
AcDbArc
 50
135.079
 51
180.0
  0
LINE
  5
2E4
100
AcDbEntity
  8
DIM_TEXT
100
AcDbLine
 10
54.554702
 20
31.898584
 30
0.0
 11
53.299802
 21
34.324984
 31
0.0
  0
LINE
  5
2E5
100
AcDbEntity
  8
HATCH
100
AcDbLine
 10
58.039602
 20
32.459684
 30
0.0
 11
58.039602
 21
46.862263
 31
0.0
  0
LINE
  5
2E6
100
AcDbEntity
  8
DIM_TEXT
100
AcDbLine
 10
55.795202
 20
31.839564
 30
0.0
 11
54.554702
 21
31.898584
 31
0.0
  0
LINE
  5
2E7
100
AcDbEntity
  8
DIM_TEXT
100
AcDbLine
 10
51.365502
 20
26.405794
 30
0.0
 11
49.534402
 21
26.346704
 31
0.0
  0
LINE
  5
2E8
100
AcDbEntity
  8
DIM_TEXT
100
AcDbLine
 10
54.554702
 20
29.477014
 30
0.0
 11
53.196302
 21
29.299834
 31
0.0
  0
LINE
  5
2E9
100
AcDbEntity
  8
HATCH
100
AcDbLine
 10
53.787102
 20
48.341563
 30
0.0
 11
58.039602
 21
46.862263
 31
0.0
  0
LINE
  5
2EA
100
AcDbEntity
  8
DIM_TEXT
100
AcDbLine
 10
52.783002
 20
35.324244
 30
0.0
 11
53.632802
 21
34.497224
 31
0.0
  0
LINE
  5
2EB
100
AcDbEntity
  8
DIM_TEXT
100
AcDbLine
 10
52.783002
 20
35.324244
 30
0.0
 11
52.966802
 21
34.152734
 31
0.0
  0
LINE
  5
2EC
100
AcDbEntity
  8
DIM_TEXT
100
AcDbLine
 10
53.632802
 20
34.497224
 30
0.0
 11
52.966802
 21
34.152734
 31
0.0
  0
TEXT
  5
2ED
100
AcDbEntity
  8
DIM_TEXT
100
AcDbText
 10
46.345002
 20
60.321304
 30
0.0
 40
1.125
  1
"U" HANGER
 51
15.0
  7
INFO
100
AcDbText
  0
LINE
  5
2EE
100
AcDbEntity
  8
DIM_TEXT
100
AcDbLine
 10
49.357402
 20
80.461704
 30
0.0
 11
45.578902
 21
72.327404
 31
0.0
  0
LINE
  5
2EF
100
AcDbEntity
  8
DRAWING
100
AcDbLine
 10
58.039602
 20
67.101804
 30
0.0
 11
41.993202
 21
72.450604
 31
0.0
  0
LINE
  5
2F0
100
AcDbEntity
  8
DRAWING
100
AcDbLine
 10
58.039602
 20
61.304304
 30
0.0
 11
47.492902
 21
64.819904
 31
0.0
  0
LINE
  5
2F1
100
AcDbEntity
  8
DRAWING
100
AcDbLine
 10
58.039602
 20
67.892304
 30
0.0
 11
41.993202
 21
73.241205
 31
0.0
  0
LINE
  5
2F2
100
AcDbEntity
  8
DRAWING
100
AcDbLine
 10
45.488802
 20
71.519604
 30
0.0
 11
53.344002
 21
65.554304
 31
0.0
  0
LINE
  5
2F3
100
AcDbEntity
  8
DRAWING
100
AcDbLine
 10
47.134102
 20
67.759004
 30
0.0
 11
52.134502
 21
63.961504
 31
0.0
  0
LINE
  5
2F4
100
AcDbEntity
  8
HATCH
100
AcDbLine
 10
58.158202
 20
67.457604
 30
0.0
 11
41.993202
 21
72.845938
 31
0.0
  0
LINE
  5
2F5
100
AcDbEntity
  8
DRAWING
100
AcDbLine
 10
41.993202
 20
52.659004
 30
0.0
 11
41.993202
 21
67.284004
 31
0.0
  0
LINE
  5
2F6
100
AcDbEntity
  8
DRAWING
100
AcDbLine
 10
45.493202
 20
71.284004
 30
0.0
 11
45.493202
 21
64.034004
 31
0.0
  0
LINE
  5
2F7
100
AcDbEntity
  8
HATCH
100
AcDbLine
 10
41.993202
 20
64.034004
 30
0.0
 11
45.493202
 21
71.284004
 31
0.0
  0
LINE
  5
2F8
100
AcDbEntity
  8
HATCH
100
AcDbLine
 10
41.993202
 20
71.284004
 30
0.0
 11
45.493202
 21
64.034004
 31
0.0
  0
LINE
  5
2F9
100
AcDbEntity
  8
DRAWING
100
AcDbLine
 10
46.008802
 20
68.268004
 30
0.0
 11
46.008802
 21
67.050004
 31
0.0
  0
ARC
  5
2FA
100
AcDbEntity
  8
DRAWING
100
AcDbCircle
 10
38.113102
 20
66.909004
 30
0.0
 40
0.374991
100
AcDbArc
 50
90.00001
 51
180.0
  0
LINE
  5
2FB
100
AcDbEntity
  8
DRAWING
100
AcDbLine
 10
36.988102
 20
67.284004
 30
0.0
 11
36.988102
 21
66.015804
 31
0.0
  0
LINE
  5
2FC
100
AcDbEntity
  8
DRAWING
100
AcDbLine
 10
45.493202
 20
65.427404
 30
0.0
 11
45.493202
 21
70.177404
 31
0.0
  0
ARC
  5
2FD
100
AcDbEntity
  8
DRAWING
100
AcDbCircle
 10
46.618202
 20
67.116404
 30
0.0
 40
0.125
100
AcDbArc
 50
180.0
 51
225.0
  0
LINE
  5
2FE
100
AcDbEntity
  8
DRAWING
100
AcDbLine
 10
45.586902
 20
65.427404
 30
0.0
 11
45.586902
 21
70.177404
 31
0.0
  0
LINE
  5
2FF
100
AcDbEntity
  8
DRAWING
100
AcDbLine
 10
45.493202
 20
64.034004
 30
0.0
 11
41.993202
 21
64.034004
 31
0.0
  0
LINE
  5
300
100
AcDbEntity
  8
DRAWING
100
AcDbLine
 10
40.118202
 20
52.659004
 30
0.0
 11
40.118202
 21
64.662189
 31
0.0
  0
LINE
  5
301
100
AcDbEntity
  8
HATCH
100
AcDbLine
 10
37.606002
 20
52.975904
 30
0.0
 11
37.664802
 21
52.997304
 31
0.0
  0
LINE
  5
302
100
AcDbEntity
  8
HATCH
100
AcDbLine
 10
38.032002
 20
53.194704
 30
0.0
 11
38.042702
 21
53.256304
 31
0.0
  0
LINE
  5
303
100
AcDbEntity
  8
HATCH
100
AcDbLine
 10
37.320102
 20
53.610604
 30
0.0
 11
37.356002
 21
53.661804
 31
0.0
  0
LINE
  5
304
100
AcDbEntity
  8
HATCH
100
AcDbLine
 10
39.100402
 20
47.854304
 30
0.0
 11
39.159202
 21
47.875604
 31
0.0
  0
LINE
  5
305
100
AcDbEntity
  8
HATCH
100
AcDbLine
 10
36.706302
 20
48.766404
 30
0.0
 11
36.742202
 21
48.817604
 31
0.0
  0
LINE
  5
306
100
AcDbEntity
  8
HATCH
100
AcDbLine
 10
38.754202
 20
47.332504
 30
0.0
 11
38.790102
 21
47.383804
 31
0.0
  0
LINE
  5
307
100
AcDbEntity
  8
HATCH
100
AcDbLine
 10
38.466102
 20
47.330804
 30
0.0
 11
38.476802
 21
47.392404
 31
0.0
  0
LINE
  5
308
100
AcDbEntity
  8
HATCH
100
AcDbLine
 10
38.900202
 20
49.792904
 30
0.0
 11
38.910902
 21
49.854504
 31
0.0
  0
LINE
  5
309
100
AcDbEntity
  8
HATCH
100
AcDbLine
 10
37.512502
 20
50.538404
 30
0.0
 11
37.439002
 21
50.511704
 31
0.0
  0
LINE
  5
30A
100
AcDbEntity
  8
HATCH
100
AcDbLine
 10
37.243702
 20
51.371204
 30
0.0
 11
37.198802
 21
51.307204
 31
0.0
  0
LINE
  5
30B
100
AcDbEntity
  8
DRAWING
100
AcDbLine
 10
41.993202
 20
52.659004
 30
0.0
 11
40.118202
 21
52.659004
 31
0.0
  0
LINE
  5
30C
100
AcDbEntity
  8
DRAWING
100
AcDbLine
 10
40.118202
 20
52.659004
 30
0.0
 11
41.993202
 21
52.659004
 31
0.0
  0
LINE
  5
30D
100
AcDbEntity
  8
HATCH
100
AcDbLine
 10
40.174302
 20
53.460804
 30
0.0
 11
40.174302
 21
53.460804
 31
0.0
  0
LINE
  5
30E
100
AcDbEntity
  8
HATCH
100
AcDbLine
 10
40.643102
 20
53.460804
 30
0.0
 11
40.643102
 21
53.460804
 31
0.0
  0
LINE
  5
30F
100
AcDbEntity
  8
HATCH
100
AcDbLine
 10
41.111802
 20
53.460804
 30
0.0
 11
41.111802
 21
53.460804
 31
0.0
  0
LINE
  5
310
100
AcDbEntity
  8
HATCH
100
AcDbLine
 10
41.580602
 20
53.460804
 30
0.0
 11
41.580602
 21
53.460804
 31
0.0
  0
LINE
  5
311
100
AcDbEntity
  8
HATCH
100
AcDbLine
 10
40.408702
 20
52.992004
 30
0.0
 11
40.408702
 21
52.992004
 31
0.0
  0
LINE
  5
312
100
AcDbEntity
  8
HATCH
100
AcDbLine
 10
40.877502
 20
52.992004
 30
0.0
 11
40.877502
 21
52.992004
 31
0.0
  0
LINE
  5
313
100
AcDbEntity
  8
HATCH
100
AcDbLine
 10
41.346202
 20
52.992004
 30
0.0
 11
41.346202
 21
52.992004
 31
0.0
  0
LINE
  5
314
100
AcDbEntity
  8
HATCH
100
AcDbLine
 10
41.815002
 20
52.992004
 30
0.0
 11
41.815002
 21
52.992004
 31
0.0
  0
LINE
  5
315
100
AcDbEntity
  8
DRAWING
100
AcDbLine
 10
41.993202
 20
52.659004
 30
0.0
 11
40.118202
 21
52.659004
 31
0.0
  0
LINE
  5
316
100
AcDbEntity
  8
HATCH
100
AcDbLine
 10
40.174302
 20
52.523304
 30
0.0
 11
40.174302
 21
52.523304
 31
0.0
  0
LINE
  5
317
100
AcDbEntity
  8
HATCH
100
AcDbLine
 10
40.643102
 20
52.523304
 30
0.0
 11
40.643102
 21
52.523304
 31
0.0
  0
LINE
  5
318
100
AcDbEntity
  8
HATCH
100
AcDbLine
 10
41.111802
 20
52.523304
 30
0.0
 11
41.111802
 21
52.523304
 31
0.0
  0
LINE
  5
319
100
AcDbEntity
  8
HATCH
100
AcDbLine
 10
41.580602
 20
52.523304
 30
0.0
 11
41.580602
 21
52.523304
 31
0.0
  0
LINE
  5
31A
100
AcDbEntity
  8
HATCH
100
AcDbLine
 10
40.408702
 20
52.054504
 30
0.0
 11
40.408702
 21
52.054504
 31
0.0
  0
LINE
  5
31B
100
AcDbEntity
  8
HATCH
100
AcDbLine
 10
40.877502
 20
52.054504
 30
0.0
 11
40.877502
 21
52.054504
 31
0.0
  0
LINE
  5
31C
100
AcDbEntity
  8
HATCH
100
AcDbLine
 10
41.346202
 20
52.054504
 30
0.0
 11
41.346202
 21
52.054504
 31
0.0
  0
LINE
  5
31D
100
AcDbEntity
  8
HATCH
100
AcDbLine
 10
41.815002
 20
52.054504
 30
0.0
 11
41.815002
 21
52.054504
 31
0.0
  0
LINE
  5
31E
100
AcDbEntity
  8
HATCH
100
AcDbLine
 10
40.174302
 20
51.585804
 30
0.0
 11
40.174302
 21
51.585804
 31
0.0
  0
LINE
  5
31F
100
AcDbEntity
  8
HATCH
100
AcDbLine
 10
40.643102
 20
51.585804
 30
0.0
 11
40.643102
 21
51.585804
 31
0.0
  0
LINE
  5
320
100
AcDbEntity
  8
HATCH
100
AcDbLine
 10
41.111802
 20
51.585804
 30
0.0
 11
41.111802
 21
51.585804
 31
0.0
  0
LINE
  5
321
100
AcDbEntity
  8
HATCH
100
AcDbLine
 10
41.580602
 20
51.585804
 30
0.0
 11
41.580602
 21
51.585804
 31
0.0
  0
LINE
  5
322
100
AcDbEntity
  8
HATCH
100
AcDbLine
 10
40.408702
 20
51.117004
 30
0.0
 11
40.408702
 21
51.117004
 31
0.0
  0
LINE
  5
323
100
AcDbEntity
  8
HATCH
100
AcDbLine
 10
40.877502
 20
51.117004
 30
0.0
 11
40.877502
 21
51.117004
 31
0.0
  0
LINE
  5
324
100
AcDbEntity
  8
HATCH
100
AcDbLine
 10
41.346202
 20
51.117004
 30
0.0
 11
41.346202
 21
51.117004
 31
0.0
  0
LINE
  5
325
100
AcDbEntity
  8
HATCH
100
AcDbLine
 10
41.815002
 20
51.117004
 30
0.0
 11
41.815002
 21
51.117004
 31
0.0
  0
LINE
  5
326
100
AcDbEntity
  8
HATCH
100
AcDbLine
 10
40.174302
 20
50.648304
 30
0.0
 11
40.174302
 21
50.648304
 31
0.0
  0
LINE
  5
327
100
AcDbEntity
  8
HATCH
100
AcDbLine
 10
40.643102
 20
50.648304
 30
0.0
 11
40.643102
 21
50.648304
 31
0.0
  0
LINE
  5
328
100
AcDbEntity
  8
HATCH
100
AcDbLine
 10
41.111802
 20
50.648304
 30
0.0
 11
41.111802
 21
50.648304
 31
0.0
  0
LINE
  5
329
100
AcDbEntity
  8
HATCH
100
AcDbLine
 10
41.580602
 20
50.648304
 30
0.0
 11
41.580602
 21
50.648304
 31
0.0
  0
LINE
  5
32A
100
AcDbEntity
  8
HATCH
100
AcDbLine
 10
40.408702
 20
50.179504
 30
0.0
 11
40.408702
 21
50.179504
 31
0.0
  0
LINE
  5
32B
100
AcDbEntity
  8
HATCH
100
AcDbLine
 10
40.877502
 20
50.179504
 30
0.0
 11
40.877502
 21
50.179504
 31
0.0
  0
LINE
  5
32C
100
AcDbEntity
  8
HATCH
100
AcDbLine
 10
41.346202
 20
50.179504
 30
0.0
 11
41.346202
 21
50.179504
 31
0.0
  0
LINE
  5
32D
100
AcDbEntity
  8
HATCH
100
AcDbLine
 10
41.815002
 20
50.179504
 30
0.0
 11
41.815002
 21
50.179504
 31
0.0
  0
LINE
  5
32E
100
AcDbEntity
  8
HATCH
100
AcDbLine
 10
40.174302
 20
49.710804
 30
0.0
 11
40.174302
 21
49.710804
 31
0.0
  0
LINE
  5
32F
100
AcDbEntity
  8
HATCH
100
AcDbLine
 10
40.643102
 20
49.710804
 30
0.0
 11
40.643102
 21
49.710804
 31
0.0
  0
LINE
  5
330
100
AcDbEntity
  8
HATCH
100
AcDbLine
 10
41.111802
 20
49.710804
 30
0.0
 11
41.111802
 21
49.710804
 31
0.0
  0
LINE
  5
331
100
AcDbEntity
  8
HATCH
100
AcDbLine
 10
41.580602
 20
49.710804
 30
0.0
 11
41.580602
 21
49.710804
 31
0.0
  0
LINE
  5
332
100
AcDbEntity
  8
HATCH
100
AcDbLine
 10
40.408702
 20
49.242004
 30
0.0
 11
40.408702
 21
49.242004
 31
0.0
  0
LINE
  5
333
100
AcDbEntity
  8
HATCH
100
AcDbLine
 10
40.877502
 20
49.242004
 30
0.0
 11
40.877502
 21
49.242004
 31
0.0
  0
LINE
  5
334
100
AcDbEntity
  8
HATCH
100
AcDbLine
 10
41.346202
 20
49.242004
 30
0.0
 11
41.346202
 21
49.242004
 31
0.0
  0
LINE
  5
335
100
AcDbEntity
  8
HATCH
100
AcDbLine
 10
41.815002
 20
49.242004
 30
0.0
 11
41.815002
 21
49.242004
 31
0.0
  0
LINE
  5
336
100
AcDbEntity
  8
HATCH
100
AcDbLine
 10
40.174302
 20
48.773304
 30
0.0
 11
40.174302
 21
48.773304
 31
0.0
  0
LINE
  5
337
100
AcDbEntity
  8
HATCH
100
AcDbLine
 10
40.643102
 20
48.773304
 30
0.0
 11
40.643102
 21
48.773304
 31
0.0
  0
LINE
  5
338
100
AcDbEntity
  8
HATCH
100
AcDbLine
 10
41.111802
 20
48.773304
 30
0.0
 11
41.111802
 21
48.773304
 31
0.0
  0
LINE
  5
339
100
AcDbEntity
  8
HATCH
100
AcDbLine
 10
41.580602
 20
48.773304
 30
0.0
 11
41.580602
 21
48.773304
 31
0.0
  0
LINE
  5
33A
100
AcDbEntity
  8
HATCH
100
AcDbLine
 10
40.408702
 20
48.304504
 30
0.0
 11
40.408702
 21
48.304504
 31
0.0
  0
LINE
  5
33B
100
AcDbEntity
  8
HATCH
100
AcDbLine
 10
40.877502
 20
48.304504
 30
0.0
 11
40.877502
 21
48.304504
 31
0.0
  0
LINE
  5
33C
100
AcDbEntity
  8
HATCH
100
AcDbLine
 10
41.346202
 20
48.304504
 30
0.0
 11
41.346202
 21
48.304504
 31
0.0
  0
LINE
  5
33D
100
AcDbEntity
  8
HATCH
100
AcDbLine
 10
41.815002
 20
48.304504
 30
0.0
 11
41.815002
 21
48.304504
 31
0.0
  0
LINE
  5
33E
100
AcDbEntity
  8
HATCH
100
AcDbLine
 10
40.174302
 20
47.835804
 30
0.0
 11
40.174302
 21
47.835804
 31
0.0
  0
LINE
  5
33F
100
AcDbEntity
  8
HATCH
100
AcDbLine
 10
40.643102
 20
47.835804
 30
0.0
 11
40.643102
 21
47.835804
 31
0.0
  0
LINE
  5
340
100
AcDbEntity
  8
HATCH
100
AcDbLine
 10
41.111802
 20
47.835804
 30
0.0
 11
41.111802
 21
47.835804
 31
0.0
  0
LINE
  5
341
100
AcDbEntity
  8
HATCH
100
AcDbLine
 10
41.580602
 20
47.835804
 30
0.0
 11
41.580602
 21
47.835804
 31
0.0
  0
LINE
  5
342
100
AcDbEntity
  8
HATCH
100
AcDbLine
 10
40.408702
 20
47.367004
 30
0.0
 11
40.408702
 21
47.367004
 31
0.0
  0
LINE
  5
343
100
AcDbEntity
  8
HATCH
100
AcDbLine
 10
40.877502
 20
47.367004
 30
0.0
 11
40.877502
 21
47.367004
 31
0.0
  0
LINE
  5
344
100
AcDbEntity
  8
HATCH
100
AcDbLine
 10
41.346202
 20
47.367004
 30
0.0
 11
41.346202
 21
47.367004
 31
0.0
  0
LINE
  5
345
100
AcDbEntity
  8
HATCH
100
AcDbLine
 10
41.815002
 20
47.367004
 30
0.0
 11
41.815002
 21
47.367004
 31
0.0
  0
LINE
  5
346
100
AcDbEntity
  8
DRAWING
100
AcDbLine
 10
40.118202
 20
52.659004
 30
0.0
 11
41.993202
 21
52.659004
 31
0.0
  0
LINE
  5
347
100
AcDbEntity
  8
HATCH
100
AcDbLine
 10
38.461002
 20
57.300704
 30
0.0
 11
38.519802
 21
57.322104
 31
0.0
  0
LINE
  5
348
100
AcDbEntity
  8
HATCH
100
AcDbLine
 10
39.315702
 20
54.951504
 30
0.0
 11
39.374502
 21
54.972904
 31
0.0
  0
LINE
  5
349
100
AcDbEntity
  8
HATCH
100
AcDbLine
 10
37.933902
 20
56.802804
 30
0.0
 11
37.969802
 21
56.854004
 31
0.0
  0
LINE
  5
34A
100
AcDbEntity
  8
HATCH
100
AcDbLine
 10
39.367902
 20
58.850704
 30
0.0
 11
39.403802
 21
58.901904
 31
0.0
  0
LINE
  5
34B
100
AcDbEntity
  8
HATCH
100
AcDbLine
 10
37.597902
 20
57.406804
 30
0.0
 11
37.608702
 21
57.468304
 31
0.0
  0
LINE
  5
34C
100
AcDbEntity
  8
HATCH
100
AcDbLine
 10
38.032002
 20
59.868804
 30
0.0
 11
38.042702
 21
59.930404
 31
0.0
  0
LINE
  5
34D
100
AcDbEntity
  8
HATCH
100
AcDbLine
 10
36.986102
 20
55.106704
 30
0.0
 11
36.941202
 21
55.042704
 31
0.0
  0
LINE
  5
34E
100
AcDbEntity
  8
HATCH
100
AcDbLine
 10
37.545202
 20
55.607804
 30
0.0
 11
37.534202
 21
55.546304
 31
0.0
  0
LINE
  5
34F
100
AcDbEntity
  8
DRAWING
100
AcDbLine
 10
37.738102
 20
66.909004
 30
0.0
 11
37.738102
 21
66.015804
 31
0.0
  0
LINE
  5
350
100
AcDbEntity
  8
DRAWING
100
AcDbLine
 10
37.738102
 20
66.015804
 30
0.0
 11
36.988102
 21
66.015804
 31
0.0
  0
LINE
  5
351
100
AcDbEntity
  8
HATCH
100
AcDbLine
 10
39.981502
 20
55.369004
 30
0.0
 11
40.017402
 21
55.420304
 31
0.0
  0
LINE
  5
352
100
AcDbEntity
  8
HATCH
100
AcDbLine
 10
39.625802
 20
54.510604
 30
0.0
 11
39.636502
 21
54.572204
 31
0.0
  0
LINE
  5
353
100
AcDbEntity
  8
HATCH
100
AcDbLine
 10
40.059802
 20
56.972604
 30
0.0
 11
40.070602
 21
57.034204
 31
0.0
  0
LINE
  5
354
100
AcDbEntity
  8
HATCH
100
AcDbLine
 10
40.174302
 20
58.148304
 30
0.0
 11
40.174302
 21
58.148304
 31
0.0
  0
LINE
  5
355
100
AcDbEntity
  8
HATCH
100
AcDbLine
 10
40.643102
 20
58.148304
 30
0.0
 11
40.643102
 21
58.148304
 31
0.0
  0
LINE
  5
356
100
AcDbEntity
  8
HATCH
100
AcDbLine
 10
41.111802
 20
58.148304
 30
0.0
 11
41.111802
 21
58.148304
 31
0.0
  0
LINE
  5
357
100
AcDbEntity
  8
HATCH
100
AcDbLine
 10
41.580602
 20
58.148304
 30
0.0
 11
41.580602
 21
58.148304
 31
0.0
  0
LINE
  5
358
100
AcDbEntity
  8
HATCH
100
AcDbLine
 10
40.408702
 20
57.679504
 30
0.0
 11
40.408702
 21
57.679504
 31
0.0
  0
LINE
  5
359
100
AcDbEntity
  8
HATCH
100
AcDbLine
 10
40.877502
 20
57.679504
 30
0.0
 11
40.877502
 21
57.679504
 31
0.0
  0
LINE
  5
35A
100
AcDbEntity
  8
HATCH
100
AcDbLine
 10
41.346202
 20
57.679504
 30
0.0
 11
41.346202
 21
57.679504
 31
0.0
  0
LINE
  5
35B
100
AcDbEntity
  8
HATCH
100
AcDbLine
 10
41.815002
 20
57.679504
 30
0.0
 11
41.815002
 21
57.679504
 31
0.0
  0
LINE
  5
35C
100
AcDbEntity
  8
HATCH
100
AcDbLine
 10
40.174302
 20
57.210804
 30
0.0
 11
40.174302
 21
57.210804
 31
0.0
  0
LINE
  5
35D
100
AcDbEntity
  8
HATCH
100
AcDbLine
 10
40.643102
 20
57.210804
 30
0.0
 11
40.643102
 21
57.210804
 31
0.0
  0
LINE
  5
35E
100
AcDbEntity
  8
HATCH
100
AcDbLine
 10
41.111802
 20
57.210804
 30
0.0
 11
41.111802
 21
57.210804
 31
0.0
  0
LINE
  5
35F
100
AcDbEntity
  8
HATCH
100
AcDbLine
 10
41.580602
 20
57.210804
 30
0.0
 11
41.580602
 21
57.210804
 31
0.0
  0
LINE
  5
360
100
AcDbEntity
  8
HATCH
100
AcDbLine
 10
40.408702
 20
56.742004
 30
0.0
 11
40.408702
 21
56.742004
 31
0.0
  0
LINE
  5
361
100
AcDbEntity
  8
HATCH
100
AcDbLine
 10
40.877502
 20
56.742004
 30
0.0
 11
40.877502
 21
56.742004
 31
0.0
  0
LINE
  5
362
100
AcDbEntity
  8
HATCH
100
AcDbLine
 10
41.346202
 20
56.742004
 30
0.0
 11
41.346202
 21
56.742004
 31
0.0
  0
LINE
  5
363
100
AcDbEntity
  8
HATCH
100
AcDbLine
 10
41.815002
 20
56.742004
 30
0.0
 11
41.815002
 21
56.742004
 31
0.0
  0
LINE
  5
364
100
AcDbEntity
  8
HATCH
100
AcDbLine
 10
40.174302
 20
56.273304
 30
0.0
 11
40.174302
 21
56.273304
 31
0.0
  0
LINE
  5
365
100
AcDbEntity
  8
HATCH
100
AcDbLine
 10
40.643102
 20
56.273304
 30
0.0
 11
40.643102
 21
56.273304
 31
0.0
  0
LINE
  5
366
100
AcDbEntity
  8
HATCH
100
AcDbLine
 10
41.111802
 20
56.273304
 30
0.0
 11
41.111802
 21
56.273304
 31
0.0
  0
LINE
  5
367
100
AcDbEntity
  8
HATCH
100
AcDbLine
 10
41.580602
 20
56.273304
 30
0.0
 11
41.580602
 21
56.273304
 31
0.0
  0
LINE
  5
368
100
AcDbEntity
  8
HATCH
100
AcDbLine
 10
40.408702
 20
55.804504
 30
0.0
 11
40.408702
 21
55.804504
 31
0.0
  0
LINE
  5
369
100
AcDbEntity
  8
HATCH
100
AcDbLine
 10
40.877502
 20
55.804504
 30
0.0
 11
40.877502
 21
55.804504
 31
0.0
  0
LINE
  5
36A
100
AcDbEntity
  8
HATCH
100
AcDbLine
 10
41.346202
 20
55.804504
 30
0.0
 11
41.346202
 21
55.804504
 31
0.0
  0
LINE
  5
36B
100
AcDbEntity
  8
HATCH
100
AcDbLine
 10
41.815002
 20
55.804504
 30
0.0
 11
41.815002
 21
55.804504
 31
0.0
  0
LINE
  5
36C
100
AcDbEntity
  8
HATCH
100
AcDbLine
 10
40.174302
 20
55.335804
 30
0.0
 11
40.174302
 21
55.335804
 31
0.0
  0
LINE
  5
36D
100
AcDbEntity
  8
HATCH
100
AcDbLine
 10
40.643102
 20
55.335804
 30
0.0
 11
40.643102
 21
55.335804
 31
0.0
  0
LINE
  5
36E
100
AcDbEntity
  8
HATCH
100
AcDbLine
 10
41.111802
 20
55.335804
 30
0.0
 11
41.111802
 21
55.335804
 31
0.0
  0
LINE
  5
36F
100
AcDbEntity
  8
HATCH
100
AcDbLine
 10
41.580602
 20
55.335804
 30
0.0
 11
41.580602
 21
55.335804
 31
0.0
  0
LINE
  5
370
100
AcDbEntity
  8
HATCH
100
AcDbLine
 10
40.408702
 20
54.867004
 30
0.0
 11
40.408702
 21
54.867004
 31
0.0
  0
LINE
  5
371
100
AcDbEntity
  8
HATCH
100
AcDbLine
 10
40.877502
 20
54.867004
 30
0.0
 11
40.877502
 21
54.867004
 31
0.0
  0
LINE
  5
372
100
AcDbEntity
  8
HATCH
100
AcDbLine
 10
41.346202
 20
54.867004
 30
0.0
 11
41.346202
 21
54.867004
 31
0.0
  0
LINE
  5
373
100
AcDbEntity
  8
HATCH
100
AcDbLine
 10
41.815002
 20
54.867004
 30
0.0
 11
41.815002
 21
54.867004
 31
0.0
  0
LINE
  5
374
100
AcDbEntity
  8
HATCH
100
AcDbLine
 10
40.174302
 20
54.398304
 30
0.0
 11
40.174302
 21
54.398304
 31
0.0
  0
LINE
  5
375
100
AcDbEntity
  8
HATCH
100
AcDbLine
 10
40.643102
 20
54.398304
 30
0.0
 11
40.643102
 21
54.398304
 31
0.0
  0
LINE
  5
376
100
AcDbEntity
  8
HATCH
100
AcDbLine
 10
41.111802
 20
54.398304
 30
0.0
 11
41.111802
 21
54.398304
 31
0.0
  0
LINE
  5
377
100
AcDbEntity
  8
HATCH
100
AcDbLine
 10
41.580602
 20
54.398304
 30
0.0
 11
41.580602
 21
54.398304
 31
0.0
  0
LINE
  5
378
100
AcDbEntity
  8
HATCH
100
AcDbLine
 10
40.408702
 20
53.929504
 30
0.0
 11
40.408702
 21
53.929504
 31
0.0
  0
LINE
  5
379
100
AcDbEntity
  8
HATCH
100
AcDbLine
 10
40.877502
 20
53.929504
 30
0.0
 11
40.877502
 21
53.929504
 31
0.0
  0
LINE
  5
37A
100
AcDbEntity
  8
HATCH
100
AcDbLine
 10
41.346202
 20
53.929504
 30
0.0
 11
41.346202
 21
53.929504
 31
0.0
  0
LINE
  5
37B
100
AcDbEntity
  8
HATCH
100
AcDbLine
 10
41.815002
 20
53.929504
 30
0.0
 11
41.815002
 21
53.929504
 31
0.0
  0
LINE
  5
37C
100
AcDbEntity
  8
DIM_TEXT
100
AcDbLine
 10
46.640602
 20
60.675804
 30
0.0
 11
45.518302
 21
60.616704
 31
0.0
  0
LINE
  5
37D
100
AcDbEntity
  8
DIM_TEXT
100
AcDbLine
 10
45.518302
 20
60.616704
 30
0.0
 11
46.386702
 21
64.363904
 31
0.0
  0
LINE
  5
37E
100
AcDbEntity
  8
DRAWING
100
AcDbLine
 10
46.008802
 20
67.050004
 30
0.0
 11
45.493202
 21
67.050004
 31
0.0
  0
LINE
  5
37F
100
AcDbEntity
  8
DRAWING
100
AcDbLine
 10
45.493202
 20
65.427404
 30
0.0
 11
47.493202
 21
65.427404
 31
0.0
  0
LINE
  5
380
100
AcDbEntity
  8
DIM_TEXT
100
AcDbLine
 10
46.640602
 20
65.459804
 30
0.0
 11
46.752002
 21
64.279204
 31
0.0
  0
LINE
  5
381
100
AcDbEntity
  8
DIM_TEXT
100
AcDbLine
 10
46.640602
 20
65.459804
 30
0.0
 11
46.021502
 21
64.448504
 31
0.0
  0
LINE
  5
382
100
AcDbEntity
  8
DIM_TEXT
100
AcDbLine
 10
46.752002
 20
64.279204
 30
0.0
 11
46.021502
 21
64.448504
 31
0.0
  0
LINE
  5
383
100
AcDbEntity
  8
DRAWING
100
AcDbLine
 10
46.539102
 20
66.456704
 30
0.0
 11
47.493202
 21
65.427404
 31
0.0
  0
LINE
  5
384
100
AcDbEntity
  8
DRAWING
100
AcDbLine
 10
46.642102
 20
66.738904
 30
0.0
 11
46.537902
 21
66.634404
 31
0.0
  0
LINE
  5
385
100
AcDbEntity
  8
DRAWING
100
AcDbLine
 10
46.529802
 20
67.028004
 30
0.0
 11
46.642102
 21
66.915704
 31
0.0
  0
ARC
  5
386
100
AcDbEntity
  8
DRAWING
100
AcDbCircle
 10
46.553702
 20
66.827304
 30
0.0
 40
0.125
100
AcDbArc
 50
315.0
 51
45.0
  0
CIRCLE
  5
387
100
AcDbEntity
  8
DRAWING
100
AcDbCircle
 10
46.559602
 20
66.834104
 30
0.0
 40
0.039063
  0
ARC
  5
388
100
AcDbEntity
  8
DRAWING
100
AcDbCircle
 10
46.626502
 20
66.546104
 30
0.0
 40
0.125
100
AcDbArc
 50
135.079
 51
225.6331
  0
LINE
  5
389
100
AcDbEntity
  8
DRAWING
100
AcDbLine
 10
47.493202
 20
65.427404
 30
0.0
 11
47.492902
 21
64.819904
 31
0.0
  0
LINE
  5
38A
100
AcDbEntity
  8
DRAWING
100
AcDbLine
 10
41.993202
 20
71.284004
 30
0.0
 11
45.493202
 21
71.284004
 31
0.0
  0
LINE
  5
38B
100
AcDbEntity
  8
DRAWING
100
AcDbLine
 10
45.493202
 20
68.034004
 30
0.0
 11
37.738102
 21
68.034004
 31
0.0
  0
LINE
  5
38C
100
AcDbEntity
  8
DRAWING
100
AcDbLine
 10
45.493202
 20
67.284004
 30
0.0
 11
38.113102
 21
67.284004
 31
0.0
  0
LINE
  5
38D
100
AcDbEntity
  8
DIM_TEXT
100
AcDbLine
 10
38.194602
 20
67.188404
 30
0.0
 11
37.188002
 21
67.815604
 31
0.0
  0
LINE
  5
38E
100
AcDbEntity
  8
DIM_TEXT
100
AcDbLine
 10
37.013202
 20
67.086304
 30
0.0
 11
37.188002
 21
67.815604
 31
0.0
  0
LINE
  5
38F
100
AcDbEntity
  8
DIM_TEXT
100
AcDbLine
 10
38.194602
 20
67.188404
 30
0.0
 11
37.013202
 21
67.086304
 31
0.0
  0
LINE
  5
390
100
AcDbEntity
  8
HATCH
100
AcDbLine
 10
36.751002
 20
61.999204
 30
0.0
 11
36.809802
 21
62.020604
 31
0.0
  0
LINE
  5
391
100
AcDbEntity
  8
HATCH
100
AcDbLine
 10
39.100402
 20
62.854304
 30
0.0
 11
39.159202
 21
62.875604
 31
0.0
  0
LINE
  5
392
100
AcDbEntity
  8
HATCH
100
AcDbLine
 10
36.706302
 20
63.766404
 30
0.0
 11
36.742202
 21
63.817604
 31
0.0
  0
LINE
  5
393
100
AcDbEntity
  8
HATCH
100
AcDbLine
 10
38.754202
 20
62.332504
 30
0.0
 11
38.790102
 21
62.383804
 31
0.0
  0
LINE
  5
394
100
AcDbEntity
  8
HATCH
100
AcDbLine
 10
38.466102
 20
62.330804
 30
0.0
 11
38.476802
 21
62.392404
 31
0.0
  0
LINE
  5
395
100
AcDbEntity
  8
HATCH
100
AcDbLine
 10
38.900202
 20
64.792904
 30
0.0
 11
38.910902
 21
64.854504
 31
0.0
  0
LINE
  5
396
100
AcDbEntity
  8
HATCH
100
AcDbLine
 10
37.512502
 20
65.538404
 30
0.0
 11
37.439002
 21
65.511704
 31
0.0
  0
LINE
  5
397
100
AcDbEntity
  8
HATCH
100
AcDbLine
 10
37.243702
 20
66.371204
 30
0.0
 11
37.198802
 21
66.307204
 31
0.0
  0
ARC
  5
398
100
AcDbEntity
  8
DRAWING
100
AcDbCircle
 10
37.738102
 20
67.284004
 30
0.0
 40
0.749981
100
AcDbArc
 50
90.00001
 51
180.0
  0
LINE
  5
399
100
AcDbEntity
  8
HATCH
100
AcDbLine
 10
42.007602
 20
72.637904
 30
0.0
 11
42.456602
 21
73.086704
 31
0.0
  0
LINE
  5
39A
100
AcDbEntity
  8
HATCH
100
AcDbLine
 10
36.751002
 20
73.318804
 30
0.0
 11
36.809802
 21
73.297504
 31
0.0
  0
LINE
  5
39B
100
AcDbEntity
  8
HATCH
100
AcDbLine
 10
39.100402
 20
72.463804
 30
0.0
 11
39.159202
 21
72.442404
 31
0.0
  0
LINE
  5
39C
100
AcDbEntity
  8
HATCH
100
AcDbLine
 10
36.706302
 20
71.551704
 30
0.0
 11
36.742202
 21
71.500504
 31
0.0
  0
LINE
  5
39D
100
AcDbEntity
  8
HATCH
100
AcDbLine
 10
38.754202
 20
72.985604
 30
0.0
 11
38.790102
 21
72.934304
 31
0.0
  0
LINE
  5
39E
100
AcDbEntity
  8
HATCH
100
AcDbLine
 10
38.466102
 20
72.987204
 30
0.0
 11
38.476802
 21
72.925604
 31
0.0
  0
LINE
  5
39F
100
AcDbEntity
  8
HATCH
100
AcDbLine
 10
38.900202
 20
70.525204
 30
0.0
 11
38.910902
 21
70.463604
 31
0.0
  0
LINE
  5
3A0
100
AcDbEntity
  8
HATCH
100
AcDbLine
 10
37.512502
 20
69.779604
 30
0.0
 11
37.439002
 21
69.806404
 31
0.0
  0
LINE
  5
3A1
100
AcDbEntity
  8
HATCH
100
AcDbLine
 10
37.243702
 20
68.946904
 30
0.0
 11
37.198802
 21
69.010904
 31
0.0
  0
LINE
  5
3A2
100
AcDbEntity
  8
HATCH
100
AcDbLine
 10
40.174302
 20
71.544804
 30
0.0
 11
40.174302
 21
71.544804
 31
0.0
  0
LINE
  5
3A3
100
AcDbEntity
  8
HATCH
100
AcDbLine
 10
40.408702
 20
72.013504
 30
0.0
 11
40.408702
 21
72.013504
 31
0.0
  0
LINE
  5
3A4
100
AcDbEntity
  8
HATCH
100
AcDbLine
 10
40.877502
 20
72.013504
 30
0.0
 11
40.877502
 21
72.013504
 31
0.0
  0
LINE
  5
3A5
100
AcDbEntity
  8
HATCH
100
AcDbLine
 10
41.346202
 20
72.013504
 30
0.0
 11
41.346202
 21
72.013504
 31
0.0
  0
LINE
  5
3A6
100
AcDbEntity
  8
HATCH
100
AcDbLine
 10
41.815002
 20
72.013504
 30
0.0
 11
41.815002
 21
72.013504
 31
0.0
  0
LINE
  5
3A7
100
AcDbEntity
  8
HATCH
100
AcDbLine
 10
40.174302
 20
72.482304
 30
0.0
 11
40.174302
 21
72.482304
 31
0.0
  0
LINE
  5
3A8
100
AcDbEntity
  8
HATCH
100
AcDbLine
 10
40.643102
 20
72.482304
 30
0.0
 11
40.643102
 21
72.482304
 31
0.0
  0
LINE
  5
3A9
100
AcDbEntity
  8
HATCH
100
AcDbLine
 10
41.111802
 20
72.482304
 30
0.0
 11
41.111802
 21
72.482304
 31
0.0
  0
LINE
  5
3AA
100
AcDbEntity
  8
HATCH
100
AcDbLine
 10
41.580602
 20
72.482304
 30
0.0
 11
41.580602
 21
72.482304
 31
0.0
  0
LINE
  5
3AB
100
AcDbEntity
  8
HATCH
100
AcDbLine
 10
40.408702
 20
72.951004
 30
0.0
 11
40.408702
 21
72.951004
 31
0.0
  0
LINE
  5
3AC
100
AcDbEntity
  8
HATCH
100
AcDbLine
 10
40.877502
 20
72.951004
 30
0.0
 11
40.877502
 21
72.951004
 31
0.0
  0
LINE
  5
3AD
100
AcDbEntity
  8
HATCH
100
AcDbLine
 10
41.346202
 20
72.951004
 30
0.0
 11
41.346202
 21
72.951004
 31
0.0
  0
LINE
  5
3AE
100
AcDbEntity
  8
HATCH
100
AcDbLine
 10
41.815002
 20
72.951004
 30
0.0
 11
41.815002
 21
72.951004
 31
0.0
  0
LINE
  5
3AF
100
AcDbEntity
  8
HATCH
100
AcDbLine
 10
40.174302
 20
73.419804
 30
0.0
 11
40.174302
 21
73.419804
 31
0.0
  0
LINE
  5
3B0
100
AcDbEntity
  8
HATCH
100
AcDbLine
 10
40.643102
 20
73.419804
 30
0.0
 11
40.643102
 21
73.419804
 31
0.0
  0
LINE
  5
3B1
100
AcDbEntity
  8
HATCH
100
AcDbLine
 10
41.111802
 20
73.419804
 30
0.0
 11
41.111802
 21
73.419804
 31
0.0
  0
LINE
  5
3B2
100
AcDbEntity
  8
HATCH
100
AcDbLine
 10
41.580602
 20
73.419804
 30
0.0
 11
41.580602
 21
73.419804
 31
0.0
  0
LINE
  5
3B3
100
AcDbEntity
  8
HATCH
100
AcDbLine
 10
40.408702
 20
73.888504
 30
0.0
 11
40.408702
 21
73.888504
 31
0.0
  0
LINE
  5
3B4
100
AcDbEntity
  8
HATCH
100
AcDbLine
 10
40.877502
 20
73.888504
 30
0.0
 11
40.877502
 21
73.888504
 31
0.0
  0
LINE
  5
3B5
100
AcDbEntity
  8
HATCH
100
AcDbLine
 10
41.346202
 20
73.888504
 30
0.0
 11
41.346202
 21
73.888504
 31
0.0
  0
LINE
  5
3B6
100
AcDbEntity
  8
HATCH
100
AcDbLine
 10
41.815002
 20
73.888504
 30
0.0
 11
41.815002
 21
73.888504
 31
0.0
  0
LINE
  5
3B7
100
AcDbEntity
  8
DIM_TEXT
100
AcDbLine
 10
44.455302
 20
72.901704
 30
0.0
 11
44.481702
 21
74.087304
 31
0.0
  0
LINE
  5
3B8
100
AcDbEntity
  8
DIM_TEXT
100
AcDbLine
 10
44.455302
 20
72.901704
 30
0.0
 11
45.187802
 21
73.834304
 31
0.0
  0
LINE
  5
3B9
100
AcDbEntity
  8
DRAWING
100
AcDbLine
 10
45.105002
 20
71.307004
 30
0.0
 11
45.919002
 21
72.169404
 31
0.0
  0
LINE
  5
3BA
100
AcDbEntity
  8
DIM_TEXT
100
AcDbLine
 10
45.238802
 20
72.485304
 30
0.0
 11
45.919002
 21
72.169404
 31
0.0
  0
LINE
  5
3BB
100
AcDbEntity
  8
DRAWING
100
AcDbLine
 10
45.493202
 20
68.268004
 30
0.0
 11
46.008802
 21
68.268004
 31
0.0
  0
LINE
  5
3BC
100
AcDbEntity
  8
DRAWING
100
AcDbLine
 10
45.493202
 20
68.024104
 30
0.0
 11
45.869702
 21
68.024104
 31
0.0
  0
LINE
  5
3BD
100
AcDbEntity
  8
DRAWING
100
AcDbLine
 10
45.493202
 20
67.304504
 30
0.0
 11
45.869702
 21
67.304504
 31
0.0
  0
LINE
  5
3BE
100
AcDbEntity
  8
DRAWING
100
AcDbLine
 10
45.493202
 20
70.177404
 30
0.0
 11
46.493202
 21
70.177404
 31
0.0
  0
LINE
  5
3BF
100
AcDbEntity
  8
DRAWING
100
AcDbLine
 10
45.488802
 20
71.519604
 30
0.0
 11
47.134102
 21
67.759004
 31
0.0
  0
LINE
  5
3C0
100
AcDbEntity
  8
DIM_TEXT
100
AcDbLine
 10
45.105002
 20
71.307004
 30
0.0
 11
45.238802
 21
72.485304
 31
0.0
  0
LINE
  5
3C1
100
AcDbEntity
  8
DRAWING
100
AcDbLine
 10
44.544002
 20
72.901704
 30
0.0
 11
43.953402
 21
70.007604
 31
0.0
  0
LINE
  5
3C2
100
AcDbEntity
  8
HATCH
100
AcDbLine
 10
43.355002
 20
71.996604
 30
0.0
 11
43.948002
 21
72.589504
 31
0.0
  0
LINE
  5
3C3
100
AcDbEntity
  8
HATCH
100
AcDbLine
 10
44.846702
 20
71.499504
 30
0.0
 11
45.439502
 21
72.092304
 31
0.0
  0
LINE
  5
3C4
100
AcDbEntity
  8
DRAWING
100
AcDbLine
 10
45.869702
 20
68.024104
 30
0.0
 11
46.008802
 21
68.130304
 31
0.0
  0
LINE
  5
3C5
100
AcDbEntity
  8
DRAWING
100
AcDbLine
 10
45.869702
 20
68.024104
 30
0.0
 11
46.008802
 21
67.918604
 31
0.0
  0
LINE
  5
3C6
100
AcDbEntity
  8
DRAWING
100
AcDbLine
 10
45.869702
 20
67.304504
 30
0.0
 11
46.008802
 21
67.410304
 31
0.0
  0
LINE
  5
3C7
100
AcDbEntity
  8
DRAWING
100
AcDbLine
 10
45.869702
 20
67.304504
 30
0.0
 11
46.008802
 21
67.198704
 31
0.0
  0
LINE
  5
3C8
100
AcDbEntity
  8
DRAWING
100
AcDbLine
 10
46.008802
 20
67.284004
 30
0.0
 11
46.527602
 21
67.284004
 31
0.0
  0
LINE
  5
3C9
100
AcDbEntity
  8
DRAWING
100
AcDbLine
 10
46.527602
 20
67.284004
 30
0.0
 11
46.527602
 21
68.034004
 31
0.0
  0
LINE
  5
3CA
100
AcDbEntity
  8
DRAWING
100
AcDbLine
 10
46.527602
 20
68.034004
 30
0.0
 11
46.008802
 21
68.034004
 31
0.0
  0
LINE
  5
3CB
100
AcDbEntity
  8
DRAWING
100
AcDbLine
 10
46.493202
 20
70.177404
 30
0.0
 11
46.493202
 21
69.210104
 31
0.0
  0
LINE
  5
3CC
100
AcDbEntity
  8
DRAWING
100
AcDbLine
 10
46.493202
 20
68.631504
 30
0.0
 11
46.493202
 21
68.163304
 31
0.0
  0
LINE
  5
3CD
100
AcDbEntity
  8
DRAWING
100
AcDbLine
 10
46.493202
 20
67.584604
 30
0.0
 11
46.493202
 21
67.116404
 31
0.0
  0
LINE
  5
3CE
100
AcDbEntity
  8
DRAWING
100
AcDbLine
 10
46.642102
 20
67.785804
 30
0.0
 11
46.529602
 21
67.673004
 31
0.0
  0
LINE
  5
3CF
100
AcDbEntity
  8
DRAWING
100
AcDbLine
 10
46.529802
 20
68.074904
 30
0.0
 11
46.642102
 21
67.962604
 31
0.0
  0
ARC
  5
3D0
100
AcDbEntity
  8
DRAWING
100
AcDbCircle
 10
46.553702
 20
67.874204
 30
0.0
 40
0.125
100
AcDbArc
 50
315.0
 51
45.0
  0
LINE
  5
3D1
100
AcDbEntity
  8
DRAWING
100
AcDbLine
 10
46.642102
 20
68.832704
 30
0.0
 11
46.529602
 21
68.719904
 31
0.0
  0
LINE
  5
3D2
100
AcDbEntity
  8
DRAWING
100
AcDbLine
 10
46.529802
 20
69.121704
 30
0.0
 11
46.642102
 21
69.009404
 31
0.0
  0
ARC
  5
3D3
100
AcDbEntity
  8
DRAWING
100
AcDbCircle
 10
46.553702
 20
68.921104
 30
0.0
 40
0.125
100
AcDbArc
 50
315.0
 51
45.0
  0
CIRCLE
  5
3D4
100
AcDbEntity
  8
DRAWING
100
AcDbCircle
 10
46.559602
 20
67.881004
 30
0.0
 40
0.039063
  0
CIRCLE
  5
3D5
100
AcDbEntity
  8
DRAWING
100
AcDbCircle
 10
46.559602
 20
68.927904
 30
0.0
 40
0.039063
  0
ARC
  5
3D6
100
AcDbEntity
  8
DRAWING
100
AcDbCircle
 10
46.618202
 20
67.584604
 30
0.0
 40
0.125
100
AcDbArc
 50
135.079
 51
180.0
  0
ARC
  5
3D7
100
AcDbEntity
  8
DRAWING
100
AcDbCircle
 10
46.618202
 20
68.163304
 30
0.0
 40
0.125
100
AcDbArc
 50
180.0
 51
225.0
  0
ARC
  5
3D8
100
AcDbEntity
  8
DRAWING
100
AcDbCircle
 10
46.618202
 20
69.210104
 30
0.0
 40
0.125
100
AcDbArc
 50
180.0
 51
225.0
  0
ARC
  5
3D9
100
AcDbEntity
  8
DRAWING
100
AcDbCircle
 10
46.618202
 20
68.631504
 30
0.0
 40
0.125
100
AcDbArc
 50
135.079
 51
180.0
  0
LINE
  5
3DA
100
AcDbEntity
  8
HATCH
100
AcDbLine
 10
46.338602
 20
71.002204
 30
0.0
 11
46.931402
 21
71.595104
 31
0.0
  0
LINE
  5
3DB
100
AcDbEntity
  8
HATCH
100
AcDbLine
 10
47.830102
 20
70.505004
 30
0.0
 11
48.422902
 21
71.097904
 31
0.0
  0
LINE
  5
3DC
100
AcDbEntity
  8
DIM_TEXT
100
AcDbLine
 10
44.481702
 20
74.087304
 30
0.0
 11
45.187802
 21
73.834304
 31
0.0
  0
LINE
  5
3DD
100
AcDbEntity
  8
HATCH
100
AcDbLine
 10
58.039602
 20
54.542963
 30
0.0
 11
58.039602
 21
70.587568
 31
0.0
  0
LINE
  5
3DE
100
AcDbEntity
  8
DRAWING
100
AcDbLine
 10
52.134502
 20
63.961504
 30
0.0
 11
53.344002
 21
65.554204
 31
0.0
  0
LINE
  5
3DF
100
AcDbEntity
  8
DIM_TEXT
100
AcDbLine
 10
53.492002
 20
73.905704
 30
0.0
 11
50.717802
 21
68.753804
 31
0.0
  0
LINE
  5
3E0
100
AcDbEntity
  8
DIM_TEXT
100
AcDbLine
 10
50.184402
 20
67.763304
 30
0.0
 11
50.387702
 21
68.931604
 31
0.0
  0
LINE
  5
3E1
100
AcDbEntity
  8
DIM_TEXT
100
AcDbLine
 10
50.184402
 20
67.763304
 30
0.0
 11
51.047902
 21
68.576004
 31
0.0
  0
LINE
  5
3E2
100
AcDbEntity
  8
DIM_TEXT
100
AcDbLine
 10
50.387702
 20
68.931604
 30
0.0
 11
51.047902
 21
68.576004
 31
0.0
  0
LINE
  5
3E3
100
AcDbEntity
  8
HATCH
100
AcDbLine
 10
49.321602
 20
70.007804
 30
0.0
 11
49.914602
 21
70.600704
 31
0.0
  0
LINE
  5
3E4
100
AcDbEntity
  8
HATCH
100
AcDbLine
 10
50.813302
 20
69.510604
 30
0.0
 11
51.406002
 21
70.103504
 31
0.0
  0
LINE
  5
3E5
100
AcDbEntity
  8
HATCH
100
AcDbLine
 10
52.304702
 20
69.013404
 30
0.0
 11
52.897502
 21
69.606304
 31
0.0
  0
LINE
  5
3E6
100
AcDbEntity
  8
HATCH
100
AcDbLine
 10
53.796202
 20
68.516304
 30
0.0
 11
54.389202
 21
69.109104
 31
0.0
  0
LINE
  5
3E7
100
AcDbEntity
  8
DIM_TEXT
100
AcDbLine
 10
50.125302
 20
80.343604
 30
0.0
 11
49.357402
 21
80.461704
 31
0.0
  0
LINE
  5
3E8
100
AcDbEntity
  8
DIM_TEXT
100
AcDbLine
 10
54.614002
 20
74.023904
 30
0.0
 11
53.492002
 21
73.905704
 31
0.0
  0
LINE
  5
3E9
100
AcDbEntity
  8
HATCH
100
AcDbLine
 10
55.287902
 20
68.019104
 30
0.0
 11
55.880602
 21
68.611904
 31
0.0
  0
LINE
  5
3EA
100
AcDbEntity
  8
HATCH
100
AcDbLine
 10
56.779302
 20
67.521904
 30
0.0
 11
57.372302
 21
68.114704
 31
0.0
  0
LINE
  5
3EB
100
AcDbEntity
  8
HATCH
100
AcDbLine
 10
36.097702
 20
74.035904
 30
0.0
 11
38.046702
 21
77.343404
 31
0.0
  0
LINE
  5
3EC
100
AcDbEntity
  8
HATCH
100
AcDbLine
 10
35.270802
 20
75.689704
 30
0.0
 11
30.841102
 21
75.689704
 31
0.0
  0
LINE
  5
3ED
100
AcDbEntity
  8
HATCH
100
AcDbLine
 10
32.205602
 20
74.357304
 30
0.0
 11
32.205602
 21
74.357304
 31
0.0
  0
LINE
  5
3EE
100
AcDbEntity
  8
HATCH
100
AcDbLine
 10
32.674302
 20
74.357304
 30
0.0
 11
32.674302
 21
74.357304
 31
0.0
  0
LINE
  5
3EF
100
AcDbEntity
  8
HATCH
100
AcDbLine
 10
33.143102
 20
74.357304
 30
0.0
 11
33.143102
 21
74.357304
 31
0.0
  0
LINE
  5
3F0
100
AcDbEntity
  8
HATCH
100
AcDbLine
 10
32.440002
 20
74.826004
 30
0.0
 11
32.440002
 21
74.826004
 31
0.0
  0
LINE
  5
3F1
100
AcDbEntity
  8
HATCH
100
AcDbLine
 10
32.908702
 20
74.826004
 30
0.0
 11
32.908702
 21
74.826004
 31
0.0
  0
LINE
  5
3F2
100
AcDbEntity
  8
HATCH
100
AcDbLine
 10
32.205602
 20
75.294804
 30
0.0
 11
32.205602
 21
75.294804
 31
0.0
  0
LINE
  5
3F3
100
AcDbEntity
  8
HATCH
100
AcDbLine
 10
32.674302
 20
75.294804
 30
0.0
 11
32.674302
 21
75.294804
 31
0.0
  0
LINE
  5
3F4
100
AcDbEntity
  8
HATCH
100
AcDbLine
 10
33.143102
 20
75.294804
 30
0.0
 11
33.143102
 21
75.294804
 31
0.0
  0
LINE
  5
3F5
100
AcDbEntity
  8
HATCH
100
AcDbLine
 10
34.401602
 20
74.173904
 30
0.0
 11
34.460502
 21
74.152504
 31
0.0
  0
LINE
  5
3F6
100
AcDbEntity
  8
HATCH
100
AcDbLine
 10
35.570302
 20
75.015204
 30
0.0
 11
35.581102
 21
74.953604
 31
0.0
  0
LINE
  5
3F7
100
AcDbEntity
  8
HATCH
100
AcDbLine
 10
33.611802
 20
74.357304
 30
0.0
 11
33.611802
 21
74.357304
 31
0.0
  0
LINE
  5
3F8
100
AcDbEntity
  8
HATCH
100
AcDbLine
 10
33.377502
 20
74.826004
 30
0.0
 11
33.377502
 21
74.826004
 31
0.0
  0
LINE
  5
3F9
100
AcDbEntity
  8
HATCH
100
AcDbLine
 10
33.846202
 20
74.826004
 30
0.0
 11
33.846202
 21
74.826004
 31
0.0
  0
LINE
  5
3FA
100
AcDbEntity
  8
HATCH
100
AcDbLine
 10
33.611802
 20
75.294804
 30
0.0
 11
33.611802
 21
75.294804
 31
0.0
  0
LINE
  5
3FB
100
AcDbEntity
  8
HATCH
100
AcDbLine
 10
35.270802
 20
75.689704
 30
0.0
 11
36.097702
 21
74.035904
 31
0.0
  0
LINE
  5
3FC
100
AcDbEntity
  8
DIM_TEXT
100
AcDbLine
 10
49.652902
 20
84.005504
 30
0.0
 11
48.412602
 21
83.946404
 31
0.0
  0
LINE
  5
3FD
100
AcDbEntity
  8
HATCH
100
AcDbLine
 10
43.126202
 20
75.689704
 30
0.0
 11
38.696602
 21
75.689704
 31
0.0
  0
LINE
  5
3FE
100
AcDbEntity
  8
HATCH
100
AcDbLine
 10
37.606002
 20
75.668104
 30
0.0
 11
37.664802
 21
75.646704
 31
0.0
  0
LINE
  5
3FF
100
AcDbEntity
  8
HATCH
100
AcDbLine
 10
37.320102
 20
75.033404
 30
0.0
 11
37.356002
 21
74.982204
 31
0.0
  0
LINE
  5
400
100
AcDbEntity
  8
HATCH
100
AcDbLine
 10
38.032002
 20
75.449304
 30
0.0
 11
38.042702
 21
75.387704
 31
0.0
  0
LINE
  5
401
100
AcDbEntity
  8
HATCH
100
AcDbLine
 10
38.046702
 20
77.343404
 30
0.0
 11
38.696602
 21
75.689704
 31
0.0
  0
LINE
  5
402
100
AcDbEntity
  8
HATCH
100
AcDbLine
 10
39.955302
 20
74.813004
 30
0.0
 11
40.014202
 21
74.791704
 31
0.0
  0
LINE
  5
403
100
AcDbEntity
  8
HATCH
100
AcDbLine
 10
40.174302
 20
74.357304
 30
0.0
 11
40.174302
 21
74.357304
 31
0.0
  0
LINE
  5
404
100
AcDbEntity
  8
HATCH
100
AcDbLine
 10
40.643102
 20
74.357304
 30
0.0
 11
40.643102
 21
74.357304
 31
0.0
  0
LINE
  5
405
100
AcDbEntity
  8
HATCH
100
AcDbLine
 10
41.111802
 20
74.357304
 30
0.0
 11
41.111802
 21
74.357304
 31
0.0
  0
LINE
  5
406
100
AcDbEntity
  8
HATCH
100
AcDbLine
 10
41.580602
 20
74.357304
 30
0.0
 11
41.580602
 21
74.357304
 31
0.0
  0
LINE
  5
407
100
AcDbEntity
  8
HATCH
100
AcDbLine
 10
40.408702
 20
74.826004
 30
0.0
 11
40.408702
 21
74.826004
 31
0.0
  0
LINE
  5
408
100
AcDbEntity
  8
HATCH
100
AcDbLine
 10
40.877502
 20
74.826004
 30
0.0
 11
40.877502
 21
74.826004
 31
0.0
  0
LINE
  5
409
100
AcDbEntity
  8
HATCH
100
AcDbLine
 10
41.346202
 20
74.826004
 30
0.0
 11
41.346202
 21
74.826004
 31
0.0
  0
LINE
  5
40A
100
AcDbEntity
  8
HATCH
100
AcDbLine
 10
41.815002
 20
74.826004
 30
0.0
 11
41.815002
 21
74.826004
 31
0.0
  0
LINE
  5
40B
100
AcDbEntity
  8
HATCH
100
AcDbLine
 10
40.174302
 20
75.294804
 30
0.0
 11
40.174302
 21
75.294804
 31
0.0
  0
LINE
  5
40C
100
AcDbEntity
  8
HATCH
100
AcDbLine
 10
40.643102
 20
75.294804
 30
0.0
 11
40.643102
 21
75.294804
 31
0.0
  0
LINE
  5
40D
100
AcDbEntity
  8
HATCH
100
AcDbLine
 10
41.111802
 20
75.294804
 30
0.0
 11
41.111802
 21
75.294804
 31
0.0
  0
LINE
  5
40E
100
AcDbEntity
  8
HATCH
100
AcDbLine
 10
41.580602
 20
75.294804
 30
0.0
 11
41.580602
 21
75.294804
 31
0.0
  0
TEXT
  5
40F
100
AcDbEntity
  8
DIM_TEXT
100
AcDbText
 10
49.948002
 20
83.237704
 30
0.0
 40
1.125
  1
BOUND. NAIL
 51
15.0
  7
INFO
100
AcDbText
  0
ARC
  5
410
100
AcDbEntity
  8
DRAWING
100
AcDbCircle
 10
36.993202
 20
52.659004
 30
0.0
 40
3.0
100
AcDbArc
 50
0.0
 51
180.0
  0
LINE
  5
411
100
AcDbEntity
  8
HATCH
100
AcDbLine
 10
39.981502
 20
39.438412
 30
0.0
 11
40.017402
 21
39.489622
 31
0.0
  0
LINE
  5
412
100
AcDbEntity
  8
HATCH
100
AcDbLine
 10
40.643102
 20
39.405152
 30
0.0
 11
40.643102
 21
39.405152
 31
0.0
  0
LINE
  5
413
100
AcDbEntity
  8
HATCH
100
AcDbLine
 10
40.174302
 20
39.405152
 30
0.0
 11
40.174302
 21
39.405152
 31
0.0
  0
LINE
  5
414
100
AcDbEntity
  8
HATCH
100
AcDbLine
 10
40.408702
 20
39.873902
 30
0.0
 11
40.408702
 21
39.873902
 31
0.0
  0
LINE
  5
415
100
AcDbEntity
  8
HATCH
100
AcDbLine
 10
41.580602
 20
39.405152
 30
0.0
 11
41.580602
 21
39.405152
 31
0.0
  0
LINE
  5
416
100
AcDbEntity
  8
HATCH
100
AcDbLine
 10
41.111802
 20
39.405152
 30
0.0
 11
41.111802
 21
39.405152
 31
0.0
  0
LINE
  5
417
100
AcDbEntity
  8
HATCH
100
AcDbLine
 10
41.346202
 20
39.873902
 30
0.0
 11
41.346202
 21
39.873902
 31
0.0
  0
LINE
  5
418
100
AcDbEntity
  8
HATCH
100
AcDbLine
 10
40.877502
 20
39.873902
 30
0.0
 11
40.877502
 21
39.873902
 31
0.0
  0
LINE
  5
419
100
AcDbEntity
  8
HATCH
100
AcDbLine
 10
41.815002
 20
39.873902
 30
0.0
 11
41.815002
 21
39.873902
 31
0.0
  0
LINE
  5
41A
100
AcDbEntity
  8
0
100
AcDbLine
 10
37.131402
 20
64.662189
 30
0.0
 11
41.993202
 21
64.662189
 31
0.0
  0
ARC
  5
41B
100
AcDbEntity
  8
DRAWING
100
AcDbCircle
 10
36.993202
 20
67.659004
 30
0.0
 40
3.0
100
AcDbArc
 50
180.0
 51
352.819244
  0
LINE
  5
41C
100
AcDbEntity
  8
0
100
AcDbLine
 10
41.993202
 20
71.969988
 30
0.0
 11
36.280635
 21
70.57315
 31
0.0
  0
LINE
  5
41D
100
AcDbEntity
  8
0
100
AcDbLine
 10
41.993202
 20
71.519604
 30
0.0
 11
45.488802
 21
71.519604
 31
0.0
  0
LINE
  5
41E
100
AcDbEntity
  8
HATCH
100
AcDbLine
 10
40.408702
 20
58.620111
 30
0.0
 11
40.408702
 21
58.620111
 31
0.0
  0
LINE
  5
41F
100
AcDbEntity
  8
HATCH
100
AcDbLine
 10
40.643102
 20
59.088911
 30
0.0
 11
40.643102
 21
59.088911
 31
0.0
  0
LINE
  5
420
100
AcDbEntity
  8
HATCH
100
AcDbLine
 10
40.174302
 20
59.088911
 30
0.0
 11
40.174302
 21
59.088911
 31
0.0
  0
LINE
  5
421
100
AcDbEntity
  8
HATCH
100
AcDbLine
 10
40.408702
 20
59.557611
 30
0.0
 11
40.408702
 21
59.557611
 31
0.0
  0
LINE
  5
422
100
AcDbEntity
  8
HATCH
100
AcDbLine
 10
40.059802
 20
59.788211
 30
0.0
 11
40.070602
 21
59.849811
 31
0.0
  0
LINE
  5
423
100
AcDbEntity
  8
HATCH
100
AcDbLine
 10
41.346202
 20
58.620111
 30
0.0
 11
41.346202
 21
58.620111
 31
0.0
  0
LINE
  5
424
100
AcDbEntity
  8
HATCH
100
AcDbLine
 10
40.877502
 20
58.620111
 30
0.0
 11
40.877502
 21
58.620111
 31
0.0
  0
LINE
  5
425
100
AcDbEntity
  8
HATCH
100
AcDbLine
 10
41.580602
 20
59.088911
 30
0.0
 11
41.580602
 21
59.088911
 31
0.0
  0
LINE
  5
426
100
AcDbEntity
  8
HATCH
100
AcDbLine
 10
41.111802
 20
59.088911
 30
0.0
 11
41.111802
 21
59.088911
 31
0.0
  0
LINE
  5
427
100
AcDbEntity
  8
HATCH
100
AcDbLine
 10
41.346202
 20
59.557611
 30
0.0
 11
41.346202
 21
59.557611
 31
0.0
  0
LINE
  5
428
100
AcDbEntity
  8
HATCH
100
AcDbLine
 10
40.877502
 20
59.557611
 30
0.0
 11
40.877502
 21
59.557611
 31
0.0
  0
LINE
  5
429
100
AcDbEntity
  8
HATCH
100
AcDbLine
 10
41.815002
 20
58.620111
 30
0.0
 11
41.815002
 21
58.620111
 31
0.0
  0
LINE
  5
42A
100
AcDbEntity
  8
HATCH
100
AcDbLine
 10
41.815002
 20
59.557611
 30
0.0
 11
41.815002
 21
59.557611
 31
0.0
  0
LINE
  5
42B
100
AcDbEntity
  8
HATCH
100
AcDbLine
 10
40.643102
 20
60.026411
 30
0.0
 11
40.643102
 21
60.026411
 31
0.0
  0
LINE
  5
42C
100
AcDbEntity
  8
HATCH
100
AcDbLine
 10
40.174302
 20
60.026411
 30
0.0
 11
40.174302
 21
60.026411
 31
0.0
  0
LINE
  5
42D
100
AcDbEntity
  8
HATCH
100
AcDbLine
 10
40.408702
 20
60.495111
 30
0.0
 11
40.408702
 21
60.495111
 31
0.0
  0
LINE
  5
42E
100
AcDbEntity
  8
HATCH
100
AcDbLine
 10
40.643102
 20
60.963911
 30
0.0
 11
40.643102
 21
60.963911
 31
0.0
  0
LINE
  5
42F
100
AcDbEntity
  8
HATCH
100
AcDbLine
 10
40.174302
 20
60.963911
 30
0.0
 11
40.174302
 21
60.963911
 31
0.0
  0
LINE
  5
430
100
AcDbEntity
  8
HATCH
100
AcDbLine
 10
41.580602
 20
60.026411
 30
0.0
 11
41.580602
 21
60.026411
 31
0.0
  0
LINE
  5
431
100
AcDbEntity
  8
HATCH
100
AcDbLine
 10
41.111802
 20
60.026411
 30
0.0
 11
41.111802
 21
60.026411
 31
0.0
  0
LINE
  5
432
100
AcDbEntity
  8
HATCH
100
AcDbLine
 10
41.346202
 20
60.495111
 30
0.0
 11
41.346202
 21
60.495111
 31
0.0
  0
LINE
  5
433
100
AcDbEntity
  8
HATCH
100
AcDbLine
 10
40.877502
 20
60.495111
 30
0.0
 11
40.877502
 21
60.495111
 31
0.0
  0
LINE
  5
434
100
AcDbEntity
  8
HATCH
100
AcDbLine
 10
41.580602
 20
60.963911
 30
0.0
 11
41.580602
 21
60.963911
 31
0.0
  0
LINE
  5
435
100
AcDbEntity
  8
HATCH
100
AcDbLine
 10
41.111802
 20
60.963911
 30
0.0
 11
41.111802
 21
60.963911
 31
0.0
  0
LINE
  5
436
100
AcDbEntity
  8
HATCH
100
AcDbLine
 10
41.815002
 20
60.495111
 30
0.0
 11
41.815002
 21
60.495111
 31
0.0
  0
LINE
  5
437
100
AcDbEntity
  8
HATCH
100
AcDbLine
 10
40.174302
 20
61.920792
 30
0.0
 11
40.174302
 21
61.920792
 31
0.0
  0
LINE
  5
438
100
AcDbEntity
  8
HATCH
100
AcDbLine
 10
40.643102
 20
61.920792
 30
0.0
 11
40.643102
 21
61.920792
 31
0.0
  0
LINE
  5
439
100
AcDbEntity
  8
HATCH
100
AcDbLine
 10
40.408702
 20
61.451992
 30
0.0
 11
40.408702
 21
61.451992
 31
0.0
  0
LINE
  5
43A
100
AcDbEntity
  8
HATCH
100
AcDbLine
 10
40.174302
 20
63.795792
 30
0.0
 11
40.174302
 21
63.795792
 31
0.0
  0
LINE
  5
43B
100
AcDbEntity
  8
HATCH
100
AcDbLine
 10
40.643102
 20
63.795792
 30
0.0
 11
40.643102
 21
63.795792
 31
0.0
  0
LINE
  5
43C
100
AcDbEntity
  8
HATCH
100
AcDbLine
 10
40.408702
 20
63.326992
 30
0.0
 11
40.408702
 21
63.326992
 31
0.0
  0
LINE
  5
43D
100
AcDbEntity
  8
HATCH
100
AcDbLine
 10
40.174302
 20
62.858292
 30
0.0
 11
40.174302
 21
62.858292
 31
0.0
  0
LINE
  5
43E
100
AcDbEntity
  8
HATCH
100
AcDbLine
 10
40.643102
 20
62.858292
 30
0.0
 11
40.643102
 21
62.858292
 31
0.0
  0
LINE
  5
43F
100
AcDbEntity
  8
HATCH
100
AcDbLine
 10
40.059802
 20
62.620092
 30
0.0
 11
40.070602
 21
62.681692
 31
0.0
  0
LINE
  5
440
100
AcDbEntity
  8
HATCH
100
AcDbLine
 10
40.408702
 20
62.389492
 30
0.0
 11
40.408702
 21
62.389492
 31
0.0
  0
LINE
  5
441
100
AcDbEntity
  8
HATCH
100
AcDbLine
 10
41.111802
 20
61.920792
 30
0.0
 11
41.111802
 21
61.920792
 31
0.0
  0
LINE
  5
442
100
AcDbEntity
  8
HATCH
100
AcDbLine
 10
41.580602
 20
61.920792
 30
0.0
 11
41.580602
 21
61.920792
 31
0.0
  0
LINE
  5
443
100
AcDbEntity
  8
HATCH
100
AcDbLine
 10
40.877502
 20
61.451992
 30
0.0
 11
40.877502
 21
61.451992
 31
0.0
  0
LINE
  5
444
100
AcDbEntity
  8
HATCH
100
AcDbLine
 10
41.346202
 20
61.451992
 30
0.0
 11
41.346202
 21
61.451992
 31
0.0
  0
LINE
  5
445
100
AcDbEntity
  8
HATCH
100
AcDbLine
 10
41.815002
 20
61.451992
 30
0.0
 11
41.815002
 21
61.451992
 31
0.0
  0
LINE
  5
446
100
AcDbEntity
  8
HATCH
100
AcDbLine
 10
41.111802
 20
63.795792
 30
0.0
 11
41.111802
 21
63.795792
 31
0.0
  0
LINE
  5
447
100
AcDbEntity
  8
HATCH
100
AcDbLine
 10
41.580602
 20
63.795792
 30
0.0
 11
41.580602
 21
63.795792
 31
0.0
  0
LINE
  5
448
100
AcDbEntity
  8
HATCH
100
AcDbLine
 10
40.877502
 20
63.326992
 30
0.0
 11
40.877502
 21
63.326992
 31
0.0
  0
LINE
  5
449
100
AcDbEntity
  8
HATCH
100
AcDbLine
 10
41.346202
 20
63.326992
 30
0.0
 11
41.346202
 21
63.326992
 31
0.0
  0
LINE
  5
44A
100
AcDbEntity
  8
HATCH
100
AcDbLine
 10
41.111802
 20
62.858292
 30
0.0
 11
41.111802
 21
62.858292
 31
0.0
  0
LINE
  5
44B
100
AcDbEntity
  8
HATCH
100
AcDbLine
 10
41.580602
 20
62.858292
 30
0.0
 11
41.580602
 21
62.858292
 31
0.0
  0
LINE
  5
44C
100
AcDbEntity
  8
HATCH
100
AcDbLine
 10
40.877502
 20
62.389492
 30
0.0
 11
40.877502
 21
62.389492
 31
0.0
  0
LINE
  5
44D
100
AcDbEntity
  8
HATCH
100
AcDbLine
 10
41.346202
 20
62.389492
 30
0.0
 11
41.346202
 21
62.389492
 31
0.0
  0
LINE
  5
44E
100
AcDbEntity
  8
HATCH
100
AcDbLine
 10
41.815002
 20
63.326992
 30
0.0
 11
41.815002
 21
63.326992
 31
0.0
  0
LINE
  5
44F
100
AcDbEntity
  8
HATCH
100
AcDbLine
 10
41.815002
 20
62.389492
 30
0.0
 11
41.815002
 21
62.389492
 31
0.0
  0
LINE
  5
450
100
AcDbEntity
  8
HATCH
100
AcDbLine
 10
40.408702
 20
64.270953
 30
0.0
 11
40.408702
 21
64.270953
 31
0.0
  0
LINE
  5
451
100
AcDbEntity
  8
HATCH
100
AcDbLine
 10
41.346202
 20
64.270953
 30
0.0
 11
41.346202
 21
64.270953
 31
0.0
  0
LINE
  5
452
100
AcDbEntity
  8
HATCH
100
AcDbLine
 10
40.877502
 20
64.270953
 30
0.0
 11
40.877502
 21
64.270953
 31
0.0
  0
LINE
  5
453
100
AcDbEntity
  8
HATCH
100
AcDbLine
 10
41.815002
 20
64.270953
 30
0.0
 11
41.815002
 21
64.270953
 31
0.0
  0
LINE
  5
454
100
AcDbEntity
  8
HATCH
100
AcDbLine
 10
37.838763
 20
63.26044
 30
0.0
 11
37.849463
 21
63.32204
 31
0.0
  0
LINE
  5
455
100
AcDbEntity
  8
HATCH
100
AcDbLine
 10
37.959063
 20
64.21454
 30
0.0
 11
38.017963
 21
64.23594
 31
0.0
  0
LINE
  5
456
100
AcDbEntity
  8
HATCH
100
AcDbLine
 10
38.588463
 20
63.65644
 30
0.0
 11
38.624363
 21
63.70754
 31
0.0
  0
LINE
  5
457
100
AcDbEntity
  8
HATCH
100
AcDbLine
 10
39.36088
 20
64.058668
 30
0.0
 11
39.41968
 21
64.079968
 31
0.0
  0
TEXT
  5
458
100
AcDbEntity
  8
DIM_TEXT
100
AcDbText
 10
5.387119
 20
74.113002
 30
0.0
 40
1.125
  1
RASTRA CUT OUT 6" DIA
 51
15.0
  7
INFO
100
AcDbText
  0
TEXT
  5
459
100
AcDbEntity
  8
DIM_TEXT
100
AcDbText
 10
5.209919
 20
72.163902
 30
0.0
 40
1.125
  1
EXTEND 2" UP FOR STRAP
 51
15.0
  7
INFO
100
AcDbText
  0
LINE
  5
45A
100
AcDbEntity
  8
DIM_TEXT
100
AcDbLine
 10
29.335202
 20
74.821802
 30
0.0
 11
39.825331
 21
70.293377
 31
0.0
  0
LINE
  5
45B
100
AcDbEntity
  8
DIM_TEXT
100
AcDbLine
 10
27.740502
 20
74.821802
 30
0.0
 11
29.335202
 21
74.821802
 31
0.0
  0
LINE
  5
45C
100
AcDbEntity
  8
DIM_TEXT
100
AcDbLine
 10
40.919331
 20
70.030777
 30
0.0
 11
39.912731
 21
70.657977
 31
0.0
  0
LINE
  5
45D
100
AcDbEntity
  8
DIM_TEXT
100
AcDbLine
 10
40.919331
 20
70.030777
 30
0.0
 11
39.737931
 21
69.928677
 31
0.0
  0
LINE
  5
45E
100
AcDbEntity
  8
DIM_TEXT
100
AcDbLine
 10
39.737931
 20
69.928677
 30
0.0
 11
39.912731
 21
70.657977
 31
0.0
  0
LINE
  5
45F
100
AcDbEntity
  8
HATCH
100
AcDbLine
 10
40.44604
 20
70.455043
 30
0.0
 11
40.45674
 21
70.393443
 31
0.0
  0
LINE
  5
460
100
AcDbEntity
  8
HATCH
100
AcDbLine
 10
40.73414
 20
70.453443
 30
0.0
 11
40.77004
 21
70.402143
 31
0.0
  0
LINE
  5
461
100
AcDbEntity
  8
HATCH
100
AcDbLine
 10
41.08034
 20
69.931643
 30
0.0
 11
41.13914
 21
69.910243
 31
0.0
  0
LINE
  5
462
100
AcDbEntity
  8
HATCH
100
AcDbLine
 10
39.838041
 20
65.940946
 30
0.0
 11
39.896941
 21
65.919546
 31
0.0
  0
LINE
  5
463
100
AcDbEntity
  8
HATCH
100
AcDbLine
 10
39.214241
 20
68.570946
 30
0.0
 11
39.250141
 21
68.519646
 31
0.0
  0
LINE
  5
464
100
AcDbEntity
  8
DRAWING
100
AcDbLine
 10
39.946441
 20
67.524446
 30
0.0
 11
39.957241
 21
67.462846
 31
0.0
  0
LINE
  5
465
100
AcDbEntity
  8
HATCH
100
AcDbLine
 10
40.648341
 20
66.523046
 30
0.0
 11
40.684241
 21
66.471846
 31
0.0
  0
LINE
  5
466
100
AcDbEntity
  8
HATCH
100
AcDbLine
 10
40.693041
 20
68.290146
 30
0.0
 11
40.751841
 21
68.268846
 31
0.0
  0
LINE
  5
467
100
AcDbEntity
  8
HATCH
100
AcDbLine
 10
40.747742
 20
65.227661
 30
0.0
 11
40.806642
 21
65.206261
 31
0.0
  0
LINE
  5
468
100
AcDbEntity
  8
HATCH
100
AcDbLine
 10
41.558042
 20
65.809761
 30
0.0
 11
41.593942
 21
65.758561
 31
0.0
  0
TEXT
  5
469
100
AcDbEntity
  8
DRAWING
100
AcDbText
 10
13.998162
 20
10.086431
 30
0.0
 40
2.5
  1
RAFTER & CEILING JOIST
  7
TITLE
 72
     1
 11
39.414828
 21
10.086431
 31
0.0
100
AcDbText
  0
TEXT
  5
46B
100
AcDbEntity
  8
DRAWING
100
AcDbText
 10
30.902924
 20
5.086431
 30
0.0
 40
2.5
  1
TO WALL
  7
TITLE
 72
     1
 11
39.414828
 21
5.086431
 31
0.0
100
AcDbText
  0
LINE
  5
46C
100
AcDbEntity
  8
DRAWING
100
AcDbLine
 10
37.131402
 20
66.015804
 30
0.0
 11
37.131402
 21
29.447474
 31
0.0
  0
LEADER
  5
488
100
AcDbEntity
  8
RF-SW
 62
     6
100
AcDbLeader
  3
ARCHITECTURAL
 76
     3
 10
35.94113
 20
50.228499
 30
0.0
 10
24.754991
 20
43.15334
 30
0.0
 10
22.965723
 20
43.15334
 30
0.0
 77
    13
1001
ACAD
1000
DSTYLE
1002
{
1070
    40
1040
12.0
1070
   173
1070
     1
1070
   176
1070
     6
1070
     7
1000
_CLOSEDBLANK
1070
     6
1000
_CLOSEDBLANK
1002
}
  0
LEADER
  5
489
100
AcDbEntity
  8
RF-SW
 62
     6
100
AcDbLeader
  3
ARCHITECTURAL
 76
     3
 10
36.881851
 20
42.89536
 30
0.0
 10
25.225352
 20
34.85552
 30
0.0
 10
23.436084
 20
34.85552
 30
0.0
 77
    13
1001
ACAD
1000
DSTYLE
1002
{
1070
    40
1040
12.0
1070
   173
1070
     1
1070
   176
1070
     6
1070
     7
1000
_CLOSEDBLANK
1070
     6
1000
_CLOSEDBLANK
1002
}
  0
TEXT
  5
48A
100
AcDbEntity
  8
DIM_TEXT
100
AcDbText
 10
12.301622
 20
42.356664
 30
0.0
 40
1.124955
  1
VERT. REINF.
 51
15.0
  7
INFO
100
AcDbText
  0
TEXT
  5
48B
100
AcDbEntity
  8
DIM_TEXT
100
AcDbText
 10
4.101047
 20
40.499858
 30
0.0
 40
1.124955
  1
(MIN. #4 @ 30" O.C.
 51
15.0
  7
INFO
100
AcDbText
  0
TEXT
  5
48C
100
AcDbEntity
  8
DIM_TEXT
100
AcDbText
 10
2.075359
 20
38.370082
 30
0.0
 40
1.124955
  1
REQUIRED, PER DESIGN)
 51
15.0
  7
INFO
100
AcDbText
  0
TEXT
  5
48D
100
AcDbEntity
  8
DIM_TEXT
100
AcDbText
 10
10.857412
 20
34.654624
 30
0.0
 40
1.124955
  1
HORIZ. REINF.
 51
15.0
  7
INFO
100
AcDbText
  0
TEXT
  5
48E
100
AcDbEntity
  8
DIM_TEXT
100
AcDbText
 10
3.588512
 20
32.775591
 30
0.0
 40
1.124955
  1
(MIN. #4 @ 30" O.C.)
 51
15.0
  7
INFO
100
AcDbText
  0
TEXT
  5
48F
100
AcDbEntity
  8
DIM_TEXT
100
AcDbText
 10
2.125789
 20
30.780614
 30
0.0
 40
1.124955
  1
REQUIRED, PER DESIGN)
 51
15.0
  7
INFO
100
AcDbText
  0
ENDSEC
  0
SECTION
  2
OBJECTS
  0
DICTIONARY
  5
C
100
AcDbDictionary
  3
ACAD_GROUP
350
D
  3
ACAD_MLINESTYLE
350
1A
  3
ACDBVARIABLEDICTIONARY
350
29
  0
DICTIONARY
  5
D
102
{ACAD_REACTORS
330
C
102
}
100
AcDbDictionary
  0
DICTIONARY
  5
1A
102
{ACAD_REACTORS
330
C
102
}
100
AcDbDictionary
  3
STANDARD
350
1B
  0
DICTIONARY
  5
29
102
{ACAD_REACTORS
330
C
102
}
100
AcDbDictionary
  3
DIMADEC
350
2A
  0
MLINESTYLE
  5
1B
102
{ACAD_REACTORS
330
1A
102
}
100
AcDbMlineStyle
  2
STANDARD
 70
     0
  3

 62
   256
 51
90.0
 52
90.0
 71
     2
 49
0.5
 62
   256
  6
BYLAYER
 49
-0.5
 62
   256
  6
BYLAYER
  0
DICTIONARYVAR
  5
2A
102
{ACAD_REACTORS
330
29
102
}
100
DictionaryVariables
280
     0
  1
0
  0
ENDSEC
  0
EOF
