  0
SECTION
  2
HEADER
  9
$ACADVER
  1
AC1014
  9
$ACADMAINTVER
 70
     8
  9
$DWGCODEPAGE
  3
ANSI_1252
  9
$INSBASE
 10
0.0
 20
0.0
 30
0.0
  9
$EXTMIN
 10
19.202619
 20
12.319209
 30
0.0
  9
$EXTMAX
 10
63.715041
 20
48.400034
 30
48.0
  9
$LIMMIN
 10
0.0
 20
0.0
  9
$LIMMAX
 10
85.0
 20
110.0
  9
$ORTHOMODE
 70
     0
  9
$REGENMODE
 70
     1
  9
$FILLMODE
 70
     1
  9
$QTEXTMODE
 70
     0
  9
$MIRRTEXT
 70
     1
  9
$DRAGMODE
 70
     2
  9
$LTSCALE
 40
3.0
  9
$OSMODE
 70
    37
  9
$ATTMODE
 70
     1
  9
$TEXTSIZE
 40
0.2
  9
$TRACEWID
 40
0.05
  9
$TEXTSTYLE
  7
STANDARD
  9
$CLAYER
  8
0
  9
$CELTYPE
  6
BYLAYER
  9
$CECOLOR
 62
   256
  9
$CELTSCALE
 40
1.0
  9
$DELOBJ
 70
     1
  9
$DISPSILH
 70
     0
  9
$DIMSCALE
 40
1.0
  9
$DIMASZ
 40
0.18
  9
$DIMEXO
 40
0.0625
  9
$DIMDLI
 40
0.38
  9
$DIMRND
 40
0.0
  9
$DIMDLE
 40
0.0
  9
$DIMEXE
 40
0.18
  9
$DIMTP
 40
0.0
  9
$DIMTM
 40
0.0
  9
$DIMTXT
 40
0.18
  9
$DIMCEN
 40
0.09
  9
$DIMTSZ
 40
0.0
  9
$DIMTOL
 70
     0
  9
$DIMLIM
 70
     0
  9
$DIMTIH
 70
     1
  9
$DIMTOH
 70
     1
  9
$DIMSE1
 70
     0
  9
$DIMSE2
 70
     0
  9
$DIMTAD
 70
     0
  9
$DIMZIN
 70
     0
  9
$DIMBLK
  1

  9
$DIMASO
 70
     1
  9
$DIMSHO
 70
     1
  9
$DIMPOST
  1

  9
$DIMAPOST
  1

  9
$DIMALT
 70
     0
  9
$DIMALTD
 70
     2
  9
$DIMALTF
 40
25.4
  9
$DIMLFAC
 40
1.0
  9
$DIMTOFL
 70
     0
  9
$DIMTVP
 40
0.0
  9
$DIMTIX
 70
     0
  9
$DIMSOXD
 70
     0
  9
$DIMSAH
 70
     0
  9
$DIMBLK1
  1

  9
$DIMBLK2
  1

  9
$DIMSTYLE
  2
STANDARD
  9
$DIMCLRD
 70
     0
  9
$DIMCLRE
 70
     0
  9
$DIMCLRT
 70
     0
  9
$DIMTFAC
 40
1.0
  9
$DIMGAP
 40
0.09
  9
$DIMJUST
 70
     0
  9
$DIMSD1
 70
     0
  9
$DIMSD2
 70
     0
  9
$DIMTOLJ
 70
     1
  9
$DIMTZIN
 70
     0
  9
$DIMALTZ
 70
     0
  9
$DIMALTTZ
 70
     0
  9
$DIMFIT
 70
     5
  9
$DIMUPT
 70
     0
  9
$DIMUNIT
 70
     4
  9
$DIMDEC
 70
     4
  9
$DIMTDEC
 70
     4
  9
$DIMALTU
 70
     4
  9
$DIMALTTD
 70
     2
  9
$DIMTXSTY
  7
STANDARD
  9
$DIMAUNIT
 70
     2
  9
$LUNITS
 70
     4
  9
$LUPREC
 70
     4
  9
$SKETCHINC
 40
0.1
  9
$FILLETRAD
 40
0.0
  9
$AUNITS
 70
     2
  9
$AUPREC
 70
     0
  9
$MENU
  1
acad
  9
$ELEVATION
 40
0.0
  9
$PELEVATION
 40
0.0
  9
$THICKNESS
 40
0.0
  9
$LIMCHECK
 70
     0
  9
$BLIPMODE
 70
     1
  9
$CHAMFERA
 40
0.0
  9
$CHAMFERB
 40
0.0
  9
$CHAMFERC
 40
0.0
  9
$CHAMFERD
 40
0.0
  9
$SKPOLY
 70
     0
  9
$TDCREATE
 40
2451166.705667245
  9
$TDUPDATE
 40
2452248.659489236
  9
$TDINDWG
 40
0.0452743056
  9
$TDUSRTIMER
 40
0.0452743056
  9
$USRTIMER
 70
     1
  9
$ANGBASE
 50
0.0
  9
$ANGDIR
 70
     0
  9
$PDMODE
 70
     0
  9
$PDSIZE
 40
0.0
  9
$PLINEWID
 40
0.0
  9
$COORDS
 70
     1
  9
$SPLFRAME
 70
     0
  9
$SPLINETYPE
 70
     6
  9
$SPLINESEGS
 70
     8
  9
$ATTDIA
 70
     0
  9
$ATTREQ
 70
     1
  9
$HANDLING
 70
     1
  9
$HANDSEED
  5
955
  9
$SURFTAB1
 70
     6
  9
$SURFTAB2
 70
     6
  9
$SURFTYPE
 70
     6
  9
$SURFU
 70
     6
  9
$SURFV
 70
     6
  9
$UCSNAME
  2

  9
$UCSORG
 10
0.0
 20
0.0
 30
0.0
  9
$UCSXDIR
 10
1.0
 20
0.0
 30
0.0
  9
$UCSYDIR
 10
0.0
 20
1.0
 30
0.0
  9
$PUCSNAME
  2

  9
$PUCSORG
 10
0.0
 20
0.0
 30
0.0
  9
$PUCSXDIR
 10
1.0
 20
0.0
 30
0.0
  9
$PUCSYDIR
 10
0.0
 20
1.0
 30
0.0
  9
$USERI1
 70
     0
  9
$USERI2
 70
     0
  9
$USERI3
 70
     0
  9
$USERI4
 70
     0
  9
$USERI5
 70
     0
  9
$USERR1
 40
0.0
  9
$USERR2
 40
0.0
  9
$USERR3
 40
0.0
  9
$USERR4
 40
0.0
  9
$USERR5
 40
0.0
  9
$WORLDVIEW
 70
     1
  9
$SHADEDGE
 70
     3
  9
$SHADEDIF
 70
    70
  9
$TILEMODE
 70
     1
  9
$MAXACTVP
 70
    16
  9
$PINSBASE
 10
0.0
 20
0.0
 30
0.0
  9
$PLIMCHECK
 70
     0
  9
$PEXTMIN
 10
1.000000E+20
 20
1.000000E+20
 30
1.000000E+20
  9
$PEXTMAX
 10
-1.000000E+20
 20
-1.000000E+20
 30
-1.000000E+20
  9
$PLIMMIN
 10
0.0
 20
0.0
  9
$PLIMMAX
 10
12.0
 20
9.0
  9
$UNITMODE
 70
     0
  9
$VISRETAIN
 70
     0
  9
$PLINEGEN
 70
     0
  9
$PSLTSCALE
 70
     1
  9
$TREEDEPTH
 70
  3020
  9
$PICKSTYLE
 70
     1
  9
$CMLSTYLE
  2
STANDARD
  9
$CMLJUST
 70
     0
  9
$CMLSCALE
 40
1.0
  9
$PROXYGRAPHICS
 70
     1
  9
$MEASUREMENT
 70
     0
  0
ENDSEC
  0
SECTION
  2
CLASSES
  0
CLASS
  1
DICTIONARYVAR
  2
AcDbDictionaryVar
  3
"AutoCAD"
 90
        0
280
     0
281
     0
  0
CLASS
  1
LWPOLYLINE
  2
AcDbPolyline
  3
"AutoCAD"
 90
        0
280
     0
281
     1
  0
ENDSEC
  0
SECTION
  2
TABLES
  0
TABLE
  2
VPORT
  5
8
100
AcDbSymbolTable
 70
     1
  0
VPORT
  5
94E
100
AcDbSymbolTableRecord
100
AcDbViewportTableRecord
  2
*ACTIVE
 70
     0
 10
0.0
 20
0.0
 11
1.0
 21
1.0
 12
40.880788
 22
31.167763
 13
0.0
 23
0.0
 14
1.0
 24
1.0
 15
1.0
 25
1.0
 16
0.0
 26
0.0
 36
1.0
 17
0.0
 27
0.0
 37
0.0
 40
41.527838
 41
1.474388
 42
50.0
 43
0.0
 44
0.0
 50
0.0
 51
0.0
 71
     0
 72
   100
 73
     1
 74
     1
 75
     0
 76
     0
 77
     0
 78
     0
  0
ENDTAB
  0
TABLE
  2
LTYPE
  5
5
100
AcDbSymbolTable
 70
     2
  0
LTYPE
  5
11
100
AcDbSymbolTableRecord
100
AcDbLinetypeTableRecord
  2
BYBLOCK
 70
     0
  3

 72
    65
 73
     0
 40
0.0
  0
LTYPE
  5
12
100
AcDbSymbolTableRecord
100
AcDbLinetypeTableRecord
  2
BYLAYER
 70
     0
  3

 72
    65
 73
     0
 40
0.0
  0
LTYPE
  5
13
100
AcDbSymbolTableRecord
100
AcDbLinetypeTableRecord
  2
CONTINUOUS
 70
     0
  3
Solid line
 72
    65
 73
     0
 40
0.0
  0
LTYPE
  5
45C
100
AcDbSymbolTableRecord
100
AcDbLinetypeTableRecord
  2
DASHED
 70
     0
  3
__ __ __ __ __ __ __ __ __ __ __ __ __ __ __ __
 72
    65
 73
     2
 40
0.75
 49
0.5
 74
     0
 49
-0.25
 74
     0
  0
ENDTAB
  0
TABLE
  2
LAYER
  5
2
100
AcDbSymbolTable
 70
     6
  0
LAYER
  5
E
100
AcDbSymbolTableRecord
100
AcDbLayerTableRecord
  2
0
 70
     0
 62
     7
  6
CONTINUOUS
  0
LAYER
  5
22
100
AcDbSymbolTableRecord
100
AcDbLayerTableRecord
  2
DRAWING
 70
     0
 62
     7
  6
CONTINUOUS
  0
LAYER
  5
23
100
AcDbSymbolTableRecord
100
AcDbLayerTableRecord
  2
HATCH
 70
     0
 62
     3
  6
CONTINUOUS
  0
LAYER
  5
24
100
AcDbSymbolTableRecord
100
AcDbLayerTableRecord
  2
DIM_TEXT
 70
     0
 62
     6
  6
CONTINUOUS
  0
LAYER
  5
45D
100
AcDbSymbolTableRecord
100
AcDbLayerTableRecord
  2
BORDER
 70
     0
 62
    14
  6
CONTINUOUS
  0
LAYER
  5
45E
100
AcDbSymbolTableRecord
100
AcDbLayerTableRecord
  2
RF-SW
 70
     0
 62
     9
  6
CONTINUOUS
  0
ENDTAB
  0
TABLE
  2
STYLE
  5
3
100
AcDbSymbolTable
 70
     5
  0
STYLE
  5
F
100
AcDbSymbolTableRecord
100
AcDbTextStyleTableRecord
  2
STANDARD
 70
     0
 40
0.0
 41
1.0
 50
0.0
 71
     0
 42
0.2
  3
txt
  4

  0
STYLE
  5
1C
100
AcDbSymbolTableRecord
100
AcDbTextStyleTableRecord
  2
INFO
 70
     0
 40
0.0
 41
1.0
 50
15.0
 71
     0
 42
1.08
  3
C:\ACADWIN\FONTS\ROMANS.SHX
  4

  0
STYLE
  5
1D
100
AcDbSymbolTableRecord
100
AcDbTextStyleTableRecord
  2
TITLE
 70
     0
 40
0.0
 41
1.0
 50
0.0
 71
     0
 42
2.8
  3
C:\ACADWIN\FONTS\ROMANC.SHX
  4

  0
STYLE
  5
45F
100
AcDbSymbolTableRecord
100
AcDbTextStyleTableRecord
  2
ROMANS
 70
     0
 40
0.0
 41
1.0
 50
0.0
 71
     0
 42
0.2
  3
ROMANS.SHX
  4

  0
STYLE
  5
460
100
AcDbSymbolTableRecord
100
AcDbTextStyleTableRecord
  2
ROMAN
 70
     0
 40
0.0
 41
1.0
 50
0.0
 71
     0
 42
0.09375
  3
romans.shx
  4

  0
ENDTAB
  0
TABLE
  2
VIEW
  5
6
100
AcDbSymbolTable
 70
     0
  0
ENDTAB
  0
TABLE
  2
UCS
  5
7
100
AcDbSymbolTable
 70
     0
  0
ENDTAB
  0
TABLE
  2
APPID
  5
9
100
AcDbSymbolTable
 70
     2
  0
APPID
  5
10
100
AcDbSymbolTableRecord
100
AcDbRegAppTableRecord
  2
ACAD
 70
     0
  0
APPID
  5
21
100
AcDbSymbolTableRecord
100
AcDbRegAppTableRecord
  2
ZIMM
 70
     0
  0
ENDTAB
  0
TABLE
  2
DIMSTYLE
  5
A
100
AcDbSymbolTable
 70
     2
  0
DIMSTYLE
105
443
100
AcDbSymbolTableRecord
100
AcDbDimStyleTableRecord
  2
STANDARD
 70
     0
  3

  4

  5

  6

  7

 40
1.0
 41
0.18
 42
0.0625
 43
0.38
 44
0.18
 45
0.0
 46
0.0
 47
0.0
 48
0.0
140
0.18
141
0.09
142
0.0
143
25.4
144
1.0
145
0.0
146
1.0
147
0.09
 71
     0
 72
     0
 73
     1
 74
     1
 75
     0
 76
     0
 77
     0
 78
     0
170
     0
171
     2
172
     0
173
     0
174
     0
175
     0
176
     0
177
     0
178
     0
270
     2
271
     4
272
     4
273
     2
274
     2
340
F
275
     0
280
     0
281
     0
282
     0
283
     1
284
     0
285
     0
286
     0
287
     3
288
     0
  0
DIMSTYLE
105
461
100
AcDbSymbolTableRecord
100
AcDbDimStyleTableRecord
  2
ARCHITECTURAL
 70
     0
  3

  4

  5

  6

  7

 40
1.0
 41
0.125
 42
0.0
 43
0.375
 44
0.0
 45
0.0
 46
0.0
 47
0.0
 48
0.0
140
0.09375
141
0.0625
142
0.0
143
25.4
144
1.0
145
0.0
146
1.0
147
0.0
 71
     0
 72
     0
 73
     0
 74
     0
 75
     0
 76
     0
 77
     1
 78
    13
170
     0
171
     2
172
     0
173
     0
174
     0
175
     0
176
    13
177
    13
178
     7
270
     6
271
     4
272
     4
273
     2
274
     2
340
45F
275
     1
280
     0
281
     0
282
     0
283
     1
284
    13
285
     0
286
     0
287
     3
288
     0
  0
ENDTAB
  0
TABLE
  2
BLOCK_RECORD
  5
1
100
AcDbSymbolTable
 70
     3
  0
BLOCK_RECORD
  5
17
100
AcDbSymbolTableRecord
100
AcDbBlockTableRecord
  2
*MODEL_SPACE
  0
BLOCK_RECORD
  5
14
100
AcDbSymbolTableRecord
100
AcDbBlockTableRecord
  2
*PAPER_SPACE
  0
BLOCK_RECORD
  5
446
100
AcDbSymbolTableRecord
100
AcDbBlockTableRecord
  2
_CLOSEDBLANK
  0
BLOCK_RECORD
  5
44C
100
AcDbSymbolTableRecord
100
AcDbBlockTableRecord
  2
H25
  0
BLOCK_RECORD
  5
462
100
AcDbSymbolTableRecord
100
AcDbBlockTableRecord
  2
A$C14AC778F
  0
ENDTAB
  0
ENDSEC
  0
SECTION
  2
BLOCKS
  0
BLOCK
  5
27
100
AcDbEntity
  8
0
100
AcDbBlockBegin
  2
*MODEL_SPACE
 70
     0
 10
0.0
 20
0.0
 30
0.0
  3
*MODEL_SPACE
  1

  0
ENDBLK
  5
28
100
AcDbEntity
  8
0
100
AcDbBlockEnd
  0
BLOCK
  5
25
100
AcDbEntity
 67
     1
  8
0
100
AcDbBlockBegin
  2
*PAPER_SPACE
 70
     0
 10
0.0
 20
0.0
 30
0.0
  3
*PAPER_SPACE
  1

  0
ENDBLK
  5
26
100
AcDbEntity
 67
     1
  8
0
100
AcDbBlockEnd
  0
BLOCK
  5
44A
100
AcDbEntity
  8
0
100
AcDbBlockBegin
  2
_CLOSEDBLANK
 70
     0
 10
0.0
 20
0.0
 30
0.0
  3
_CLOSEDBLANK
  1

  0
LINE
  5
447
100
AcDbEntity
  8
0
  6
BYBLOCK
 62
     0
100
AcDbLine
 10
-1.0
 20
0.166667
 30
0.0
 11
0.0
 21
0.0
 31
0.0
  0
LINE
  5
448
100
AcDbEntity
  8
0
  6
BYBLOCK
 62
     0
100
AcDbLine
 10
0.0
 20
0.0
 30
0.0
 11
-1.0
 21
-0.166667
 31
0.0
  0
LINE
  5
449
100
AcDbEntity
  8
0
  6
BYBLOCK
 62
     0
100
AcDbLine
 10
-1.0
 20
0.166667
 30
0.0
 11
-1.0
 21
-0.166667
 31
0.0
  0
ENDBLK
  5
44B
100
AcDbEntity
  8
0
100
AcDbBlockEnd
  0
BLOCK
  5
45A
100
AcDbEntity
  8
0
100
AcDbBlockBegin
  2
H25
 70
     0
 10
0.0
 20
0.0
 30
0.0
  3
H25
  1

  0
LINE
  5
44D
100
AcDbEntity
  8
0
  6
CONTINUOUS
100
AcDbLine
 39
96.0
 10
-3.872782
 20
0.02255
 30
0.0
 11
1.564718
 21
0.02255
 31
0.0
  0
LINE
  5
44E
100
AcDbEntity
  8
0
  6
CONTINUOUS
100
AcDbLine
 39
96.0
 10
-3.872782
 20
0.02255
 30
0.0
 11
-3.872782
 21
1.58455
 31
0.0
  0
LINE
  5
44F
100
AcDbEntity
  8
0
  6
CONTINUOUS
100
AcDbLine
 39
96.0
 10
-3.872782
 20
1.58455
 30
0.0
 11
-1.497782
 21
1.58455
 31
0.0
  0
LINE
  5
450
100
AcDbEntity
  8
0
  6
CONTINUOUS
100
AcDbLine
 39
96.0
 10
-1.497782
 20
1.58455
 30
0.0
 11
-0.060282
 21
0.14755
 31
0.0
  0
LINE
  5
451
100
AcDbEntity
  8
0
  6
CONTINUOUS
100
AcDbLine
 39
96.0
 10
1.564718
 20
0.02255
 30
0.0
 11
1.564718
 21
0.14755
 31
0.0
  0
LINE
  5
452
100
AcDbEntity
  8
0
  6
CONTINUOUS
100
AcDbLine
 39
96.0
 10
1.564718
 20
0.14755
 30
0.0
 11
-0.060282
 21
0.14755
 31
0.0
  0
CIRCLE
  5
453
100
AcDbEntity
  8
0
  6
CONTINUOUS
100
AcDbCircle
 39
96.0
 10
-3.607182
 20
1.31155
 30
0.0
 40
0.0625
  0
CIRCLE
  5
454
100
AcDbEntity
  8
0
  6
CONTINUOUS
100
AcDbCircle
 39
96.0
 10
-1.591582
 20
1.31155
 30
0.0
 40
0.0625
  0
CIRCLE
  5
455
100
AcDbEntity
  8
0
  6
CONTINUOUS
100
AcDbCircle
 39
96.0
 10
-2.607182
 20
1.31155
 30
0.0
 40
0.0625
  0
CIRCLE
  5
456
100
AcDbEntity
  8
0
  6
CONTINUOUS
100
AcDbCircle
 39
96.0
 10
-3.607182
 20
0.29555
 30
0.0
 40
0.0625
  0
CIRCLE
  5
457
100
AcDbEntity
  8
0
  6
CONTINUOUS
100
AcDbCircle
 39
96.0
 10
-2.607182
 20
0.29555
 30
0.0
 40
0.0625
  0
CIRCLE
  5
458
100
AcDbEntity
  8
0
  6
CONTINUOUS
100
AcDbCircle
 39
96.0
 10
-1.591582
 20
0.29555
 30
0.0
 40
0.0625
  0
CIRCLE
  5
459
100
AcDbEntity
  8
0
  6
CONTINUOUS
100
AcDbCircle
 39
96.0
 10
-1.154082
 20
0.81155
 30
0.0
 40
0.0625
  0
ENDBLK
  5
45B
100
AcDbEntity
  8
0
100
AcDbBlockEnd
  0
BLOCK
  5
6D6
100
AcDbEntity
  8
0
100
AcDbBlockBegin
  2
A$C14AC778F
 70
     0
 10
0.0
 20
0.0
 30
0.0
  3
A$C14AC778F
  1

  0
LEADER
  5
463
100
AcDbEntity
  8
RF-SW
 62
    13
100
AcDbLeader
  3
ARCHITECTURAL
 76
     3
 10
21.934814
 20
16.66545
 30
0.0
 10
24.902218
 20
12.053515
 30
0.0
 10
25.9737
 20
12.053515
 30
0.0
 77
    13
1001
ACAD
1000
DSTYLE
1002
{
1070
    40
1040
12.0
1070
   173
1070
     1
1070
     7
1000
_CLOSEDBLANK
1070
     6
1000
_CLOSEDBLANK
1070
    41
1040
0.0625
1002
}
  0
LINE
  5
464
100
AcDbEntity
  8
BORDER
  6
CONTINUOUS
 62
     3
100
AcDbLine
 39
46.05696
 10
21.556031
 20
4.950623
 30
0.0
 11
24.644607
 21
5.418591
 31
0.0
  0
LINE
  5
465
100
AcDbEntity
  8
RF-SW
100
AcDbLine
 10
22.524409
 20
17.007466
 30
0.0
 11
21.884927
 21
17.007466
 31
0.0
  0
LINE
  5
466
100
AcDbEntity
  8
BORDER
  6
DASHED
 62
    14
100
AcDbLine
 39
46.08
 10
26.185407
 20
19.053599
 30
0.0
 11
21.231679
 21
17.402463
 31
0.0
  0
TEXT
  5
467
100
AcDbEntity
  8
BORDER
  6
CONTINUOUS
 62
     1
100
AcDbText
 10
17.135324
 20
25.213465
 30
0.0
 40
0.71982
  1
ROOF SHEATHING
  7
ROMAN
100
AcDbText
  0
LINE
  5
468
100
AcDbEntity
  8
BORDER
  6
CONTINUOUS
 62
    14
100
AcDbLine
 39
46.08
 10
22.383807
 20
17.373599
 30
0.0
 11
19.435391
 21
16.678047
 31
0.0
  0
LINE
  5
469
100
AcDbEntity
  8
BORDER
  6
CONTINUOUS
 62
    14
100
AcDbLine
 39
46.08
 10
19.435647
 20
17.282591
 30
0.0
 11
22.383807
 21
16.653599
 31
0.0
  0
LINE
  5
46A
100
AcDbEntity
  8
BORDER
  6
CONTINUOUS
 62
     1
100
AcDbLine
 39
46.08
 10
22.105151
 20
20.476383
 30
0.0
 11
22.674431
 21
21.045599
 31
0.0
  0
ARC
  5
46B
100
AcDbEntity
  8
BORDER
  6
CONTINUOUS
 62
     3
100
AcDbCircle
 39
46.08
 10
20.935423
 20
9.445023
 30
0.0
 40
1.44
100
AcDbArc
 50
0.0
 51
180.0
  0
ARC
  5
46C
100
AcDbEntity
  8
BORDER
  6
CONTINUOUS
 62
     3
100
AcDbCircle
 39
46.08
 10
20.935423
 20
16.645023
 30
0.0
 40
1.44
100
AcDbArc
 50
180.0
 51
0.0
  0
ARC
  5
46D
100
AcDbEntity
  8
BORDER
  6
CONTINUOUS
 62
     3
100
AcDbCircle
 39
46.08
 10
20.935423
 20
9.445023
 30
0.0
 40
1.44
100
AcDbArc
 50
180.0
 51
0.0
  0
LINE
  5
46E
100
AcDbEntity
  8
BORDER
  6
CONTINUOUS
 62
    14
100
AcDbLine
 39
46.08
 10
19.435391
 20
16.645023
 30
0.0
 11
22.375423
 21
16.645023
 31
0.0
  0
LINE
  5
46F
100
AcDbEntity
  8
BORDER
  6
CONTINUOUS
 62
    14
100
AcDbLine
 39
46.08
 10
38.020159
 20
25.781407
 30
0.0
 11
10.017727
 21
16.447199
 31
0.0
  0
LINE
  5
470
100
AcDbEntity
  8
BORDER
  6
CONTINUOUS
 62
    14
100
AcDbLine
 39
46.08
 10
38.020159
 20
26.160863
 30
0.0
 11
10.017727
 21
16.826719
 31
0.0
  0
LINE
  5
471
100
AcDbEntity
  8
BORDER
  6
CONTINUOUS
 62
    14
100
AcDbLine
 39
46.08
 10
37.967423
 20
25.953567
 30
0.0
 11
10.017727
 21
16.636959
 31
0.0
  0
TEXT
  5
472
100
AcDbEntity
  8
BORDER
  6
CONTINUOUS
 62
     1
100
AcDbText
 10
19.692047
 20
27.599103
 30
0.0
 40
0.71982
  1
RAFTER PER PLAN
  7
ROMAN
100
AcDbText
  0
LINE
  5
473
100
AcDbEntity
  8
BORDER
  6
CONTINUOUS
 62
    14
100
AcDbLine
 39
46.08
 10
19.435647
 20
17.365023
 30
0.0
 11
38.019903
 21
17.419231
 31
0.0
  0
LINE
  5
474
100
AcDbEntity
  8
BORDER
  6
CONTINUOUS
 62
    14
100
AcDbLine
 39
46.08
 10
20.156351
 20
19.427734
 30
0.0
 11
38.019903
 21
19.479903
 31
0.0
  0
LEADER
  5
475
100
AcDbEntity
  8
RF-SW
 62
    13
100
AcDbLeader
  3
ARCHITECTURAL
 76
     3
 10
21.100851
 20
9.331745
 30
0.0
 10
14.64208
 20
3.574816
 30
0.0
 10
13.300129
 20
3.574816
 30
0.0
 77
    13
1001
ACAD
1000
DSTYLE
1002
{
1070
    40
1040
12.0
1070
   173
1070
     1
1070
     7
1000
_CLOSEDBLANK
1070
     6
1000
_CLOSEDBLANK
1070
    41
1040
0.0625
1002
}
  0
LEADER
  5
476
100
AcDbEntity
  8
RF-SW
 62
    13
100
AcDbLeader
  3
ARCHITECTURAL
 76
     3
 10
20.669159
 20
14.399858
 30
0.0
 10
14.444878
 20
8.285701
 30
0.0
 10
13.102926
 20
8.285701
 30
0.0
 77
    13
1001
ACAD
1000
DSTYLE
1002
{
1070
    40
1040
12.0
1070
   173
1070
     1
1070
     7
1000
_CLOSEDBLANK
1070
     6
1000
_CLOSEDBLANK
1070
    41
1040
0.0625
1002
}
  0
TEXT
  5
477
100
AcDbEntity
  8
BORDER
  6
CONTINUOUS
 62
     1
100
AcDbText
 10
6.104524
 20
7.955288
 30
0.0
 40
0.71982
  1
VERT. REINF.
  7
ROMAN
100
AcDbText
  0
LINE
  5
478
100
AcDbEntity
  8
BORDER
  6
CONTINUOUS
 62
     3
100
AcDbLine
 39
46.08
 10
18.535423
 20
9.445023
 30
0.0
 11
18.535423
 21
4.492895
 31
0.0
  0
LINE
  5
479
100
AcDbEntity
  8
BORDER
  6
CONTINUOUS
 62
     3
100
AcDbLine
 39
46.08
 10
19.435391
 20
9.445023
 30
0.0
 11
19.435391
 21
4.629279
 31
0.0
  0
LINE
  5
47A
100
AcDbEntity
  8
BORDER
  6
CONTINUOUS
 62
     1
100
AcDbLine
 39
46.08
 10
20.019455
 20
8.356575
 30
0.0
 11
20.023423
 21
8.378783
 31
0.0
  0
LINE
  5
47B
100
AcDbEntity
  8
BORDER
  6
CONTINUOUS
 62
    11
100
AcDbLine
 39
46.068474
 10
20.629311
 20
6.276994
 30
0.0
 11
20.629311
 21
16.177623
 31
0.0
  0
LINE
  5
47C
100
AcDbEntity
  8
BORDER
  6
CONTINUOUS
 62
     1
100
AcDbLine
 39
46.08
 10
22.075391
 20
5.217055
 30
0.0
 11
22.092735
 21
5.241567
 31
0.0
  0
LINE
  5
47D
100
AcDbEntity
  8
BORDER
  6
CONTINUOUS
 62
     3
100
AcDbLine
 39
46.05696
 10
21.145151
 20
2.896671
 30
0.0
 11
21.556031
 21
4.950559
 31
0.0
  0
LINE
  5
47E
100
AcDbEntity
  8
BORDER
  6
CONTINUOUS
 62
     1
100
AcDbLine
 39
46.08
 10
21.229759
 20
5.600671
 30
0.0
 11
21.257919
 21
5.610911
 31
0.0
  0
LINE
  5
47F
100
AcDbEntity
  8
BORDER
  6
CONTINUOUS
 62
     1
100
AcDbLine
 39
46.08
 10
20.819135
 20
6.728287
 30
0.0
 11
20.847487
 21
6.738591
 31
0.0
  0
LINE
  5
480
100
AcDbEntity
  8
BORDER
  6
CONTINUOUS
 62
     1
100
AcDbLine
 39
46.08
 10
20.109439
 20
6.593567
 30
0.0
 11
20.126783
 21
6.618143
 31
0.0
  0
LINE
  5
481
100
AcDbEntity
  8
BORDER
  6
CONTINUOUS
 62
     1
100
AcDbLine
 39
46.08
 10
21.092415
 20
5.905311
 30
0.0
 11
21.109759
 21
5.929887
 31
0.0
  0
LINE
  5
482
100
AcDbEntity
  8
BORDER
  6
CONTINUOUS
 62
     1
100
AcDbLine
 39
46.08
 10
20.252415
 20
5.914079
 30
0.0
 11
20.257599
 21
5.943583
 31
0.0
  0
LINE
  5
483
100
AcDbEntity
  8
BORDER
  6
CONTINUOUS
 62
     1
100
AcDbLine
 39
46.08
 10
21.434175
 20
5.705695
 30
0.0
 11
21.439295
 21
5.735263
 31
0.0
  0
LINE
  5
484
100
AcDbEntity
  8
BORDER
  6
CONTINUOUS
 62
     3
100
AcDbLine
 39
46.05696
 10
20.578687
 20
6.608735
 30
0.0
 11
21.145151
 21
2.896671
 31
0.0
  0
LINE
  5
485
100
AcDbEntity
  8
BORDER
  6
CONTINUOUS
 62
     3
100
AcDbLine
 39
46.05696
 10
20.140415
 20
4.757791
 30
0.0
 11
20.578687
 21
6.608735
 31
0.0
  0
LINE
  5
486
100
AcDbEntity
  8
BORDER
  6
CONTINUOUS
 62
     1
100
AcDbLine
 39
46.08
 10
19.691583
 20
6.317855
 30
0.0
 11
19.719935
 21
6.328159
 31
0.0
  0
LINE
  5
487
100
AcDbEntity
  8
BORDER
  6
CONTINUOUS
 62
     2
100
AcDbLine
 39
46.08
 10
18.637567
 20
6.679839
 30
0.0
 11
18.637567
 21
6.679839
 31
0.0
  0
LINE
  5
488
100
AcDbEntity
  8
BORDER
  6
CONTINUOUS
 62
     2
100
AcDbLine
 39
46.08
 10
18.862591
 20
6.679839
 30
0.0
 11
18.862591
 21
6.679839
 31
0.0
  0
LINE
  5
489
100
AcDbEntity
  8
BORDER
  6
CONTINUOUS
 62
     2
100
AcDbLine
 39
46.08
 10
19.087615
 20
6.679839
 30
0.0
 11
19.087615
 21
6.679839
 31
0.0
  0
LINE
  5
48A
100
AcDbEntity
  8
BORDER
  6
CONTINUOUS
 62
     2
100
AcDbLine
 39
46.08
 10
19.312575
 20
6.679839
 30
0.0
 11
19.312575
 21
6.679839
 31
0.0
  0
LINE
  5
48B
100
AcDbEntity
  8
BORDER
  6
CONTINUOUS
 62
     2
100
AcDbLine
 39
46.08
 10
18.750079
 20
6.454815
 30
0.0
 11
18.750079
 21
6.454815
 31
0.0
  0
LINE
  5
48C
100
AcDbEntity
  8
BORDER
  6
CONTINUOUS
 62
     2
100
AcDbLine
 39
46.08
 10
18.975103
 20
6.454815
 30
0.0
 11
18.975103
 21
6.454815
 31
0.0
  0
LINE
  5
48D
100
AcDbEntity
  8
BORDER
  6
CONTINUOUS
 62
     2
100
AcDbLine
 39
46.08
 10
19.200063
 20
6.454815
 30
0.0
 11
19.200063
 21
6.454815
 31
0.0
  0
LINE
  5
48E
100
AcDbEntity
  8
BORDER
  6
CONTINUOUS
 62
     2
100
AcDbLine
 39
46.08
 10
19.425087
 20
6.454815
 30
0.0
 11
19.425087
 21
6.454815
 31
0.0
  0
LINE
  5
48F
100
AcDbEntity
  8
BORDER
  6
CONTINUOUS
 62
     2
100
AcDbLine
 39
46.08
 10
18.637567
 20
6.229855
 30
0.0
 11
18.637567
 21
6.229855
 31
0.0
  0
LINE
  5
490
100
AcDbEntity
  8
BORDER
  6
CONTINUOUS
 62
     2
100
AcDbLine
 39
46.08
 10
18.862591
 20
6.229855
 30
0.0
 11
18.862591
 21
6.229855
 31
0.0
  0
LINE
  5
491
100
AcDbEntity
  8
BORDER
  6
CONTINUOUS
 62
     2
100
AcDbLine
 39
46.08
 10
19.087615
 20
6.229855
 30
0.0
 11
19.087615
 21
6.229855
 31
0.0
  0
LINE
  5
492
100
AcDbEntity
  8
BORDER
  6
CONTINUOUS
 62
     2
100
AcDbLine
 39
46.08
 10
19.312575
 20
6.229855
 30
0.0
 11
19.312575
 21
6.229855
 31
0.0
  0
LINE
  5
493
100
AcDbEntity
  8
BORDER
  6
CONTINUOUS
 62
     2
100
AcDbLine
 39
46.08
 10
18.750079
 20
6.004831
 30
0.0
 11
18.750079
 21
6.004831
 31
0.0
  0
LINE
  5
494
100
AcDbEntity
  8
BORDER
  6
CONTINUOUS
 62
     2
100
AcDbLine
 39
46.08
 10
18.975103
 20
6.004831
 30
0.0
 11
18.975103
 21
6.004831
 31
0.0
  0
LINE
  5
495
100
AcDbEntity
  8
BORDER
  6
CONTINUOUS
 62
     2
100
AcDbLine
 39
46.08
 10
19.200063
 20
6.004831
 30
0.0
 11
19.200063
 21
6.004831
 31
0.0
  0
LINE
  5
496
100
AcDbEntity
  8
BORDER
  6
CONTINUOUS
 62
     2
100
AcDbLine
 39
46.08
 10
19.425087
 20
6.004831
 30
0.0
 11
19.425087
 21
6.004831
 31
0.0
  0
LINE
  5
497
100
AcDbEntity
  8
BORDER
  6
CONTINUOUS
 62
     2
100
AcDbLine
 39
46.08
 10
18.637567
 20
5.779807
 30
0.0
 11
18.637567
 21
5.779807
 31
0.0
  0
LINE
  5
498
100
AcDbEntity
  8
BORDER
  6
CONTINUOUS
 62
     2
100
AcDbLine
 39
46.08
 10
18.862591
 20
5.779807
 30
0.0
 11
18.862591
 21
5.779807
 31
0.0
  0
LINE
  5
499
100
AcDbEntity
  8
BORDER
  6
CONTINUOUS
 62
     2
100
AcDbLine
 39
46.08
 10
19.087615
 20
5.779807
 30
0.0
 11
19.087615
 21
5.779807
 31
0.0
  0
LINE
  5
49A
100
AcDbEntity
  8
BORDER
  6
CONTINUOUS
 62
     2
100
AcDbLine
 39
46.08
 10
19.312575
 20
5.779807
 30
0.0
 11
19.312575
 21
5.779807
 31
0.0
  0
LINE
  5
49B
100
AcDbEntity
  8
BORDER
  6
CONTINUOUS
 62
     2
100
AcDbLine
 39
46.08
 10
18.750079
 20
5.554847
 30
0.0
 11
18.750079
 21
5.554847
 31
0.0
  0
LINE
  5
49C
100
AcDbEntity
  8
BORDER
  6
CONTINUOUS
 62
     2
100
AcDbLine
 39
46.08
 10
18.975103
 20
5.554847
 30
0.0
 11
18.975103
 21
5.554847
 31
0.0
  0
LINE
  5
49D
100
AcDbEntity
  8
BORDER
  6
CONTINUOUS
 62
     2
100
AcDbLine
 39
46.08
 10
19.200063
 20
5.554847
 30
0.0
 11
19.200063
 21
5.554847
 31
0.0
  0
LINE
  5
49E
100
AcDbEntity
  8
BORDER
  6
CONTINUOUS
 62
     2
100
AcDbLine
 39
46.08
 10
19.425087
 20
5.554847
 30
0.0
 11
19.425087
 21
5.554847
 31
0.0
  0
LINE
  5
49F
100
AcDbEntity
  8
BORDER
  6
CONTINUOUS
 62
     2
100
AcDbLine
 39
46.08
 10
18.637567
 20
5.329823
 30
0.0
 11
18.637567
 21
5.329823
 31
0.0
  0
LINE
  5
4A0
100
AcDbEntity
  8
BORDER
  6
CONTINUOUS
 62
     2
100
AcDbLine
 39
46.08
 10
18.862591
 20
5.329823
 30
0.0
 11
18.862591
 21
5.329823
 31
0.0
  0
LINE
  5
4A1
100
AcDbEntity
  8
BORDER
  6
CONTINUOUS
 62
     2
100
AcDbLine
 39
46.08
 10
19.087615
 20
5.329823
 30
0.0
 11
19.087615
 21
5.329823
 31
0.0
  0
LINE
  5
4A2
100
AcDbEntity
  8
BORDER
  6
CONTINUOUS
 62
     2
100
AcDbLine
 39
46.08
 10
19.312575
 20
5.329823
 30
0.0
 11
19.312575
 21
5.329823
 31
0.0
  0
LINE
  5
4A3
100
AcDbEntity
  8
BORDER
  6
CONTINUOUS
 62
     2
100
AcDbLine
 39
46.08
 10
18.750079
 20
5.104863
 30
0.0
 11
18.750079
 21
5.104863
 31
0.0
  0
LINE
  5
4A4
100
AcDbEntity
  8
BORDER
  6
CONTINUOUS
 62
     2
100
AcDbLine
 39
46.08
 10
18.975103
 20
5.104863
 30
0.0
 11
18.975103
 21
5.104863
 31
0.0
  0
LINE
  5
4A5
100
AcDbEntity
  8
BORDER
  6
CONTINUOUS
 62
     2
100
AcDbLine
 39
46.08
 10
19.200063
 20
5.104863
 30
0.0
 11
19.200063
 21
5.104863
 31
0.0
  0
LINE
  5
4A6
100
AcDbEntity
  8
BORDER
  6
CONTINUOUS
 62
     2
100
AcDbLine
 39
46.08
 10
19.425087
 20
5.104863
 30
0.0
 11
19.425087
 21
5.104863
 31
0.0
  0
LINE
  5
4A7
100
AcDbEntity
  8
BORDER
  6
CONTINUOUS
 62
     2
100
AcDbLine
 39
46.08
 10
18.637567
 20
4.879839
 30
0.0
 11
18.637567
 21
4.879839
 31
0.0
  0
LINE
  5
4A8
100
AcDbEntity
  8
BORDER
  6
CONTINUOUS
 62
     2
100
AcDbLine
 39
46.08
 10
18.862591
 20
4.879839
 30
0.0
 11
18.862591
 21
4.879839
 31
0.0
  0
LINE
  5
4A9
100
AcDbEntity
  8
BORDER
  6
CONTINUOUS
 62
     2
100
AcDbLine
 39
46.08
 10
19.087615
 20
4.879839
 30
0.0
 11
19.087615
 21
4.879839
 31
0.0
  0
LINE
  5
4AA
100
AcDbEntity
  8
BORDER
  6
CONTINUOUS
 62
     2
100
AcDbLine
 39
46.08
 10
19.312575
 20
4.879839
 30
0.0
 11
19.312575
 21
4.879839
 31
0.0
  0
LINE
  5
4AB
100
AcDbEntity
  8
BORDER
  6
CONTINUOUS
 62
     2
100
AcDbLine
 39
46.08
 10
18.750079
 20
4.654815
 30
0.0
 11
18.750079
 21
4.654815
 31
0.0
  0
LINE
  5
4AC
100
AcDbEntity
  8
BORDER
  6
CONTINUOUS
 62
     2
100
AcDbLine
 39
46.08
 10
18.975103
 20
4.654815
 30
0.0
 11
18.975103
 21
4.654815
 31
0.0
  0
LINE
  5
4AD
100
AcDbEntity
  8
BORDER
  6
CONTINUOUS
 62
     2
100
AcDbLine
 39
46.08
 10
19.200063
 20
4.654815
 30
0.0
 11
19.200063
 21
4.654815
 31
0.0
  0
LINE
  5
4AE
100
AcDbEntity
  8
BORDER
  6
CONTINUOUS
 62
     2
100
AcDbLine
 39
46.08
 10
19.425087
 20
4.654815
 30
0.0
 11
19.425087
 21
4.654815
 31
0.0
  0
LINE
  5
4AF
100
AcDbEntity
  8
BORDER
  6
CONTINUOUS
 62
     3
100
AcDbLine
 39
46.05696
 10
17.164287
 20
4.285151
 30
0.0
 11
20.135039
 21
4.735263
 31
0.0
  0
LINE
  5
4B0
100
AcDbEntity
  8
BORDER
  6
CONTINUOUS
 62
     1
100
AcDbLine
 39
46.08
 10
20.409023
 20
7.855967
 30
0.0
 11
20.437119
 21
7.866207
 31
0.0
  0
LINE
  5
4B1
100
AcDbEntity
  8
BORDER
  6
CONTINUOUS
 62
     1
100
AcDbLine
 39
46.08
 10
21.946943
 20
7.138719
 30
0.0
 11
21.975103
 21
7.148959
 31
0.0
  0
LINE
  5
4B2
100
AcDbEntity
  8
BORDER
  6
CONTINUOUS
 62
     1
100
AcDbLine
 39
46.08
 10
19.814591
 20
8.264863
 30
0.0
 11
19.831935
 21
8.289439
 31
0.0
  0
LINE
  5
4B3
100
AcDbEntity
  8
BORDER
  6
CONTINUOUS
 62
     1
100
AcDbLine
 39
46.08
 10
20.797823
 20
7.576543
 30
0.0
 11
20.814911
 21
7.601119
 31
0.0
  0
LINE
  5
4B4
100
AcDbEntity
  8
BORDER
  6
CONTINUOUS
 62
     1
100
AcDbLine
 39
46.08
 10
21.780799
 20
6.888287
 30
0.0
 11
21.797887
 21
6.912863
 31
0.0
  0
LINE
  5
4B5
100
AcDbEntity
  8
BORDER
  6
CONTINUOUS
 62
     1
100
AcDbLine
 39
46.08
 10
20.461055
 20
7.095839
 30
0.0
 11
20.466175
 21
7.125407
 31
0.0
  0
LINE
  5
4B6
100
AcDbEntity
  8
BORDER
  6
CONTINUOUS
 62
     1
100
AcDbLine
 39
46.08
 10
21.642495
 20
6.887519
 30
0.0
 11
21.647679
 21
6.917023
 31
0.0
  0
LINE
  5
4B7
100
AcDbEntity
  8
BORDER
  6
CONTINUOUS
 62
     1
100
AcDbLine
 39
46.08
 10
21.850879
 20
8.069279
 30
0.0
 11
21.855999
 21
8.098783
 31
0.0
  0
LINE
  5
4B8
100
AcDbEntity
  8
BORDER
  6
CONTINUOUS
 62
     2
100
AcDbLine
 39
46.08
 10
18.750079
 20
8.254815
 30
0.0
 11
18.750079
 21
8.254815
 31
0.0
  0
LINE
  5
4B9
100
AcDbEntity
  8
BORDER
  6
CONTINUOUS
 62
     2
100
AcDbLine
 39
46.08
 10
18.975103
 20
8.254815
 30
0.0
 11
18.975103
 21
8.254815
 31
0.0
  0
LINE
  5
4BA
100
AcDbEntity
  8
BORDER
  6
CONTINUOUS
 62
     2
100
AcDbLine
 39
46.08
 10
19.200063
 20
8.254815
 30
0.0
 11
19.200063
 21
8.254815
 31
0.0
  0
LINE
  5
4BB
100
AcDbEntity
  8
BORDER
  6
CONTINUOUS
 62
     2
100
AcDbLine
 39
46.08
 10
19.425087
 20
8.254815
 30
0.0
 11
19.425087
 21
8.254815
 31
0.0
  0
LINE
  5
4BC
100
AcDbEntity
  8
BORDER
  6
CONTINUOUS
 62
     2
100
AcDbLine
 39
46.08
 10
18.637567
 20
8.029855
 30
0.0
 11
18.637567
 21
8.029855
 31
0.0
  0
LINE
  5
4BD
100
AcDbEntity
  8
BORDER
  6
CONTINUOUS
 62
     2
100
AcDbLine
 39
46.08
 10
18.862591
 20
8.029855
 30
0.0
 11
18.862591
 21
8.029855
 31
0.0
  0
LINE
  5
4BE
100
AcDbEntity
  8
BORDER
  6
CONTINUOUS
 62
     2
100
AcDbLine
 39
46.08
 10
19.087615
 20
8.029855
 30
0.0
 11
19.087615
 21
8.029855
 31
0.0
  0
LINE
  5
4BF
100
AcDbEntity
  8
BORDER
  6
CONTINUOUS
 62
     2
100
AcDbLine
 39
46.08
 10
19.312575
 20
8.029855
 30
0.0
 11
19.312575
 21
8.029855
 31
0.0
  0
LINE
  5
4C0
100
AcDbEntity
  8
BORDER
  6
CONTINUOUS
 62
     2
100
AcDbLine
 39
46.08
 10
18.750079
 20
7.804831
 30
0.0
 11
18.750079
 21
7.804831
 31
0.0
  0
LINE
  5
4C1
100
AcDbEntity
  8
BORDER
  6
CONTINUOUS
 62
     2
100
AcDbLine
 39
46.08
 10
18.975103
 20
7.804831
 30
0.0
 11
18.975103
 21
7.804831
 31
0.0
  0
LINE
  5
4C2
100
AcDbEntity
  8
BORDER
  6
CONTINUOUS
 62
     2
100
AcDbLine
 39
46.08
 10
19.200063
 20
7.804831
 30
0.0
 11
19.200063
 21
7.804831
 31
0.0
  0
LINE
  5
4C3
100
AcDbEntity
  8
BORDER
  6
CONTINUOUS
 62
     2
100
AcDbLine
 39
46.08
 10
19.425087
 20
7.804831
 30
0.0
 11
19.425087
 21
7.804831
 31
0.0
  0
LINE
  5
4C4
100
AcDbEntity
  8
BORDER
  6
CONTINUOUS
 62
     2
100
AcDbLine
 39
46.08
 10
18.637567
 20
7.579807
 30
0.0
 11
18.637567
 21
7.579807
 31
0.0
  0
LINE
  5
4C5
100
AcDbEntity
  8
BORDER
  6
CONTINUOUS
 62
     2
100
AcDbLine
 39
46.08
 10
18.862591
 20
7.579807
 30
0.0
 11
18.862591
 21
7.579807
 31
0.0
  0
LINE
  5
4C6
100
AcDbEntity
  8
BORDER
  6
CONTINUOUS
 62
     2
100
AcDbLine
 39
46.08
 10
19.087615
 20
7.579807
 30
0.0
 11
19.087615
 21
7.579807
 31
0.0
  0
LINE
  5
4C7
100
AcDbEntity
  8
BORDER
  6
CONTINUOUS
 62
     2
100
AcDbLine
 39
46.08
 10
19.312575
 20
7.579807
 30
0.0
 11
19.312575
 21
7.579807
 31
0.0
  0
LINE
  5
4C8
100
AcDbEntity
  8
BORDER
  6
CONTINUOUS
 62
     2
100
AcDbLine
 39
46.08
 10
18.750079
 20
7.354847
 30
0.0
 11
18.750079
 21
7.354847
 31
0.0
  0
LINE
  5
4C9
100
AcDbEntity
  8
BORDER
  6
CONTINUOUS
 62
     2
100
AcDbLine
 39
46.08
 10
18.975103
 20
7.354847
 30
0.0
 11
18.975103
 21
7.354847
 31
0.0
  0
LINE
  5
4CA
100
AcDbEntity
  8
BORDER
  6
CONTINUOUS
 62
     2
100
AcDbLine
 39
46.08
 10
19.200063
 20
7.354847
 30
0.0
 11
19.200063
 21
7.354847
 31
0.0
  0
LINE
  5
4CB
100
AcDbEntity
  8
BORDER
  6
CONTINUOUS
 62
     2
100
AcDbLine
 39
46.08
 10
19.425087
 20
7.354847
 30
0.0
 11
19.425087
 21
7.354847
 31
0.0
  0
LINE
  5
4CC
100
AcDbEntity
  8
BORDER
  6
CONTINUOUS
 62
     2
100
AcDbLine
 39
46.08
 10
18.637567
 20
7.129823
 30
0.0
 11
18.637567
 21
7.129823
 31
0.0
  0
LINE
  5
4CD
100
AcDbEntity
  8
BORDER
  6
CONTINUOUS
 62
     2
100
AcDbLine
 39
46.08
 10
18.862591
 20
7.129823
 30
0.0
 11
18.862591
 21
7.129823
 31
0.0
  0
LINE
  5
4CE
100
AcDbEntity
  8
BORDER
  6
CONTINUOUS
 62
     2
100
AcDbLine
 39
46.08
 10
19.087615
 20
7.129823
 30
0.0
 11
19.087615
 21
7.129823
 31
0.0
  0
LINE
  5
4CF
100
AcDbEntity
  8
BORDER
  6
CONTINUOUS
 62
     2
100
AcDbLine
 39
46.08
 10
19.312575
 20
7.129823
 30
0.0
 11
19.312575
 21
7.129823
 31
0.0
  0
LINE
  5
4D0
100
AcDbEntity
  8
BORDER
  6
CONTINUOUS
 62
     2
100
AcDbLine
 39
46.08
 10
18.750079
 20
6.904863
 30
0.0
 11
18.750079
 21
6.904863
 31
0.0
  0
LINE
  5
4D1
100
AcDbEntity
  8
BORDER
  6
CONTINUOUS
 62
     2
100
AcDbLine
 39
46.08
 10
18.975103
 20
6.904863
 30
0.0
 11
18.975103
 21
6.904863
 31
0.0
  0
LINE
  5
4D2
100
AcDbEntity
  8
BORDER
  6
CONTINUOUS
 62
     2
100
AcDbLine
 39
46.08
 10
19.200063
 20
6.904863
 30
0.0
 11
19.200063
 21
6.904863
 31
0.0
  0
LINE
  5
4D3
100
AcDbEntity
  8
BORDER
  6
CONTINUOUS
 62
     2
100
AcDbLine
 39
46.08
 10
19.425087
 20
6.904863
 30
0.0
 11
19.425087
 21
6.904863
 31
0.0
  0
LINE
  5
4D4
100
AcDbEntity
  8
BORDER
  6
CONTINUOUS
 62
     1
100
AcDbLine
 39
46.08
 10
20.930495
 20
8.183903
 30
0.0
 11
20.951551
 21
8.191583
 31
0.0
  0
LINE
  5
4D5
100
AcDbEntity
  8
BORDER
  6
CONTINUOUS
 62
     1
100
AcDbLine
 39
46.08
 10
21.162751
 20
8.288223
 30
0.0
 11
21.175423
 21
8.306655
 31
0.0
  0
LINE
  5
4D6
100
AcDbEntity
  8
BORDER
  6
CONTINUOUS
 62
     1
100
AcDbLine
 39
46.08
 10
20.905855
 20
8.200351
 30
0.0
 11
20.909631
 21
8.222495
 31
0.0
  0
TEXT
  5
4D7
100
AcDbEntity
  8
BORDER
  6
CONTINUOUS
 62
     1
100
AcDbText
 10
-0.137109
 20
0.23994
 30
0.0
 40
0.71982
  1
REQUIRED, PER DESIGN)
  7
ROMAN
100
AcDbText
  0
TEXT
  5
4D8
100
AcDbEntity
  8
BORDER
  6
CONTINUOUS
 62
     1
100
AcDbText
 10
-0.137109
 20
5.573501
 30
0.0
 40
0.71982
  1
REQUIRED, PER DESIGN)
  7
ROMAN
100
AcDbText
  0
TEXT
  5
4D9
100
AcDbEntity
  8
BORDER
  6
CONTINUOUS
 62
     1
100
AcDbText
 10
5.706315
 20
2.989342
 30
0.0
 40
0.71982
  1
HORIZ. REINF.
  7
ROMAN
100
AcDbText
  0
TEXT
  5
4DA
100
AcDbEntity
  8
BORDER
  6
CONTINUOUS
 62
     1
100
AcDbText
 10
1.129908
 20
6.801372
 30
0.0
 40
0.71982
  1
(MIN. #4 @ 30" O.C.
  7
ROMAN
100
AcDbText
  0
TEXT
  5
4DB
100
AcDbEntity
  8
BORDER
  6
CONTINUOUS
 62
     1
100
AcDbText
 10
1.174353
 20
1.633205
 30
0.0
 40
0.71982
  1
(MIN. #4 @ 30" O.C.
  7
ROMAN
100
AcDbText
  0
CIRCLE
  5
4DC
100
AcDbEntity
  8
BORDER
  6
CONTINUOUS
 62
    14
100
AcDbCircle
 39
46.08
 10
20.948336
 20
9.430174
 30
0.0
 40
0.24
  0
LINE
  5
4DD
100
AcDbEntity
  8
BORDER
  6
CONTINUOUS
 62
    11
100
AcDbLine
 39
46.08
 10
20.441343
 20
15.363615
 30
0.0
 11
20.456319
 21
15.348639
 31
0.0
  0
LINE
  5
4DE
100
AcDbEntity
  8
BORDER
  6
CONTINUOUS
 62
    14
100
AcDbLine
 39
46.08
 10
18.518975
 20
16.498143
 30
0.0
 11
10.737727
 21
13.904415
 31
0.0
  0
CIRCLE
  5
4DF
100
AcDbEntity
  8
BORDER
  6
CONTINUOUS
 62
    14
100
AcDbCircle
 39
46.08
 10
20.948336
 20
15.983135
 30
0.0
 40
0.24
  0
LINE
  5
4E0
100
AcDbEntity
  8
BORDER
  6
CONTINUOUS
 62
    14
100
AcDbLine
 39
46.08
 10
19.435391
 20
16.645023
 30
0.0
 11
19.436406
 21
19.58678
 31
0.0
  0
LINE
  5
4E1
100
AcDbEntity
  8
BORDER
  6
CONTINUOUS
 62
     1
100
AcDbLine
 39
34.559136
 10
21.107836
 20
17.373599
 30
0.0
 11
21.107836
 21
17.621087
 31
0.0
  0
LINE
  5
4E2
100
AcDbEntity
  8
BORDER
  6
CONTINUOUS
 62
     1
100
AcDbLine
 39
34.559136
 10
21.22502
 20
17.373599
 30
0.0
 11
21.22502
 21
17.554335
 31
0.0
  0
LINE
  5
4E3
100
AcDbEntity
  8
BORDER
  6
CONTINUOUS
 62
     1
100
AcDbLine
 39
34.559136
 10
21.570492
 20
17.373599
 30
0.0
 11
21.570492
 21
17.554335
 31
0.0
  0
LINE
  5
4E4
100
AcDbEntity
  8
BORDER
  6
CONTINUOUS
 62
     1
100
AcDbLine
 39
34.559136
 10
21.22502
 20
17.554335
 30
0.0
 11
21.173884
 21
17.621087
 31
0.0
  0
LINE
  5
4E5
100
AcDbEntity
  8
BORDER
  6
CONTINUOUS
 62
     1
100
AcDbLine
 39
34.559136
 10
21.22502
 20
17.554335
 30
0.0
 11
21.275644
 21
17.621087
 31
0.0
  0
LINE
  5
4E6
100
AcDbEntity
  8
BORDER
  6
CONTINUOUS
 62
     1
100
AcDbLine
 39
34.559136
 10
21.570492
 20
17.554335
 30
0.0
 11
21.519612
 21
17.621087
 31
0.0
  0
LINE
  5
4E7
100
AcDbEntity
  8
BORDER
  6
CONTINUOUS
 62
     1
100
AcDbLine
 39
34.559136
 10
21.570492
 20
17.554335
 30
0.0
 11
21.621116
 21
17.621087
 31
0.0
  0
LINE
  5
4E8
100
AcDbEntity
  8
BORDER
  6
CONTINUOUS
 62
     1
100
AcDbLine
 39
34.559136
 10
21.580348
 20
17.621087
 30
0.0
 11
21.580348
 21
17.870175
 31
0.0
  0
LINE
  5
4E9
100
AcDbEntity
  8
BORDER
  6
CONTINUOUS
 62
     1
100
AcDbLine
 39
34.559136
 10
21.580348
 20
17.870175
 30
0.0
 11
21.220348
 21
17.870175
 31
0.0
  0
LINE
  5
4EA
100
AcDbEntity
  8
BORDER
  6
CONTINUOUS
 62
     1
100
AcDbLine
 39
34.559136
 10
21.220348
 20
17.870175
 30
0.0
 11
21.220348
 21
17.621087
 31
0.0
  0
LINE
  5
4EB
100
AcDbEntity
  8
BORDER
  6
CONTINUOUS
 62
     1
100
AcDbLine
 39
34.559136
 10
21.107836
 20
17.621087
 30
0.0
 11
21.692604
 21
17.621087
 31
0.0
  0
LINE
  5
4EC
100
AcDbEntity
  8
BORDER
  6
CONTINUOUS
 62
     1
100
AcDbLine
 39
34.559136
 10
21.692604
 20
17.621087
 30
0.0
 11
21.692604
 21
17.373599
 31
0.0
  0
ARC
  5
4ED
100
AcDbEntity
  8
BORDER
  6
CONTINUOUS
 62
    15
100
AcDbCircle
 39
46.078848
 10
21.220092
 20
13.651167
 30
0.0
 40
0.359991
100
AcDbArc
 50
270.0
 51
0.0
  0
ARC
  5
4EE
100
AcDbEntity
  8
BORDER
  6
CONTINUOUS
 62
    15
100
AcDbCircle
 39
46.078848
 10
21.040124
 20
13.831135
 30
0.0
 40
0.179996
100
AcDbArc
 50
270.0
 51
0.0
  0
LINE
  5
4EF
100
AcDbEntity
  8
BORDER
  6
CONTINUOUS
 62
    15
100
AcDbLine
 39
46.078848
 10
21.040124
 20
13.651167
 30
0.0
 11
20.611452
 21
13.651167
 31
0.0
  0
LINE
  5
4F0
100
AcDbEntity
  8
BORDER
  6
CONTINUOUS
 62
    15
100
AcDbLine
 39
46.078848
 10
20.611452
 20
13.651167
 30
0.0
 11
20.611452
 21
13.291167
 31
0.0
  0
LINE
  5
4F1
100
AcDbEntity
  8
BORDER
  6
CONTINUOUS
 62
    15
100
AcDbLine
 39
46.078848
 10
21.220092
 20
13.291167
 30
0.0
 11
20.611452
 21
13.291167
 31
0.0
  0
LINE
  5
4F2
100
AcDbEntity
  8
BORDER
  6
CONTINUOUS
 62
    15
100
AcDbLine
 39
46.078848
 10
21.580092
 20
17.373599
 30
0.0
 11
21.580092
 21
13.651167
 31
0.0
  0
LINE
  5
4F3
100
AcDbEntity
  8
BORDER
  6
CONTINUOUS
 62
    15
100
AcDbLine
 39
46.078848
 10
21.220092
 20
17.373599
 30
0.0
 11
21.220092
 21
13.831135
 31
0.0
  0
LINE
  5
4F4
100
AcDbEntity
  8
BORDER
  6
CONTINUOUS
 62
     1
100
AcDbLine
 39
46.08
 10
10.650111
 20
16.658079
 30
0.0
 11
11.219391
 21
17.227295
 31
0.0
  0
LINE
  5
4F5
100
AcDbEntity
  8
BORDER
  6
CONTINUOUS
 62
     1
100
AcDbLine
 39
46.08
 10
12.082111
 20
17.135327
 30
0.0
 11
12.651199
 21
17.704607
 31
0.0
  0
LINE
  5
4F6
100
AcDbEntity
  8
BORDER
  6
CONTINUOUS
 62
     1
100
AcDbLine
 39
46.08
 10
13.513919
 20
17.612639
 30
0.0
 11
14.083199
 21
18.181855
 31
0.0
  0
LINE
  5
4F7
100
AcDbEntity
  8
BORDER
  6
CONTINUOUS
 62
     1
100
AcDbLine
 39
46.08
 10
14.945727
 20
18.089951
 30
0.0
 11
15.515007
 21
18.659167
 31
0.0
  0
LINE
  5
4F8
100
AcDbEntity
  8
BORDER
  6
CONTINUOUS
 62
     1
100
AcDbLine
 39
46.08
 10
16.377727
 20
18.567263
 30
0.0
 11
16.946815
 21
19.136415
 31
0.0
  0
LINE
  5
4F9
100
AcDbEntity
  8
BORDER
  6
CONTINUOUS
 62
     1
100
AcDbLine
 39
46.08
 10
17.809535
 20
19.044511
 30
0.0
 11
18.378815
 21
19.613727
 31
0.0
  0
LINE
  5
4FA
100
AcDbEntity
  8
BORDER
  6
CONTINUOUS
 62
     1
100
AcDbLine
 39
46.08
 10
19.241343
 20
19.521823
 30
0.0
 11
19.810623
 21
20.091039
 31
0.0
  0
LINE
  5
4FB
100
AcDbEntity
  8
BORDER
  6
CONTINUOUS
 62
     1
100
AcDbLine
 39
46.08
 10
20.673343
 20
19.999135
 30
0.0
 11
21.242431
 21
20.568287
 31
0.0
  0
LINE
  5
4FC
100
AcDbEntity
  8
BORDER
  6
CONTINUOUS
 62
    14
100
AcDbLine
 39
46.08
 10
10.017727
 20
16.826719
 30
0.0
 11
10.017727
 21
12.007199
 31
0.0
  0
LINE
  5
4FD
100
AcDbEntity
  8
BORDER
  6
CONTINUOUS
 62
    14
100
AcDbLine
 39
46.08
 10
10.737727
 20
16.687199
 30
0.0
 11
10.737727
 21
12.007199
 31
0.0
  0
LINE
  5
4FE
100
AcDbEntity
  8
BORDER
  6
CONTINUOUS
 62
    14
100
AcDbLine
 39
46.08
 10
10.017727
 20
12.007199
 30
0.0
 11
10.737727
 21
12.007199
 31
0.0
  0
LINE
  5
4FF
100
AcDbEntity
  8
BORDER
  6
CONTINUOUS
 62
    14
100
AcDbLine
 39
46.08
 10
10.737727
 20
16.687199
 30
0.0
 11
10.017727
 21
12.007199
 31
0.0
  0
LINE
  5
500
100
AcDbEntity
  8
BORDER
  6
CONTINUOUS
 62
    14
100
AcDbLine
 39
46.08
 10
10.737727
 20
12.007199
 30
0.0
 11
10.017727
 21
16.447199
 31
0.0
  0
LINE
  5
501
100
AcDbEntity
  8
BORDER
  6
CONTINUOUS
 62
     3
100
AcDbLine
 39
46.08
 10
18.535423
 20
9.445023
 30
0.0
 11
19.435391
 21
9.445023
 31
0.0
  0
LINE
  5
502
100
AcDbEntity
  8
BORDER
  6
CONTINUOUS
 62
     3
100
AcDbLine
 39
46.08
 10
18.535423
 20
16.645023
 30
0.0
 11
18.535423
 21
9.445023
 31
0.0
  0
LINE
  5
503
100
AcDbEntity
  8
BORDER
  6
CONTINUOUS
 62
     3
100
AcDbLine
 39
46.08
 10
19.435391
 20
16.645023
 30
0.0
 11
19.435391
 21
9.445023
 31
0.0
  0
LINE
  5
504
100
AcDbEntity
  8
BORDER
  6
CONTINUOUS
 62
     3
100
AcDbLine
 39
46.08
 10
19.435391
 20
16.645023
 30
0.0
 11
18.535423
 21
16.645023
 31
0.0
  0
LINE
  5
505
100
AcDbEntity
  8
BORDER
  6
CONTINUOUS
 62
     1
100
AcDbLine
 39
46.08
 10
20.409023
 20
15.055967
 30
0.0
 11
20.437119
 21
15.066207
 31
0.0
  0
LINE
  5
506
100
AcDbEntity
  8
BORDER
  6
CONTINUOUS
 62
     1
100
AcDbLine
 39
46.08
 10
19.691583
 20
13.517855
 30
0.0
 11
19.719935
 21
13.528159
 31
0.0
  0
LINE
  5
507
100
AcDbEntity
  8
BORDER
  6
CONTINUOUS
 62
     1
100
AcDbLine
 39
46.08
 10
21.641343
 20
13.928287
 30
0.0
 11
21.669695
 21
13.938591
 31
0.0
  0
LINE
  5
508
100
AcDbEntity
  8
BORDER
  6
CONTINUOUS
 62
     1
100
AcDbLine
 39
46.08
 10
21.946943
 20
14.338719
 30
0.0
 11
21.975103
 21
14.348959
 31
0.0
  0
LINE
  5
509
100
AcDbEntity
  8
BORDER
  6
CONTINUOUS
 62
     1
100
AcDbLine
 39
46.08
 10
20.101951
 20
12.390239
 30
0.0
 11
20.130111
 21
12.400479
 31
0.0
  0
LINE
  5
50A
100
AcDbEntity
  8
BORDER
  6
CONTINUOUS
 62
     1
100
AcDbLine
 39
46.08
 10
21.229759
 20
12.800671
 30
0.0
 11
21.257919
 21
12.810911
 31
0.0
  0
LINE
  5
50B
100
AcDbEntity
  8
BORDER
  6
CONTINUOUS
 62
     1
100
AcDbLine
 39
46.08
 10
20.512383
 20
11.262623
 30
0.0
 11
20.540735
 21
11.272863
 31
0.0
  0
LINE
  5
50C
100
AcDbEntity
  8
BORDER
  6
CONTINUOUS
 62
     1
100
AcDbLine
 39
46.08
 10
21.639935
 20
11.673055
 30
0.0
 11
21.668287
 21
11.683295
 31
0.0
  0
LINE
  5
50D
100
AcDbEntity
  8
BORDER
  6
CONTINUOUS
 62
     1
100
AcDbLine
 39
46.08
 10
22.050303
 20
10.545439
 30
0.0
 11
22.078655
 21
10.555679
 31
0.0
  0
LINE
  5
50E
100
AcDbEntity
  8
BORDER
  6
CONTINUOUS
 62
     1
100
AcDbLine
 39
46.08
 10
19.814591
 20
15.464863
 30
0.0
 11
19.831935
 21
15.489439
 31
0.0
  0
LINE
  5
50F
100
AcDbEntity
  8
BORDER
  6
CONTINUOUS
 62
     1
100
AcDbLine
 39
46.08
 10
21.36422
 20
13.793567
 30
0.0
 11
21.381564
 21
13.818143
 31
0.0
  0
LINE
  5
510
100
AcDbEntity
  8
BORDER
  6
CONTINUOUS
 62
     1
100
AcDbLine
 39
46.08
 10
20.797823
 20
14.776543
 30
0.0
 11
20.814911
 21
14.801119
 31
0.0
  0
LINE
  5
511
100
AcDbEntity
  8
BORDER
  6
CONTINUOUS
 62
     1
100
AcDbLine
 39
46.08
 10
19.715711
 20
11.139359
 30
0.0
 11
19.733055
 21
11.163935
 31
0.0
  0
LINE
  5
512
100
AcDbEntity
  8
BORDER
  6
CONTINUOUS
 62
     1
100
AcDbLine
 39
46.08
 10
20.404095
 20
12.122335
 30
0.0
 11
20.421183
 21
12.146911
 31
0.0
  0
LINE
  5
513
100
AcDbEntity
  8
BORDER
  6
CONTINUOUS
 62
     1
100
AcDbLine
 39
46.08
 10
21.092415
 20
13.105311
 30
0.0
 11
21.109759
 21
13.129887
 31
0.0
  0
LINE
  5
514
100
AcDbEntity
  8
BORDER
  6
CONTINUOUS
 62
     1
100
AcDbLine
 39
46.08
 10
21.780799
 20
14.088287
 30
0.0
 11
21.797887
 21
14.112863
 31
0.0
  0
LINE
  5
515
100
AcDbEntity
  8
BORDER
  6
CONTINUOUS
 62
     1
100
AcDbLine
 39
46.08
 10
21.387071
 20
11.434015
 30
0.0
 11
21.404159
 21
11.458655
 31
0.0
  0
LINE
  5
516
100
AcDbEntity
  8
BORDER
  6
CONTINUOUS
 62
     1
100
AcDbLine
 39
46.08
 10
22.075391
 20
12.417055
 30
0.0
 11
22.092735
 21
12.441567
 31
0.0
  0
LINE
  5
517
100
AcDbEntity
  8
BORDER
  6
CONTINUOUS
 62
     1
100
AcDbLine
 39
46.08
 10
19.487423
 20
15.685983
 30
0.0
 11
19.492607
 21
15.715487
 31
0.0
  0
LINE
  5
518
100
AcDbEntity
  8
BORDER
  6
CONTINUOUS
 62
     1
100
AcDbLine
 39
46.08
 10
19.835711
 20
10.750495
 30
0.0
 11
19.840895
 21
10.780063
 31
0.0
  0
LINE
  5
519
100
AcDbEntity
  8
BORDER
  6
CONTINUOUS
 62
     1
100
AcDbLine
 39
46.08
 10
20.044287
 20
11.932319
 30
0.0
 11
20.049471
 21
11.961823
 31
0.0
  0
LINE
  5
51A
100
AcDbEntity
  8
BORDER
  6
CONTINUOUS
 62
     1
100
AcDbLine
 39
46.08
 10
20.252415
 20
13.114079
 30
0.0
 11
20.257599
 21
13.143583
 31
0.0
  0
LINE
  5
51B
100
AcDbEntity
  8
BORDER
  6
CONTINUOUS
 62
     1
100
AcDbLine
 39
46.08
 10
20.461055
 20
14.295839
 30
0.0
 11
20.466175
 21
14.325407
 31
0.0
  0
LINE
  5
51C
100
AcDbEntity
  8
BORDER
  6
CONTINUOUS
 62
     1
100
AcDbLine
 39
46.08
 10
21.225791
 20
11.723935
 30
0.0
 11
21.230975
 21
11.753439
 31
0.0
  0
LINE
  5
51D
100
AcDbEntity
  8
BORDER
  6
CONTINUOUS
 62
     1
100
AcDbLine
 39
46.08
 10
21.434175
 20
12.905695
 30
0.0
 11
21.439295
 21
12.935263
 31
0.0
  0
LINE
  5
51E
100
AcDbEntity
  8
BORDER
  6
CONTINUOUS
 62
     1
100
AcDbLine
 39
46.08
 10
21.642495
 20
14.087519
 30
0.0
 11
21.647679
 21
14.117023
 31
0.0
  0
LINE
  5
51F
100
AcDbEntity
  8
BORDER
  6
CONTINUOUS
 62
     1
100
AcDbLine
 39
46.08
 10
21.850879
 20
15.269279
 30
0.0
 11
21.855999
 21
15.298783
 31
0.0
  0
LINE
  5
520
100
AcDbEntity
  8
BORDER
  6
CONTINUOUS
 62
     2
100
AcDbLine
 39
46.08
 10
18.637567
 20
16.579807
 30
0.0
 11
18.637567
 21
16.579807
 31
0.0
  0
LINE
  5
521
100
AcDbEntity
  8
BORDER
  6
CONTINUOUS
 62
     2
100
AcDbLine
 39
46.08
 10
18.862591
 20
16.579807
 30
0.0
 11
18.862591
 21
16.579807
 31
0.0
  0
LINE
  5
522
100
AcDbEntity
  8
BORDER
  6
CONTINUOUS
 62
     2
100
AcDbLine
 39
46.08
 10
19.087615
 20
16.579807
 30
0.0
 11
19.087615
 21
16.579807
 31
0.0
  0
LINE
  5
523
100
AcDbEntity
  8
BORDER
  6
CONTINUOUS
 62
     2
100
AcDbLine
 39
46.08
 10
19.312575
 20
16.579807
 30
0.0
 11
19.312575
 21
16.579807
 31
0.0
  0
LINE
  5
524
100
AcDbEntity
  8
BORDER
  6
CONTINUOUS
 62
     2
100
AcDbLine
 39
46.08
 10
18.750079
 20
16.354847
 30
0.0
 11
18.750079
 21
16.354847
 31
0.0
  0
LINE
  5
525
100
AcDbEntity
  8
BORDER
  6
CONTINUOUS
 62
     2
100
AcDbLine
 39
46.08
 10
18.975103
 20
16.354847
 30
0.0
 11
18.975103
 21
16.354847
 31
0.0
  0
LINE
  5
526
100
AcDbEntity
  8
BORDER
  6
CONTINUOUS
 62
     2
100
AcDbLine
 39
46.08
 10
19.200063
 20
16.354847
 30
0.0
 11
19.200063
 21
16.354847
 31
0.0
  0
LINE
  5
527
100
AcDbEntity
  8
BORDER
  6
CONTINUOUS
 62
     2
100
AcDbLine
 39
46.08
 10
19.425087
 20
16.354847
 30
0.0
 11
19.425087
 21
16.354847
 31
0.0
  0
LINE
  5
528
100
AcDbEntity
  8
BORDER
  6
CONTINUOUS
 62
     2
100
AcDbLine
 39
46.08
 10
18.637567
 20
16.129823
 30
0.0
 11
18.637567
 21
16.129823
 31
0.0
  0
LINE
  5
529
100
AcDbEntity
  8
BORDER
  6
CONTINUOUS
 62
     2
100
AcDbLine
 39
46.08
 10
18.862591
 20
16.129823
 30
0.0
 11
18.862591
 21
16.129823
 31
0.0
  0
LINE
  5
52A
100
AcDbEntity
  8
BORDER
  6
CONTINUOUS
 62
     2
100
AcDbLine
 39
46.08
 10
19.087615
 20
16.129823
 30
0.0
 11
19.087615
 21
16.129823
 31
0.0
  0
LINE
  5
52B
100
AcDbEntity
  8
BORDER
  6
CONTINUOUS
 62
     2
100
AcDbLine
 39
46.08
 10
19.312575
 20
16.129823
 30
0.0
 11
19.312575
 21
16.129823
 31
0.0
  0
LINE
  5
52C
100
AcDbEntity
  8
BORDER
  6
CONTINUOUS
 62
     2
100
AcDbLine
 39
46.08
 10
18.750079
 20
15.904863
 30
0.0
 11
18.750079
 21
15.904863
 31
0.0
  0
LINE
  5
52D
100
AcDbEntity
  8
BORDER
  6
CONTINUOUS
 62
     2
100
AcDbLine
 39
46.08
 10
18.975103
 20
15.904863
 30
0.0
 11
18.975103
 21
15.904863
 31
0.0
  0
LINE
  5
52E
100
AcDbEntity
  8
BORDER
  6
CONTINUOUS
 62
     2
100
AcDbLine
 39
46.08
 10
19.200063
 20
15.904863
 30
0.0
 11
19.200063
 21
15.904863
 31
0.0
  0
LINE
  5
52F
100
AcDbEntity
  8
BORDER
  6
CONTINUOUS
 62
     2
100
AcDbLine
 39
46.08
 10
19.425087
 20
15.904863
 30
0.0
 11
19.425087
 21
15.904863
 31
0.0
  0
LINE
  5
530
100
AcDbEntity
  8
BORDER
  6
CONTINUOUS
 62
     2
100
AcDbLine
 39
46.08
 10
18.637567
 20
15.679839
 30
0.0
 11
18.637567
 21
15.679839
 31
0.0
  0
LINE
  5
531
100
AcDbEntity
  8
BORDER
  6
CONTINUOUS
 62
     2
100
AcDbLine
 39
46.08
 10
18.862591
 20
15.679839
 30
0.0
 11
18.862591
 21
15.679839
 31
0.0
  0
LINE
  5
532
100
AcDbEntity
  8
BORDER
  6
CONTINUOUS
 62
     2
100
AcDbLine
 39
46.08
 10
19.087615
 20
15.679839
 30
0.0
 11
19.087615
 21
15.679839
 31
0.0
  0
LINE
  5
533
100
AcDbEntity
  8
BORDER
  6
CONTINUOUS
 62
     2
100
AcDbLine
 39
46.08
 10
19.312575
 20
15.679839
 30
0.0
 11
19.312575
 21
15.679839
 31
0.0
  0
LINE
  5
534
100
AcDbEntity
  8
BORDER
  6
CONTINUOUS
 62
     2
100
AcDbLine
 39
46.08
 10
18.750079
 20
15.454815
 30
0.0
 11
18.750079
 21
15.454815
 31
0.0
  0
LINE
  5
535
100
AcDbEntity
  8
BORDER
  6
CONTINUOUS
 62
     2
100
AcDbLine
 39
46.08
 10
18.975103
 20
15.454815
 30
0.0
 11
18.975103
 21
15.454815
 31
0.0
  0
LINE
  5
536
100
AcDbEntity
  8
BORDER
  6
CONTINUOUS
 62
     2
100
AcDbLine
 39
46.08
 10
19.200063
 20
15.454815
 30
0.0
 11
19.200063
 21
15.454815
 31
0.0
  0
LINE
  5
537
100
AcDbEntity
  8
BORDER
  6
CONTINUOUS
 62
     2
100
AcDbLine
 39
46.08
 10
19.425087
 20
15.454815
 30
0.0
 11
19.425087
 21
15.454815
 31
0.0
  0
LINE
  5
538
100
AcDbEntity
  8
BORDER
  6
CONTINUOUS
 62
     2
100
AcDbLine
 39
46.08
 10
18.637567
 20
15.229855
 30
0.0
 11
18.637567
 21
15.229855
 31
0.0
  0
LINE
  5
539
100
AcDbEntity
  8
BORDER
  6
CONTINUOUS
 62
     2
100
AcDbLine
 39
46.08
 10
18.862591
 20
15.229855
 30
0.0
 11
18.862591
 21
15.229855
 31
0.0
  0
LINE
  5
53A
100
AcDbEntity
  8
BORDER
  6
CONTINUOUS
 62
     2
100
AcDbLine
 39
46.08
 10
19.087615
 20
15.229855
 30
0.0
 11
19.087615
 21
15.229855
 31
0.0
  0
LINE
  5
53B
100
AcDbEntity
  8
BORDER
  6
CONTINUOUS
 62
     2
100
AcDbLine
 39
46.08
 10
19.312575
 20
15.229855
 30
0.0
 11
19.312575
 21
15.229855
 31
0.0
  0
LINE
  5
53C
100
AcDbEntity
  8
BORDER
  6
CONTINUOUS
 62
     2
100
AcDbLine
 39
46.08
 10
18.750079
 20
15.004831
 30
0.0
 11
18.750079
 21
15.004831
 31
0.0
  0
LINE
  5
53D
100
AcDbEntity
  8
BORDER
  6
CONTINUOUS
 62
     2
100
AcDbLine
 39
46.08
 10
18.975103
 20
15.004831
 30
0.0
 11
18.975103
 21
15.004831
 31
0.0
  0
LINE
  5
53E
100
AcDbEntity
  8
BORDER
  6
CONTINUOUS
 62
     2
100
AcDbLine
 39
46.08
 10
19.200063
 20
15.004831
 30
0.0
 11
19.200063
 21
15.004831
 31
0.0
  0
LINE
  5
53F
100
AcDbEntity
  8
BORDER
  6
CONTINUOUS
 62
     2
100
AcDbLine
 39
46.08
 10
19.425087
 20
15.004831
 30
0.0
 11
19.425087
 21
15.004831
 31
0.0
  0
LINE
  5
540
100
AcDbEntity
  8
BORDER
  6
CONTINUOUS
 62
     2
100
AcDbLine
 39
46.08
 10
18.637567
 20
14.779807
 30
0.0
 11
18.637567
 21
14.779807
 31
0.0
  0
LINE
  5
541
100
AcDbEntity
  8
BORDER
  6
CONTINUOUS
 62
     2
100
AcDbLine
 39
46.08
 10
18.862591
 20
14.779807
 30
0.0
 11
18.862591
 21
14.779807
 31
0.0
  0
LINE
  5
542
100
AcDbEntity
  8
BORDER
  6
CONTINUOUS
 62
     2
100
AcDbLine
 39
46.08
 10
19.087615
 20
14.779807
 30
0.0
 11
19.087615
 21
14.779807
 31
0.0
  0
LINE
  5
543
100
AcDbEntity
  8
BORDER
  6
CONTINUOUS
 62
     2
100
AcDbLine
 39
46.08
 10
19.312575
 20
14.779807
 30
0.0
 11
19.312575
 21
14.779807
 31
0.0
  0
LINE
  5
544
100
AcDbEntity
  8
BORDER
  6
CONTINUOUS
 62
     2
100
AcDbLine
 39
46.08
 10
18.750079
 20
14.554847
 30
0.0
 11
18.750079
 21
14.554847
 31
0.0
  0
LINE
  5
545
100
AcDbEntity
  8
BORDER
  6
CONTINUOUS
 62
     2
100
AcDbLine
 39
46.08
 10
18.975103
 20
14.554847
 30
0.0
 11
18.975103
 21
14.554847
 31
0.0
  0
LINE
  5
546
100
AcDbEntity
  8
BORDER
  6
CONTINUOUS
 62
     2
100
AcDbLine
 39
46.08
 10
19.200063
 20
14.554847
 30
0.0
 11
19.200063
 21
14.554847
 31
0.0
  0
LINE
  5
547
100
AcDbEntity
  8
BORDER
  6
CONTINUOUS
 62
     2
100
AcDbLine
 39
46.08
 10
19.425087
 20
14.554847
 30
0.0
 11
19.425087
 21
14.554847
 31
0.0
  0
LINE
  5
548
100
AcDbEntity
  8
BORDER
  6
CONTINUOUS
 62
     2
100
AcDbLine
 39
46.08
 10
18.637567
 20
14.329823
 30
0.0
 11
18.637567
 21
14.329823
 31
0.0
  0
LINE
  5
549
100
AcDbEntity
  8
BORDER
  6
CONTINUOUS
 62
     2
100
AcDbLine
 39
46.08
 10
18.862591
 20
14.329823
 30
0.0
 11
18.862591
 21
14.329823
 31
0.0
  0
LINE
  5
54A
100
AcDbEntity
  8
BORDER
  6
CONTINUOUS
 62
     2
100
AcDbLine
 39
46.08
 10
19.087615
 20
14.329823
 30
0.0
 11
19.087615
 21
14.329823
 31
0.0
  0
LINE
  5
54B
100
AcDbEntity
  8
BORDER
  6
CONTINUOUS
 62
     2
100
AcDbLine
 39
46.08
 10
19.312575
 20
14.329823
 30
0.0
 11
19.312575
 21
14.329823
 31
0.0
  0
LINE
  5
54C
100
AcDbEntity
  8
BORDER
  6
CONTINUOUS
 62
     2
100
AcDbLine
 39
46.08
 10
18.750079
 20
14.104863
 30
0.0
 11
18.750079
 21
14.104863
 31
0.0
  0
LINE
  5
54D
100
AcDbEntity
  8
BORDER
  6
CONTINUOUS
 62
     2
100
AcDbLine
 39
46.08
 10
18.975103
 20
14.104863
 30
0.0
 11
18.975103
 21
14.104863
 31
0.0
  0
LINE
  5
54E
100
AcDbEntity
  8
BORDER
  6
CONTINUOUS
 62
     2
100
AcDbLine
 39
46.08
 10
19.200063
 20
14.104863
 30
0.0
 11
19.200063
 21
14.104863
 31
0.0
  0
LINE
  5
54F
100
AcDbEntity
  8
BORDER
  6
CONTINUOUS
 62
     2
100
AcDbLine
 39
46.08
 10
19.425087
 20
14.104863
 30
0.0
 11
19.425087
 21
14.104863
 31
0.0
  0
LINE
  5
550
100
AcDbEntity
  8
BORDER
  6
CONTINUOUS
 62
     2
100
AcDbLine
 39
46.08
 10
18.637567
 20
13.879839
 30
0.0
 11
18.637567
 21
13.879839
 31
0.0
  0
LINE
  5
551
100
AcDbEntity
  8
BORDER
  6
CONTINUOUS
 62
     2
100
AcDbLine
 39
46.08
 10
18.862591
 20
13.879839
 30
0.0
 11
18.862591
 21
13.879839
 31
0.0
  0
LINE
  5
552
100
AcDbEntity
  8
BORDER
  6
CONTINUOUS
 62
     2
100
AcDbLine
 39
46.08
 10
19.087615
 20
13.879839
 30
0.0
 11
19.087615
 21
13.879839
 31
0.0
  0
LINE
  5
553
100
AcDbEntity
  8
BORDER
  6
CONTINUOUS
 62
     2
100
AcDbLine
 39
46.08
 10
19.312575
 20
13.879839
 30
0.0
 11
19.312575
 21
13.879839
 31
0.0
  0
LINE
  5
554
100
AcDbEntity
  8
BORDER
  6
CONTINUOUS
 62
     2
100
AcDbLine
 39
46.08
 10
18.750079
 20
13.654815
 30
0.0
 11
18.750079
 21
13.654815
 31
0.0
  0
LINE
  5
555
100
AcDbEntity
  8
BORDER
  6
CONTINUOUS
 62
     2
100
AcDbLine
 39
46.08
 10
18.975103
 20
13.654815
 30
0.0
 11
18.975103
 21
13.654815
 31
0.0
  0
LINE
  5
556
100
AcDbEntity
  8
BORDER
  6
CONTINUOUS
 62
     2
100
AcDbLine
 39
46.08
 10
19.200063
 20
13.654815
 30
0.0
 11
19.200063
 21
13.654815
 31
0.0
  0
LINE
  5
557
100
AcDbEntity
  8
BORDER
  6
CONTINUOUS
 62
     2
100
AcDbLine
 39
46.08
 10
19.425087
 20
13.654815
 30
0.0
 11
19.425087
 21
13.654815
 31
0.0
  0
LINE
  5
558
100
AcDbEntity
  8
BORDER
  6
CONTINUOUS
 62
     2
100
AcDbLine
 39
46.08
 10
18.637567
 20
13.429855
 30
0.0
 11
18.637567
 21
13.429855
 31
0.0
  0
LINE
  5
559
100
AcDbEntity
  8
BORDER
  6
CONTINUOUS
 62
     2
100
AcDbLine
 39
46.08
 10
18.862591
 20
13.429855
 30
0.0
 11
18.862591
 21
13.429855
 31
0.0
  0
LINE
  5
55A
100
AcDbEntity
  8
BORDER
  6
CONTINUOUS
 62
     2
100
AcDbLine
 39
46.08
 10
19.087615
 20
13.429855
 30
0.0
 11
19.087615
 21
13.429855
 31
0.0
  0
LINE
  5
55B
100
AcDbEntity
  8
BORDER
  6
CONTINUOUS
 62
     2
100
AcDbLine
 39
46.08
 10
19.312575
 20
13.429855
 30
0.0
 11
19.312575
 21
13.429855
 31
0.0
  0
LINE
  5
55C
100
AcDbEntity
  8
BORDER
  6
CONTINUOUS
 62
     2
100
AcDbLine
 39
46.08
 10
18.750079
 20
13.204831
 30
0.0
 11
18.750079
 21
13.204831
 31
0.0
  0
LINE
  5
55D
100
AcDbEntity
  8
BORDER
  6
CONTINUOUS
 62
     2
100
AcDbLine
 39
46.08
 10
18.975103
 20
13.204831
 30
0.0
 11
18.975103
 21
13.204831
 31
0.0
  0
LINE
  5
55E
100
AcDbEntity
  8
BORDER
  6
CONTINUOUS
 62
     2
100
AcDbLine
 39
46.08
 10
19.200063
 20
13.204831
 30
0.0
 11
19.200063
 21
13.204831
 31
0.0
  0
LINE
  5
55F
100
AcDbEntity
  8
BORDER
  6
CONTINUOUS
 62
     2
100
AcDbLine
 39
46.08
 10
19.425087
 20
13.204831
 30
0.0
 11
19.425087
 21
13.204831
 31
0.0
  0
LINE
  5
560
100
AcDbEntity
  8
BORDER
  6
CONTINUOUS
 62
     2
100
AcDbLine
 39
46.08
 10
18.637567
 20
12.979807
 30
0.0
 11
18.637567
 21
12.979807
 31
0.0
  0
LINE
  5
561
100
AcDbEntity
  8
BORDER
  6
CONTINUOUS
 62
     2
100
AcDbLine
 39
46.08
 10
18.862591
 20
12.979807
 30
0.0
 11
18.862591
 21
12.979807
 31
0.0
  0
LINE
  5
562
100
AcDbEntity
  8
BORDER
  6
CONTINUOUS
 62
     2
100
AcDbLine
 39
46.08
 10
19.087615
 20
12.979807
 30
0.0
 11
19.087615
 21
12.979807
 31
0.0
  0
LINE
  5
563
100
AcDbEntity
  8
BORDER
  6
CONTINUOUS
 62
     2
100
AcDbLine
 39
46.08
 10
19.312575
 20
12.979807
 30
0.0
 11
19.312575
 21
12.979807
 31
0.0
  0
LINE
  5
564
100
AcDbEntity
  8
BORDER
  6
CONTINUOUS
 62
     2
100
AcDbLine
 39
46.08
 10
18.750079
 20
12.754847
 30
0.0
 11
18.750079
 21
12.754847
 31
0.0
  0
LINE
  5
565
100
AcDbEntity
  8
BORDER
  6
CONTINUOUS
 62
     2
100
AcDbLine
 39
46.08
 10
18.975103
 20
12.754847
 30
0.0
 11
18.975103
 21
12.754847
 31
0.0
  0
LINE
  5
566
100
AcDbEntity
  8
BORDER
  6
CONTINUOUS
 62
     2
100
AcDbLine
 39
46.08
 10
19.200063
 20
12.754847
 30
0.0
 11
19.200063
 21
12.754847
 31
0.0
  0
LINE
  5
567
100
AcDbEntity
  8
BORDER
  6
CONTINUOUS
 62
     2
100
AcDbLine
 39
46.08
 10
19.425087
 20
12.754847
 30
0.0
 11
19.425087
 21
12.754847
 31
0.0
  0
LINE
  5
568
100
AcDbEntity
  8
BORDER
  6
CONTINUOUS
 62
     2
100
AcDbLine
 39
46.08
 10
18.637567
 20
12.529823
 30
0.0
 11
18.637567
 21
12.529823
 31
0.0
  0
LINE
  5
569
100
AcDbEntity
  8
BORDER
  6
CONTINUOUS
 62
     2
100
AcDbLine
 39
46.08
 10
18.862591
 20
12.529823
 30
0.0
 11
18.862591
 21
12.529823
 31
0.0
  0
LINE
  5
56A
100
AcDbEntity
  8
BORDER
  6
CONTINUOUS
 62
     2
100
AcDbLine
 39
46.08
 10
19.087615
 20
12.529823
 30
0.0
 11
19.087615
 21
12.529823
 31
0.0
  0
LINE
  5
56B
100
AcDbEntity
  8
BORDER
  6
CONTINUOUS
 62
     2
100
AcDbLine
 39
46.08
 10
19.312575
 20
12.529823
 30
0.0
 11
19.312575
 21
12.529823
 31
0.0
  0
LINE
  5
56C
100
AcDbEntity
  8
BORDER
  6
CONTINUOUS
 62
     2
100
AcDbLine
 39
46.08
 10
18.750079
 20
12.304863
 30
0.0
 11
18.750079
 21
12.304863
 31
0.0
  0
LINE
  5
56D
100
AcDbEntity
  8
BORDER
  6
CONTINUOUS
 62
     2
100
AcDbLine
 39
46.08
 10
18.975103
 20
12.304863
 30
0.0
 11
18.975103
 21
12.304863
 31
0.0
  0
LINE
  5
56E
100
AcDbEntity
  8
BORDER
  6
CONTINUOUS
 62
     2
100
AcDbLine
 39
46.08
 10
19.200063
 20
12.304863
 30
0.0
 11
19.200063
 21
12.304863
 31
0.0
  0
LINE
  5
56F
100
AcDbEntity
  8
BORDER
  6
CONTINUOUS
 62
     2
100
AcDbLine
 39
46.08
 10
19.425087
 20
12.304863
 30
0.0
 11
19.425087
 21
12.304863
 31
0.0
  0
LINE
  5
570
100
AcDbEntity
  8
BORDER
  6
CONTINUOUS
 62
     2
100
AcDbLine
 39
46.08
 10
18.637567
 20
12.079839
 30
0.0
 11
18.637567
 21
12.079839
 31
0.0
  0
LINE
  5
571
100
AcDbEntity
  8
BORDER
  6
CONTINUOUS
 62
     2
100
AcDbLine
 39
46.08
 10
18.862591
 20
12.079839
 30
0.0
 11
18.862591
 21
12.079839
 31
0.0
  0
LINE
  5
572
100
AcDbEntity
  8
BORDER
  6
CONTINUOUS
 62
     2
100
AcDbLine
 39
46.08
 10
19.087615
 20
12.079839
 30
0.0
 11
19.087615
 21
12.079839
 31
0.0
  0
LINE
  5
573
100
AcDbEntity
  8
BORDER
  6
CONTINUOUS
 62
     2
100
AcDbLine
 39
46.08
 10
19.312575
 20
12.079839
 30
0.0
 11
19.312575
 21
12.079839
 31
0.0
  0
LINE
  5
574
100
AcDbEntity
  8
BORDER
  6
CONTINUOUS
 62
     2
100
AcDbLine
 39
46.08
 10
18.750079
 20
11.854815
 30
0.0
 11
18.750079
 21
11.854815
 31
0.0
  0
LINE
  5
575
100
AcDbEntity
  8
BORDER
  6
CONTINUOUS
 62
     2
100
AcDbLine
 39
46.08
 10
18.975103
 20
11.854815
 30
0.0
 11
18.975103
 21
11.854815
 31
0.0
  0
LINE
  5
576
100
AcDbEntity
  8
BORDER
  6
CONTINUOUS
 62
     2
100
AcDbLine
 39
46.08
 10
19.200063
 20
11.854815
 30
0.0
 11
19.200063
 21
11.854815
 31
0.0
  0
LINE
  5
577
100
AcDbEntity
  8
BORDER
  6
CONTINUOUS
 62
     2
100
AcDbLine
 39
46.08
 10
19.425087
 20
11.854815
 30
0.0
 11
19.425087
 21
11.854815
 31
0.0
  0
LINE
  5
578
100
AcDbEntity
  8
BORDER
  6
CONTINUOUS
 62
     2
100
AcDbLine
 39
46.08
 10
18.637567
 20
11.629855
 30
0.0
 11
18.637567
 21
11.629855
 31
0.0
  0
LINE
  5
579
100
AcDbEntity
  8
BORDER
  6
CONTINUOUS
 62
     2
100
AcDbLine
 39
46.08
 10
18.862591
 20
11.629855
 30
0.0
 11
18.862591
 21
11.629855
 31
0.0
  0
LINE
  5
57A
100
AcDbEntity
  8
BORDER
  6
CONTINUOUS
 62
     2
100
AcDbLine
 39
46.08
 10
19.087615
 20
11.629855
 30
0.0
 11
19.087615
 21
11.629855
 31
0.0
  0
LINE
  5
57B
100
AcDbEntity
  8
BORDER
  6
CONTINUOUS
 62
     2
100
AcDbLine
 39
46.08
 10
19.312575
 20
11.629855
 30
0.0
 11
19.312575
 21
11.629855
 31
0.0
  0
LINE
  5
57C
100
AcDbEntity
  8
BORDER
  6
CONTINUOUS
 62
     2
100
AcDbLine
 39
46.08
 10
18.750079
 20
11.404831
 30
0.0
 11
18.750079
 21
11.404831
 31
0.0
  0
LINE
  5
57D
100
AcDbEntity
  8
BORDER
  6
CONTINUOUS
 62
     2
100
AcDbLine
 39
46.08
 10
18.975103
 20
11.404831
 30
0.0
 11
18.975103
 21
11.404831
 31
0.0
  0
LINE
  5
57E
100
AcDbEntity
  8
BORDER
  6
CONTINUOUS
 62
     2
100
AcDbLine
 39
46.08
 10
19.200063
 20
11.404831
 30
0.0
 11
19.200063
 21
11.404831
 31
0.0
  0
LINE
  5
57F
100
AcDbEntity
  8
BORDER
  6
CONTINUOUS
 62
     2
100
AcDbLine
 39
46.08
 10
19.425087
 20
11.404831
 30
0.0
 11
19.425087
 21
11.404831
 31
0.0
  0
LINE
  5
580
100
AcDbEntity
  8
BORDER
  6
CONTINUOUS
 62
     2
100
AcDbLine
 39
46.08
 10
18.637567
 20
11.179807
 30
0.0
 11
18.637567
 21
11.179807
 31
0.0
  0
LINE
  5
581
100
AcDbEntity
  8
BORDER
  6
CONTINUOUS
 62
     2
100
AcDbLine
 39
46.08
 10
18.862591
 20
11.179807
 30
0.0
 11
18.862591
 21
11.179807
 31
0.0
  0
LINE
  5
582
100
AcDbEntity
  8
BORDER
  6
CONTINUOUS
 62
     2
100
AcDbLine
 39
46.08
 10
19.087615
 20
11.179807
 30
0.0
 11
19.087615
 21
11.179807
 31
0.0
  0
LINE
  5
583
100
AcDbEntity
  8
BORDER
  6
CONTINUOUS
 62
     2
100
AcDbLine
 39
46.08
 10
19.312575
 20
11.179807
 30
0.0
 11
19.312575
 21
11.179807
 31
0.0
  0
LINE
  5
584
100
AcDbEntity
  8
BORDER
  6
CONTINUOUS
 62
     2
100
AcDbLine
 39
46.08
 10
18.750079
 20
10.954847
 30
0.0
 11
18.750079
 21
10.954847
 31
0.0
  0
LINE
  5
585
100
AcDbEntity
  8
BORDER
  6
CONTINUOUS
 62
     2
100
AcDbLine
 39
46.08
 10
18.975103
 20
10.954847
 30
0.0
 11
18.975103
 21
10.954847
 31
0.0
  0
LINE
  5
586
100
AcDbEntity
  8
BORDER
  6
CONTINUOUS
 62
     2
100
AcDbLine
 39
46.08
 10
19.200063
 20
10.954847
 30
0.0
 11
19.200063
 21
10.954847
 31
0.0
  0
LINE
  5
587
100
AcDbEntity
  8
BORDER
  6
CONTINUOUS
 62
     2
100
AcDbLine
 39
46.08
 10
19.425087
 20
10.954847
 30
0.0
 11
19.425087
 21
10.954847
 31
0.0
  0
LINE
  5
588
100
AcDbEntity
  8
BORDER
  6
CONTINUOUS
 62
     2
100
AcDbLine
 39
46.08
 10
18.637567
 20
10.729823
 30
0.0
 11
18.637567
 21
10.729823
 31
0.0
  0
LINE
  5
589
100
AcDbEntity
  8
BORDER
  6
CONTINUOUS
 62
     2
100
AcDbLine
 39
46.08
 10
18.862591
 20
10.729823
 30
0.0
 11
18.862591
 21
10.729823
 31
0.0
  0
LINE
  5
58A
100
AcDbEntity
  8
BORDER
  6
CONTINUOUS
 62
     2
100
AcDbLine
 39
46.08
 10
19.087615
 20
10.729823
 30
0.0
 11
19.087615
 21
10.729823
 31
0.0
  0
LINE
  5
58B
100
AcDbEntity
  8
BORDER
  6
CONTINUOUS
 62
     2
100
AcDbLine
 39
46.08
 10
19.312575
 20
10.729823
 30
0.0
 11
19.312575
 21
10.729823
 31
0.0
  0
LINE
  5
58C
100
AcDbEntity
  8
BORDER
  6
CONTINUOUS
 62
     2
100
AcDbLine
 39
46.08
 10
18.750079
 20
10.504863
 30
0.0
 11
18.750079
 21
10.504863
 31
0.0
  0
LINE
  5
58D
100
AcDbEntity
  8
BORDER
  6
CONTINUOUS
 62
     2
100
AcDbLine
 39
46.08
 10
18.975103
 20
10.504863
 30
0.0
 11
18.975103
 21
10.504863
 31
0.0
  0
LINE
  5
58E
100
AcDbEntity
  8
BORDER
  6
CONTINUOUS
 62
     2
100
AcDbLine
 39
46.08
 10
19.200063
 20
10.504863
 30
0.0
 11
19.200063
 21
10.504863
 31
0.0
  0
LINE
  5
58F
100
AcDbEntity
  8
BORDER
  6
CONTINUOUS
 62
     2
100
AcDbLine
 39
46.08
 10
19.425087
 20
10.504863
 30
0.0
 11
19.425087
 21
10.504863
 31
0.0
  0
LINE
  5
590
100
AcDbEntity
  8
BORDER
  6
CONTINUOUS
 62
     2
100
AcDbLine
 39
46.08
 10
18.637567
 20
10.279839
 30
0.0
 11
18.637567
 21
10.279839
 31
0.0
  0
LINE
  5
591
100
AcDbEntity
  8
BORDER
  6
CONTINUOUS
 62
     2
100
AcDbLine
 39
46.08
 10
18.862591
 20
10.279839
 30
0.0
 11
18.862591
 21
10.279839
 31
0.0
  0
LINE
  5
592
100
AcDbEntity
  8
BORDER
  6
CONTINUOUS
 62
     2
100
AcDbLine
 39
46.08
 10
19.087615
 20
10.279839
 30
0.0
 11
19.087615
 21
10.279839
 31
0.0
  0
LINE
  5
593
100
AcDbEntity
  8
BORDER
  6
CONTINUOUS
 62
     2
100
AcDbLine
 39
46.08
 10
19.312575
 20
10.279839
 30
0.0
 11
19.312575
 21
10.279839
 31
0.0
  0
LINE
  5
594
100
AcDbEntity
  8
BORDER
  6
CONTINUOUS
 62
     2
100
AcDbLine
 39
46.08
 10
18.750079
 20
10.054815
 30
0.0
 11
18.750079
 21
10.054815
 31
0.0
  0
LINE
  5
595
100
AcDbEntity
  8
BORDER
  6
CONTINUOUS
 62
     2
100
AcDbLine
 39
46.08
 10
18.975103
 20
10.054815
 30
0.0
 11
18.975103
 21
10.054815
 31
0.0
  0
LINE
  5
596
100
AcDbEntity
  8
BORDER
  6
CONTINUOUS
 62
     2
100
AcDbLine
 39
46.08
 10
19.200063
 20
10.054815
 30
0.0
 11
19.200063
 21
10.054815
 31
0.0
  0
LINE
  5
597
100
AcDbEntity
  8
BORDER
  6
CONTINUOUS
 62
     2
100
AcDbLine
 39
46.08
 10
19.425087
 20
10.054815
 30
0.0
 11
19.425087
 21
10.054815
 31
0.0
  0
LINE
  5
598
100
AcDbEntity
  8
BORDER
  6
CONTINUOUS
 62
     2
100
AcDbLine
 39
46.08
 10
18.637567
 20
9.829855
 30
0.0
 11
18.637567
 21
9.829855
 31
0.0
  0
LINE
  5
599
100
AcDbEntity
  8
BORDER
  6
CONTINUOUS
 62
     2
100
AcDbLine
 39
46.08
 10
18.862591
 20
9.829855
 30
0.0
 11
18.862591
 21
9.829855
 31
0.0
  0
LINE
  5
59A
100
AcDbEntity
  8
BORDER
  6
CONTINUOUS
 62
     2
100
AcDbLine
 39
46.08
 10
19.087615
 20
9.829855
 30
0.0
 11
19.087615
 21
9.829855
 31
0.0
  0
LINE
  5
59B
100
AcDbEntity
  8
BORDER
  6
CONTINUOUS
 62
     2
100
AcDbLine
 39
46.08
 10
19.312575
 20
9.829855
 30
0.0
 11
19.312575
 21
9.829855
 31
0.0
  0
LINE
  5
59C
100
AcDbEntity
  8
BORDER
  6
CONTINUOUS
 62
     2
100
AcDbLine
 39
46.08
 10
18.750079
 20
9.604831
 30
0.0
 11
18.750079
 21
9.604831
 31
0.0
  0
LINE
  5
59D
100
AcDbEntity
  8
BORDER
  6
CONTINUOUS
 62
     2
100
AcDbLine
 39
46.08
 10
18.975103
 20
9.604831
 30
0.0
 11
18.975103
 21
9.604831
 31
0.0
  0
LINE
  5
59E
100
AcDbEntity
  8
BORDER
  6
CONTINUOUS
 62
     2
100
AcDbLine
 39
46.08
 10
19.200063
 20
9.604831
 30
0.0
 11
19.200063
 21
9.604831
 31
0.0
  0
LINE
  5
59F
100
AcDbEntity
  8
BORDER
  6
CONTINUOUS
 62
     2
100
AcDbLine
 39
46.08
 10
19.425087
 20
9.604831
 30
0.0
 11
19.425087
 21
9.604831
 31
0.0
  0
LINE
  5
5A0
100
AcDbEntity
  8
BORDER
  6
CONTINUOUS
 62
     3
100
AcDbLine
 39
46.08
 10
18.535423
 20
9.445023
 30
0.0
 11
19.435391
 21
9.445023
 31
0.0
  0
LINE
  5
5A1
100
AcDbEntity
  8
BORDER
  6
CONTINUOUS
 62
     3
100
AcDbLine
 39
46.08
 10
19.435391
 20
9.445023
 30
0.0
 11
18.535423
 21
9.445023
 31
0.0
  0
LINE
  5
5A2
100
AcDbEntity
  8
BORDER
  6
CONTINUOUS
 62
     3
100
AcDbLine
 39
46.08
 10
19.435391
 20
9.445023
 30
0.0
 11
18.535423
 21
9.445023
 31
0.0
  0
LINE
  5
5A3
100
AcDbEntity
  8
BORDER
  6
CONTINUOUS
 62
     1
100
AcDbLine
 39
46.08
 10
19.487423
 20
8.485983
 30
0.0
 11
19.492607
 21
8.515487
 31
0.0
  0
LINE
  5
5A4
100
AcDbEntity
  8
BORDER
  6
CONTINUOUS
 62
     2
100
AcDbLine
 39
46.08
 10
18.637567
 20
9.379807
 30
0.0
 11
18.637567
 21
9.379807
 31
0.0
  0
LINE
  5
5A5
100
AcDbEntity
  8
BORDER
  6
CONTINUOUS
 62
     2
100
AcDbLine
 39
46.08
 10
18.862591
 20
9.379807
 30
0.0
 11
18.862591
 21
9.379807
 31
0.0
  0
LINE
  5
5A6
100
AcDbEntity
  8
BORDER
  6
CONTINUOUS
 62
     2
100
AcDbLine
 39
46.08
 10
19.087615
 20
9.379807
 30
0.0
 11
19.087615
 21
9.379807
 31
0.0
  0
LINE
  5
5A7
100
AcDbEntity
  8
BORDER
  6
CONTINUOUS
 62
     2
100
AcDbLine
 39
46.08
 10
19.312575
 20
9.379807
 30
0.0
 11
19.312575
 21
9.379807
 31
0.0
  0
LINE
  5
5A8
100
AcDbEntity
  8
BORDER
  6
CONTINUOUS
 62
     2
100
AcDbLine
 39
46.08
 10
18.750079
 20
9.154847
 30
0.0
 11
18.750079
 21
9.154847
 31
0.0
  0
LINE
  5
5A9
100
AcDbEntity
  8
BORDER
  6
CONTINUOUS
 62
     2
100
AcDbLine
 39
46.08
 10
18.975103
 20
9.154847
 30
0.0
 11
18.975103
 21
9.154847
 31
0.0
  0
LINE
  5
5AA
100
AcDbEntity
  8
BORDER
  6
CONTINUOUS
 62
     2
100
AcDbLine
 39
46.08
 10
19.200063
 20
9.154847
 30
0.0
 11
19.200063
 21
9.154847
 31
0.0
  0
LINE
  5
5AB
100
AcDbEntity
  8
BORDER
  6
CONTINUOUS
 62
     2
100
AcDbLine
 39
46.08
 10
19.425087
 20
9.154847
 30
0.0
 11
19.425087
 21
9.154847
 31
0.0
  0
LINE
  5
5AC
100
AcDbEntity
  8
BORDER
  6
CONTINUOUS
 62
     2
100
AcDbLine
 39
46.08
 10
18.637567
 20
8.929823
 30
0.0
 11
18.637567
 21
8.929823
 31
0.0
  0
LINE
  5
5AD
100
AcDbEntity
  8
BORDER
  6
CONTINUOUS
 62
     2
100
AcDbLine
 39
46.08
 10
18.862591
 20
8.929823
 30
0.0
 11
18.862591
 21
8.929823
 31
0.0
  0
LINE
  5
5AE
100
AcDbEntity
  8
BORDER
  6
CONTINUOUS
 62
     2
100
AcDbLine
 39
46.08
 10
19.087615
 20
8.929823
 30
0.0
 11
19.087615
 21
8.929823
 31
0.0
  0
LINE
  5
5AF
100
AcDbEntity
  8
BORDER
  6
CONTINUOUS
 62
     2
100
AcDbLine
 39
46.08
 10
19.312575
 20
8.929823
 30
0.0
 11
19.312575
 21
8.929823
 31
0.0
  0
LINE
  5
5B0
100
AcDbEntity
  8
BORDER
  6
CONTINUOUS
 62
     2
100
AcDbLine
 39
46.08
 10
18.750079
 20
8.704863
 30
0.0
 11
18.750079
 21
8.704863
 31
0.0
  0
LINE
  5
5B1
100
AcDbEntity
  8
BORDER
  6
CONTINUOUS
 62
     2
100
AcDbLine
 39
46.08
 10
18.975103
 20
8.704863
 30
0.0
 11
18.975103
 21
8.704863
 31
0.0
  0
LINE
  5
5B2
100
AcDbEntity
  8
BORDER
  6
CONTINUOUS
 62
     2
100
AcDbLine
 39
46.08
 10
19.200063
 20
8.704863
 30
0.0
 11
19.200063
 21
8.704863
 31
0.0
  0
LINE
  5
5B3
100
AcDbEntity
  8
BORDER
  6
CONTINUOUS
 62
     2
100
AcDbLine
 39
46.08
 10
19.425087
 20
8.704863
 30
0.0
 11
19.425087
 21
8.704863
 31
0.0
  0
LINE
  5
5B4
100
AcDbEntity
  8
BORDER
  6
CONTINUOUS
 62
     2
100
AcDbLine
 39
46.08
 10
18.637567
 20
8.479839
 30
0.0
 11
18.637567
 21
8.479839
 31
0.0
  0
LINE
  5
5B5
100
AcDbEntity
  8
BORDER
  6
CONTINUOUS
 62
     2
100
AcDbLine
 39
46.08
 10
18.862591
 20
8.479839
 30
0.0
 11
18.862591
 21
8.479839
 31
0.0
  0
LINE
  5
5B6
100
AcDbEntity
  8
BORDER
  6
CONTINUOUS
 62
     2
100
AcDbLine
 39
46.08
 10
19.087615
 20
8.479839
 30
0.0
 11
19.087615
 21
8.479839
 31
0.0
  0
LINE
  5
5B7
100
AcDbEntity
  8
BORDER
  6
CONTINUOUS
 62
     2
100
AcDbLine
 39
46.08
 10
19.312575
 20
8.479839
 30
0.0
 11
19.312575
 21
8.479839
 31
0.0
  0
LINE
  5
5B8
100
AcDbEntity
  8
BORDER
  6
CONTINUOUS
 62
     1
100
AcDbLine
 39
46.08
 10
19.776895
 20
8.721823
 30
0.0
 11
19.797951
 21
8.729503
 31
0.0
  0
LINE
  5
5B9
100
AcDbEntity
  8
BORDER
  6
CONTINUOUS
 62
     1
100
AcDbLine
 39
46.08
 10
20.622527
 20
9.029599
 30
0.0
 11
20.643583
 21
9.037279
 31
0.0
  0
LINE
  5
5BA
100
AcDbEntity
  8
BORDER
  6
CONTINUOUS
 62
     1
100
AcDbLine
 39
46.08
 10
21.468159
 20
9.337439
 30
0.0
 11
21.489215
 21
9.345119
 31
0.0
  0
LINE
  5
5BB
100
AcDbEntity
  8
BORDER
  6
CONTINUOUS
 62
     1
100
AcDbLine
 39
46.08
 10
21.776127
 20
8.491743
 30
0.0
 11
21.797183
 21
8.499423
 31
0.0
  0
LINE
  5
5BC
100
AcDbEntity
  8
BORDER
  6
CONTINUOUS
 62
     1
100
AcDbLine
 39
46.08
 10
19.688319
 20
9.320607
 30
0.0
 11
19.701183
 21
9.339039
 31
0.0
  0
LINE
  5
5BD
100
AcDbEntity
  8
BORDER
  6
CONTINUOUS
 62
     1
100
AcDbLine
 39
46.08
 10
20.425407
 20
8.804383
 30
0.0
 11
20.438527
 21
8.822815
 31
0.0
  0
LINE
  5
5BE
100
AcDbEntity
  8
BORDER
  6
CONTINUOUS
 62
     1
100
AcDbLine
 39
46.08
 10
21.678847
 20
9.025439
 30
0.0
 11
21.691711
 21
9.043871
 31
0.0
  0
LINE
  5
5BF
100
AcDbEntity
  8
BORDER
  6
CONTINUOUS
 62
     1
100
AcDbLine
 39
46.08
 10
20.175807
 20
9.242975
 30
0.0
 11
20.179775
 21
9.265119
 31
0.0
  0
LINE
  5
5C0
100
AcDbEntity
  8
BORDER
  6
CONTINUOUS
 62
     1
100
AcDbLine
 39
46.08
 10
21.061951
 20
9.086623
 30
0.0
 11
21.065727
 21
9.108831
 31
0.0
  0
LINE
  5
5C1
100
AcDbEntity
  8
BORDER
  6
CONTINUOUS
 62
     1
100
AcDbLine
 39
46.08
 10
21.948351
 20
8.930335
 30
0.0
 11
21.952127
 21
8.952543
 31
0.0
  0
LINE
  5
5C2
100
AcDbEntity
  8
BORDER
  6
CONTINUOUS
 62
     1
100
AcDbLine
 39
46.08
 10
20.389311
 20
10.364575
 30
0.0
 11
20.410431
 21
10.372319
 31
0.0
  0
LINE
  5
5C3
100
AcDbEntity
  8
BORDER
  6
CONTINUOUS
 62
     1
100
AcDbLine
 39
46.08
 10
21.234943
 20
10.672415
 30
0.0
 11
21.255999
 21
10.680095
 31
0.0
  0
LINE
  5
5C4
100
AcDbEntity
  8
BORDER
  6
CONTINUOUS
 62
     1
100
AcDbLine
 39
46.08
 10
20.697279
 20
9.518815
 30
0.0
 11
20.718399
 21
9.526559
 31
0.0
  0
LINE
  5
5C5
100
AcDbEntity
  8
BORDER
  6
CONTINUOUS
 62
     1
100
AcDbLine
 39
46.08
 10
21.542911
 20
9.826655
 30
0.0
 11
21.563967
 21
9.834335
 31
0.0
  0
LINE
  5
5C6
100
AcDbEntity
  8
BORDER
  6
CONTINUOUS
 62
     1
100
AcDbLine
 39
46.08
 10
19.615615
 20
9.862367
 30
0.0
 11
19.628543
 21
9.880799
 31
0.0
  0
LINE
  5
5C7
100
AcDbEntity
  8
BORDER
  6
CONTINUOUS
 62
     1
100
AcDbLine
 39
46.08
 10
20.131967
 20
10.599583
 30
0.0
 11
20.144639
 21
10.618015
 31
0.0
  0
LINE
  5
5C8
100
AcDbEntity
  8
BORDER
  6
CONTINUOUS
 62
     1
100
AcDbLine
 39
46.08
 10
20.868863
 20
10.083423
 30
0.0
 11
20.881983
 21
10.101855
 31
0.0
  0
LINE
  5
5C9
100
AcDbEntity
  8
BORDER
  6
CONTINUOUS
 62
     1
100
AcDbLine
 39
46.08
 10
21.606143
 20
9.567135
 30
0.0
 11
21.619327
 21
9.585567
 31
0.0
  0
LINE
  5
5CA
100
AcDbEntity
  8
BORDER
  6
CONTINUOUS
 62
     1
100
AcDbLine
 39
46.08
 10
19.653375
 20
9.446111
 30
0.0
 11
19.657151
 21
9.468319
 31
0.0
  0
LINE
  5
5CB
100
AcDbEntity
  8
BORDER
  6
CONTINUOUS
 62
     1
100
AcDbLine
 39
46.08
 10
19.809471
 20
10.332447
 30
0.0
 11
19.811839
 21
10.345695
 31
0.0
  0
LINE
  5
5CC
100
AcDbEntity
  8
BORDER
  6
CONTINUOUS
 62
     1
100
AcDbLine
 39
46.08
 10
20.695615
 20
10.176159
 30
0.0
 11
20.699647
 21
10.198367
 31
0.0
  0
LINE
  5
5CD
100
AcDbEntity
  8
BORDER
  6
CONTINUOUS
 62
     1
100
AcDbLine
 39
46.08
 10
21.582015
 20
10.019871
 30
0.0
 11
21.586047
 21
10.042079
 31
0.0
  0
LINE
  5
5CE
100
AcDbEntity
  8
BORDER
  6
CONTINUOUS
 62
     1
100
AcDbLine
 39
46.08
 10
20.233663
 20
16.054623
 30
0.0
 11
20.254783
 21
16.062303
 31
0.0
  0
LINE
  5
5CF
100
AcDbEntity
  8
BORDER
  6
CONTINUOUS
 62
     1
100
AcDbLine
 39
46.08
 10
21.079295
 20
16.362463
 30
0.0
 11
21.100415
 21
16.370143
 31
0.0
  0
LINE
  5
5D0
100
AcDbEntity
  8
BORDER
  6
CONTINUOUS
 62
     1
100
AcDbLine
 39
46.08
 10
21.387263
 20
15.516703
 30
0.0
 11
21.408383
 21
15.524383
 31
0.0
  0
LINE
  5
5D1
100
AcDbEntity
  8
BORDER
  6
CONTINUOUS
 62
     1
100
AcDbLine
 39
46.08
 10
19.763967
 20
16.350623
 30
0.0
 11
19.776895
 21
16.369055
 31
0.0
  0
LINE
  5
5D2
100
AcDbEntity
  8
BORDER
  6
CONTINUOUS
 62
     1
100
AcDbLine
 39
46.08
 10
20.501119
 20
15.834399
 30
0.0
 11
20.513983
 21
15.852831
 31
0.0
  0
LINE
  5
5D3
100
AcDbEntity
  8
BORDER
  6
CONTINUOUS
 62
     1
100
AcDbLine
 39
46.08
 10
21.238207
 20
15.318175
 30
0.0
 11
21.251327
 21
15.336607
 31
0.0
  0
LINE
  5
5D4
100
AcDbEntity
  8
BORDER
  6
CONTINUOUS
 62
     1
100
AcDbLine
 39
46.08
 10
21.754559
 20
16.055455
 30
0.0
 11
21.767423
 21
16.073887
 31
0.0
  0
LINE
  5
5D5
100
AcDbEntity
  8
BORDER
  6
CONTINUOUS
 62
     1
100
AcDbLine
 39
46.08
 10
19.861055
 20
15.806687
 30
0.0
 11
19.864767
 21
15.828831
 31
0.0
  0
LINE
  5
5D6
100
AcDbEntity
  8
BORDER
  6
CONTINUOUS
 62
     1
100
AcDbLine
 39
46.08
 10
20.747455
 20
15.650399
 30
0.0
 11
20.751167
 21
15.672543
 31
0.0
  0
LINE
  5
5D7
100
AcDbEntity
  8
BORDER
  6
CONTINUOUS
 62
     1
100
AcDbLine
 39
46.08
 10
20.903551
 20
16.536735
 30
0.0
 11
20.907519
 21
16.558879
 31
0.0
  0
LINE
  5
5D8
100
AcDbEntity
  8
BORDER
  6
CONTINUOUS
 62
     1
100
AcDbLine
 39
46.08
 10
21.633599
 20
15.494111
 30
0.0
 11
21.637567
 21
15.516255
 31
0.0
  0
LINE
  5
5D9
100
AcDbEntity
  8
BORDER
  6
CONTINUOUS
 62
     1
100
AcDbLine
 39
46.08
 10
21.789951
 20
16.380447
 30
0.0
 11
21.793663
 21
16.402591
 31
0.0
  0
LINE
  5
5DA
100
AcDbEntity
  8
BORDER
  6
CONTINUOUS
 62
    14
100
AcDbLine
 39
46.08
 10
20.15564
 20
17.367123
 30
0.0
 11
20.156489
 21
19.82681
 31
0.0
  0
LEADER
  5
5DB
100
AcDbEntity
  8
RF-SW
 62
    13
100
AcDbLeader
  3
ARCHITECTURAL
 76
     3
 10
20.744268
 20
17.473003
 30
0.0
 10
21.748045
 20
23.216366
 30
0.0
 10
20.676563
 20
23.216366
 30
0.0
 77
    13
211
-1.0
221
0.0
231
0.0
1001
ACAD
1000
DSTYLE
1002
{
1070
    40
1040
12.0
1070
   173
1070
     1
1070
     7
1000
_CLOSEDBLANK
1070
     6
1000
_CLOSEDBLANK
1070
    41
1040
0.0625
1002
}
  0
TEXT
  5
5DC
100
AcDbEntity
  8
BORDER
  6
CONTINUOUS
 62
     1
100
AcDbText
 10
9.307558
 20
19.945223
 30
0.0
 40
0.71982
  1
2x BLOCKING
  7
ROMAN
100
AcDbText
  0
LEADER
  5
5DD
100
AcDbEntity
  8
RF-SW
 62
    13
100
AcDbLeader
  3
ARCHITECTURAL
 76
     3
 10
19.470442
 20
18.151119
 30
0.0
 10
17.680276
 20
20.312595
 30
0.0
 10
16.608794
 20
20.312595
 30
0.0
 77
    13
211
-1.0
221
0.0
231
0.0
1001
ACAD
1000
DSTYLE
1002
{
1070
    40
1040
12.0
1070
   173
1070
     1
1070
     7
1000
_CLOSEDBLANK
1070
     6
1000
_CLOSEDBLANK
1070
    41
1040
0.0625
1002
}
  0
LINE
  5
5DE
100
AcDbEntity
  8
RF-SW
100
AcDbLine
 10
19.436406
 20
19.58678
 30
0.0
 11
20.15564
 21
17.367123
 31
0.0
  0
LWPOLYLINE
  5
5DF
100
AcDbEntity
  8
RF-SW
 62
     5
100
AcDbPolyline
 90
        6
 70
     1
 43
0.0
 10
20.183961
 20
18.145408
 10
20.183961
 20
17.395408
 10
20.933961
 20
17.395408
 10
20.933961
 20
17.426658
 10
20.215211
 20
17.426658
 10
20.215211
 20
18.145408
  0
LINE
  5
5E0
100
AcDbEntity
  8
RF-SW
100
AcDbLine
 10
20.523912
 20
17.472611
 30
0.0
 11
20.523912
 21
16.870996
 31
0.0
  0
LINE
  5
5E1
100
AcDbEntity
  8
RF-SW
100
AcDbLine
 10
19.801955
 20
19.095687
 30
0.0
 11
19.801955
 21
20.160285
 31
0.0
  0
LINE
  5
5E2
100
AcDbEntity
  8
RF-SW
100
AcDbLine
 10
20.238597
 20
17.804752
 30
0.0
 11
19.54569
 21
17.804752
 31
0.0
  0
TEXT
  5
5E3
100
AcDbEntity
  8
BORDER
  6
CONTINUOUS
 62
     1
100
AcDbText
 10
11.081724
 20
22.814833
 30
0.0
 40
0.71982
  1
SHEAR TRANSFER
  7
ROMAN
100
AcDbText
  0
LINE
  5
5E4
100
AcDbEntity
  8
BORDER
  6
CONTINUOUS
 62
     3
100
AcDbLine
 39
46.08
 10
23.335423
 20
5.220255
 30
0.0
 11
23.335423
 21
9.445023
 31
0.0
  0
LINE
  5
5E5
100
AcDbEntity
  8
BORDER
  6
CONTINUOUS
 62
     3
100
AcDbLine
 39
46.08
 10
22.435391
 20
5.083871
 30
0.0
 11
22.435391
 21
9.445023
 31
0.0
  0
LINE
  5
5E6
100
AcDbEntity
  8
BORDER
  6
CONTINUOUS
 62
     1
100
AcDbLine
 39
46.08
 10
22.357375
 20
6.011103
 30
0.0
 11
22.385727
 21
6.021343
 31
0.0
  0
LINE
  5
5E7
100
AcDbEntity
  8
BORDER
  6
CONTINUOUS
 62
     2
100
AcDbLine
 39
46.08
 10
22.462591
 20
6.679839
 30
0.0
 11
22.462591
 21
6.679839
 31
0.0
  0
LINE
  5
5E8
100
AcDbEntity
  8
BORDER
  6
CONTINUOUS
 62
     2
100
AcDbLine
 39
46.08
 10
22.687551
 20
6.679839
 30
0.0
 11
22.687551
 21
6.679839
 31
0.0
  0
LINE
  5
5E9
100
AcDbEntity
  8
BORDER
  6
CONTINUOUS
 62
     2
100
AcDbLine
 39
46.08
 10
22.912575
 20
6.679839
 30
0.0
 11
22.912575
 21
6.679839
 31
0.0
  0
LINE
  5
5EA
100
AcDbEntity
  8
BORDER
  6
CONTINUOUS
 62
     2
100
AcDbLine
 39
46.08
 10
23.137599
 20
6.679839
 30
0.0
 11
23.137599
 21
6.679839
 31
0.0
  0
LINE
  5
5EB
100
AcDbEntity
  8
BORDER
  6
CONTINUOUS
 62
     2
100
AcDbLine
 39
46.08
 10
22.575103
 20
6.454815
 30
0.0
 11
22.575103
 21
6.454815
 31
0.0
  0
LINE
  5
5EC
100
AcDbEntity
  8
BORDER
  6
CONTINUOUS
 62
     2
100
AcDbLine
 39
46.08
 10
22.800063
 20
6.454815
 30
0.0
 11
22.800063
 21
6.454815
 31
0.0
  0
LINE
  5
5ED
100
AcDbEntity
  8
BORDER
  6
CONTINUOUS
 62
     2
100
AcDbLine
 39
46.08
 10
23.025087
 20
6.454815
 30
0.0
 11
23.025087
 21
6.454815
 31
0.0
  0
LINE
  5
5EE
100
AcDbEntity
  8
BORDER
  6
CONTINUOUS
 62
     2
100
AcDbLine
 39
46.08
 10
23.250111
 20
6.454815
 30
0.0
 11
23.250111
 21
6.454815
 31
0.0
  0
LINE
  5
5EF
100
AcDbEntity
  8
BORDER
  6
CONTINUOUS
 62
     2
100
AcDbLine
 39
46.08
 10
22.462591
 20
6.229855
 30
0.0
 11
22.462591
 21
6.229855
 31
0.0
  0
LINE
  5
5F0
100
AcDbEntity
  8
BORDER
  6
CONTINUOUS
 62
     2
100
AcDbLine
 39
46.08
 10
22.687551
 20
6.229855
 30
0.0
 11
22.687551
 21
6.229855
 31
0.0
  0
LINE
  5
5F1
100
AcDbEntity
  8
BORDER
  6
CONTINUOUS
 62
     2
100
AcDbLine
 39
46.08
 10
22.912575
 20
6.229855
 30
0.0
 11
22.912575
 21
6.229855
 31
0.0
  0
LINE
  5
5F2
100
AcDbEntity
  8
BORDER
  6
CONTINUOUS
 62
     2
100
AcDbLine
 39
46.08
 10
23.137599
 20
6.229855
 30
0.0
 11
23.137599
 21
6.229855
 31
0.0
  0
LINE
  5
5F3
100
AcDbEntity
  8
BORDER
  6
CONTINUOUS
 62
     2
100
AcDbLine
 39
46.08
 10
22.575103
 20
6.004831
 30
0.0
 11
22.575103
 21
6.004831
 31
0.0
  0
LINE
  5
5F4
100
AcDbEntity
  8
BORDER
  6
CONTINUOUS
 62
     2
100
AcDbLine
 39
46.08
 10
22.800063
 20
6.004831
 30
0.0
 11
22.800063
 21
6.004831
 31
0.0
  0
LINE
  5
5F5
100
AcDbEntity
  8
BORDER
  6
CONTINUOUS
 62
     2
100
AcDbLine
 39
46.08
 10
23.025087
 20
6.004831
 30
0.0
 11
23.025087
 21
6.004831
 31
0.0
  0
LINE
  5
5F6
100
AcDbEntity
  8
BORDER
  6
CONTINUOUS
 62
     2
100
AcDbLine
 39
46.08
 10
23.250111
 20
6.004831
 30
0.0
 11
23.250111
 21
6.004831
 31
0.0
  0
LINE
  5
5F7
100
AcDbEntity
  8
BORDER
  6
CONTINUOUS
 62
     2
100
AcDbLine
 39
46.08
 10
22.462591
 20
5.779807
 30
0.0
 11
22.462591
 21
5.779807
 31
0.0
  0
LINE
  5
5F8
100
AcDbEntity
  8
BORDER
  6
CONTINUOUS
 62
     2
100
AcDbLine
 39
46.08
 10
22.687551
 20
5.779807
 30
0.0
 11
22.687551
 21
5.779807
 31
0.0
  0
LINE
  5
5F9
100
AcDbEntity
  8
BORDER
  6
CONTINUOUS
 62
     2
100
AcDbLine
 39
46.08
 10
22.912575
 20
5.779807
 30
0.0
 11
22.912575
 21
5.779807
 31
0.0
  0
LINE
  5
5FA
100
AcDbEntity
  8
BORDER
  6
CONTINUOUS
 62
     2
100
AcDbLine
 39
46.08
 10
23.137599
 20
5.779807
 30
0.0
 11
23.137599
 21
5.779807
 31
0.0
  0
LINE
  5
5FB
100
AcDbEntity
  8
BORDER
  6
CONTINUOUS
 62
     2
100
AcDbLine
 39
46.08
 10
22.575103
 20
5.554847
 30
0.0
 11
22.575103
 21
5.554847
 31
0.0
  0
LINE
  5
5FC
100
AcDbEntity
  8
BORDER
  6
CONTINUOUS
 62
     2
100
AcDbLine
 39
46.08
 10
22.800063
 20
5.554847
 30
0.0
 11
22.800063
 21
5.554847
 31
0.0
  0
LINE
  5
5FD
100
AcDbEntity
  8
BORDER
  6
CONTINUOUS
 62
     2
100
AcDbLine
 39
46.08
 10
23.025087
 20
5.554847
 30
0.0
 11
23.025087
 21
5.554847
 31
0.0
  0
LINE
  5
5FE
100
AcDbEntity
  8
BORDER
  6
CONTINUOUS
 62
     2
100
AcDbLine
 39
46.08
 10
23.250111
 20
5.554847
 30
0.0
 11
23.250111
 21
5.554847
 31
0.0
  0
LINE
  5
5FF
100
AcDbEntity
  8
BORDER
  6
CONTINUOUS
 62
     2
100
AcDbLine
 39
46.08
 10
22.462591
 20
5.329823
 30
0.0
 11
22.462591
 21
5.329823
 31
0.0
  0
LINE
  5
600
100
AcDbEntity
  8
BORDER
  6
CONTINUOUS
 62
     2
100
AcDbLine
 39
46.08
 10
22.687551
 20
5.329823
 30
0.0
 11
22.687551
 21
5.329823
 31
0.0
  0
LINE
  5
601
100
AcDbEntity
  8
BORDER
  6
CONTINUOUS
 62
     2
100
AcDbLine
 39
46.08
 10
22.912575
 20
5.329823
 30
0.0
 11
22.912575
 21
5.329823
 31
0.0
  0
LINE
  5
602
100
AcDbEntity
  8
BORDER
  6
CONTINUOUS
 62
     2
100
AcDbLine
 39
46.08
 10
23.137599
 20
5.329823
 30
0.0
 11
23.137599
 21
5.329823
 31
0.0
  0
LINE
  5
603
100
AcDbEntity
  8
BORDER
  6
CONTINUOUS
 62
     2
100
AcDbLine
 39
46.08
 10
22.575103
 20
8.254815
 30
0.0
 11
22.575103
 21
8.254815
 31
0.0
  0
LINE
  5
604
100
AcDbEntity
  8
BORDER
  6
CONTINUOUS
 62
     2
100
AcDbLine
 39
46.08
 10
22.800063
 20
8.254815
 30
0.0
 11
22.800063
 21
8.254815
 31
0.0
  0
LINE
  5
605
100
AcDbEntity
  8
BORDER
  6
CONTINUOUS
 62
     2
100
AcDbLine
 39
46.08
 10
23.025087
 20
8.254815
 30
0.0
 11
23.025087
 21
8.254815
 31
0.0
  0
LINE
  5
606
100
AcDbEntity
  8
BORDER
  6
CONTINUOUS
 62
     2
100
AcDbLine
 39
46.08
 10
23.250111
 20
8.254815
 30
0.0
 11
23.250111
 21
8.254815
 31
0.0
  0
LINE
  5
607
100
AcDbEntity
  8
BORDER
  6
CONTINUOUS
 62
     2
100
AcDbLine
 39
46.08
 10
22.462591
 20
8.029855
 30
0.0
 11
22.462591
 21
8.029855
 31
0.0
  0
LINE
  5
608
100
AcDbEntity
  8
BORDER
  6
CONTINUOUS
 62
     2
100
AcDbLine
 39
46.08
 10
22.687551
 20
8.029855
 30
0.0
 11
22.687551
 21
8.029855
 31
0.0
  0
LINE
  5
609
100
AcDbEntity
  8
BORDER
  6
CONTINUOUS
 62
     2
100
AcDbLine
 39
46.08
 10
22.912575
 20
8.029855
 30
0.0
 11
22.912575
 21
8.029855
 31
0.0
  0
LINE
  5
60A
100
AcDbEntity
  8
BORDER
  6
CONTINUOUS
 62
     2
100
AcDbLine
 39
46.08
 10
23.137599
 20
8.029855
 30
0.0
 11
23.137599
 21
8.029855
 31
0.0
  0
LINE
  5
60B
100
AcDbEntity
  8
BORDER
  6
CONTINUOUS
 62
     2
100
AcDbLine
 39
46.08
 10
22.575103
 20
7.804831
 30
0.0
 11
22.575103
 21
7.804831
 31
0.0
  0
LINE
  5
60C
100
AcDbEntity
  8
BORDER
  6
CONTINUOUS
 62
     2
100
AcDbLine
 39
46.08
 10
22.800063
 20
7.804831
 30
0.0
 11
22.800063
 21
7.804831
 31
0.0
  0
LINE
  5
60D
100
AcDbEntity
  8
BORDER
  6
CONTINUOUS
 62
     2
100
AcDbLine
 39
46.08
 10
23.025087
 20
7.804831
 30
0.0
 11
23.025087
 21
7.804831
 31
0.0
  0
LINE
  5
60E
100
AcDbEntity
  8
BORDER
  6
CONTINUOUS
 62
     2
100
AcDbLine
 39
46.08
 10
23.250111
 20
7.804831
 30
0.0
 11
23.250111
 21
7.804831
 31
0.0
  0
LINE
  5
60F
100
AcDbEntity
  8
BORDER
  6
CONTINUOUS
 62
     2
100
AcDbLine
 39
46.08
 10
22.462591
 20
7.579807
 30
0.0
 11
22.462591
 21
7.579807
 31
0.0
  0
LINE
  5
610
100
AcDbEntity
  8
BORDER
  6
CONTINUOUS
 62
     2
100
AcDbLine
 39
46.08
 10
22.687551
 20
7.579807
 30
0.0
 11
22.687551
 21
7.579807
 31
0.0
  0
LINE
  5
611
100
AcDbEntity
  8
BORDER
  6
CONTINUOUS
 62
     2
100
AcDbLine
 39
46.08
 10
22.912575
 20
7.579807
 30
0.0
 11
22.912575
 21
7.579807
 31
0.0
  0
LINE
  5
612
100
AcDbEntity
  8
BORDER
  6
CONTINUOUS
 62
     2
100
AcDbLine
 39
46.08
 10
23.137599
 20
7.579807
 30
0.0
 11
23.137599
 21
7.579807
 31
0.0
  0
LINE
  5
613
100
AcDbEntity
  8
BORDER
  6
CONTINUOUS
 62
     2
100
AcDbLine
 39
46.08
 10
22.575103
 20
7.354847
 30
0.0
 11
22.575103
 21
7.354847
 31
0.0
  0
LINE
  5
614
100
AcDbEntity
  8
BORDER
  6
CONTINUOUS
 62
     2
100
AcDbLine
 39
46.08
 10
22.800063
 20
7.354847
 30
0.0
 11
22.800063
 21
7.354847
 31
0.0
  0
LINE
  5
615
100
AcDbEntity
  8
BORDER
  6
CONTINUOUS
 62
     2
100
AcDbLine
 39
46.08
 10
23.025087
 20
7.354847
 30
0.0
 11
23.025087
 21
7.354847
 31
0.0
  0
LINE
  5
616
100
AcDbEntity
  8
BORDER
  6
CONTINUOUS
 62
     2
100
AcDbLine
 39
46.08
 10
23.250111
 20
7.354847
 30
0.0
 11
23.250111
 21
7.354847
 31
0.0
  0
LINE
  5
617
100
AcDbEntity
  8
BORDER
  6
CONTINUOUS
 62
     2
100
AcDbLine
 39
46.08
 10
22.462591
 20
7.129823
 30
0.0
 11
22.462591
 21
7.129823
 31
0.0
  0
LINE
  5
618
100
AcDbEntity
  8
BORDER
  6
CONTINUOUS
 62
     2
100
AcDbLine
 39
46.08
 10
22.687551
 20
7.129823
 30
0.0
 11
22.687551
 21
7.129823
 31
0.0
  0
LINE
  5
619
100
AcDbEntity
  8
BORDER
  6
CONTINUOUS
 62
     2
100
AcDbLine
 39
46.08
 10
22.912575
 20
7.129823
 30
0.0
 11
22.912575
 21
7.129823
 31
0.0
  0
LINE
  5
61A
100
AcDbEntity
  8
BORDER
  6
CONTINUOUS
 62
     2
100
AcDbLine
 39
46.08
 10
23.137599
 20
7.129823
 30
0.0
 11
23.137599
 21
7.129823
 31
0.0
  0
LINE
  5
61B
100
AcDbEntity
  8
BORDER
  6
CONTINUOUS
 62
     2
100
AcDbLine
 39
46.08
 10
22.575103
 20
6.904863
 30
0.0
 11
22.575103
 21
6.904863
 31
0.0
  0
LINE
  5
61C
100
AcDbEntity
  8
BORDER
  6
CONTINUOUS
 62
     2
100
AcDbLine
 39
46.08
 10
22.800063
 20
6.904863
 30
0.0
 11
22.800063
 21
6.904863
 31
0.0
  0
LINE
  5
61D
100
AcDbEntity
  8
BORDER
  6
CONTINUOUS
 62
     2
100
AcDbLine
 39
46.08
 10
23.025087
 20
6.904863
 30
0.0
 11
23.025087
 21
6.904863
 31
0.0
  0
LINE
  5
61E
100
AcDbEntity
  8
BORDER
  6
CONTINUOUS
 62
     2
100
AcDbLine
 39
46.08
 10
23.250111
 20
6.904863
 30
0.0
 11
23.250111
 21
6.904863
 31
0.0
  0
LINE
  5
61F
100
AcDbEntity
  8
BORDER
  6
CONTINUOUS
 62
    14
100
AcDbLine
 39
46.08
 10
38.020159
 20
16.788191
 30
0.0
 11
38.020159
 21
20.401951
 31
0.0
  0
LINE
  5
620
100
AcDbEntity
  8
BORDER
  6
CONTINUOUS
 62
    14
100
AcDbLine
 39
46.08
 10
38.020159
 20
23.337055
 30
0.0
 11
38.020159
 21
27.023327
 31
0.0
  0
LINE
  5
621
100
AcDbEntity
  8
BORDER
  6
CONTINUOUS
 62
    14
100
AcDbLine
 39
46.08
 10
38.091199
 20
23.337055
 30
0.0
 11
39.168383
 21
22.911775
 31
0.0
  0
LINE
  5
622
100
AcDbEntity
  8
BORDER
  6
CONTINUOUS
 62
    14
100
AcDbLine
 39
46.08
 10
39.168383
 20
22.911775
 30
0.0
 11
36.673663
 21
20.842207
 31
0.0
  0
LINE
  5
623
100
AcDbEntity
  8
BORDER
  6
CONTINUOUS
 62
    14
100
AcDbLine
 39
46.08
 10
36.673663
 20
20.842207
 30
0.0
 11
38.147903
 21
20.360287
 31
0.0
  0
LINE
  5
624
100
AcDbEntity
  8
BORDER
  6
CONTINUOUS
 62
     1
100
AcDbLine
 39
46.08
 10
27.832575
 20
22.385567
 30
0.0
 11
28.401663
 21
22.954783
 31
0.0
  0
LINE
  5
625
100
AcDbEntity
  8
BORDER
  6
CONTINUOUS
 62
     1
100
AcDbLine
 39
46.08
 10
29.264639
 20
22.862815
 30
0.0
 11
29.833663
 21
23.432095
 31
0.0
  0
LINE
  5
626
100
AcDbEntity
  8
BORDER
  6
CONTINUOUS
 62
     1
100
AcDbLine
 39
46.08
 10
30.696191
 20
23.340127
 30
0.0
 11
31.265727
 21
23.909343
 31
0.0
  0
LINE
  5
627
100
AcDbEntity
  8
BORDER
  6
CONTINUOUS
 62
     1
100
AcDbLine
 39
46.08
 10
32.128191
 20
23.817439
 30
0.0
 11
32.697279
 21
24.386655
 31
0.0
  0
LINE
  5
628
100
AcDbEntity
  8
BORDER
  6
CONTINUOUS
 62
     1
100
AcDbLine
 39
46.08
 10
33.560255
 20
24.294687
 30
0.0
 11
34.129279
 21
24.863903
 31
0.0
  0
LINE
  5
629
100
AcDbEntity
  8
BORDER
  6
CONTINUOUS
 62
     1
100
AcDbLine
 39
46.08
 10
34.991807
 20
24.771999
 30
0.0
 11
35.561343
 21
25.341215
 31
0.0
  0
LINE
  5
62A
100
AcDbEntity
  8
BORDER
  6
CONTINUOUS
 62
     1
100
AcDbLine
 39
46.08
 10
36.423807
 20
25.249311
 30
0.0
 11
36.992895
 21
25.818463
 31
0.0
  0
LINE
  5
62B
100
AcDbEntity
  8
BORDER
  6
CONTINUOUS
 62
     1
100
AcDbLine
 39
46.08
 10
37.855871
 20
25.726559
 30
0.0
 11
38.020159
 21
25.891103
 31
0.0
  0
LINE
  5
62C
100
AcDbEntity
  8
BORDER
  6
CONTINUOUS
 62
    14
100
AcDbLine
 39
46.08
 10
22.383807
 20
16.653599
 30
0.0
 11
22.383807
 21
17.373599
 31
0.0
  0
LINE
  5
62D
100
AcDbEntity
  8
BORDER
  6
CONTINUOUS
 62
     1
100
AcDbLine
 39
46.08
 10
23.536959
 20
20.953695
 30
0.0
 11
24.106239
 21
21.522911
 31
0.0
  0
LINE
  5
62E
100
AcDbEntity
  8
BORDER
  6
CONTINUOUS
 62
     1
100
AcDbLine
 39
46.08
 10
24.968959
 20
21.430943
 30
0.0
 11
25.538047
 21
22.000159
 31
0.0
  0
LINE
  5
62F
100
AcDbEntity
  8
BORDER
  6
CONTINUOUS
 62
     1
100
AcDbLine
 39
46.08
 10
26.400767
 20
21.908255
 30
0.0
 11
26.970111
 21
22.477471
 31
0.0
  0
LINE
  5
630
100
AcDbEntity
  8
BORDER
  6
CONTINUOUS
 62
     3
100
AcDbLine
 39
46.08
 10
23.335423
 20
9.445023
 30
0.0
 11
23.335423
 21
16.645023
 31
0.0
  0
LINE
  5
631
100
AcDbEntity
  8
BORDER
  6
CONTINUOUS
 62
     3
100
AcDbLine
 39
46.08
 10
23.335423
 20
16.645023
 30
0.0
 11
22.435391
 21
16.645023
 31
0.0
  0
LINE
  5
632
100
AcDbEntity
  8
BORDER
  6
CONTINUOUS
 62
     3
100
AcDbLine
 39
46.08
 10
22.435391
 20
9.445023
 30
0.0
 11
22.435391
 21
16.645023
 31
0.0
  0
LINE
  5
633
100
AcDbEntity
  8
BORDER
  6
CONTINUOUS
 62
     3
100
AcDbLine
 39
46.08
 10
22.435391
 20
9.445023
 30
0.0
 11
23.335423
 21
9.445023
 31
0.0
  0
LINE
  5
634
100
AcDbEntity
  8
BORDER
  6
CONTINUOUS
 62
     1
100
AcDbLine
 39
46.08
 10
22.357375
 20
13.211103
 30
0.0
 11
22.385727
 21
13.221343
 31
0.0
  0
LINE
  5
635
100
AcDbEntity
  8
BORDER
  6
CONTINUOUS
 62
     1
100
AcDbLine
 39
46.08
 10
22.369791
 20
10.745823
 30
0.0
 11
22.387135
 21
10.770399
 31
0.0
  0
LINE
  5
636
100
AcDbEntity
  8
BORDER
  6
CONTINUOUS
 62
     1
100
AcDbLine
 39
46.08
 10
22.199167
 20
10.333791
 30
0.0
 11
22.204287
 21
10.363295
 31
0.0
  0
LINE
  5
637
100
AcDbEntity
  8
BORDER
  6
CONTINUOUS
 62
     1
100
AcDbLine
 39
46.08
 10
22.407487
 20
11.515551
 30
0.0
 11
22.412671
 21
11.545119
 31
0.0
  0
LINE
  5
638
100
AcDbEntity
  8
BORDER
  6
CONTINUOUS
 62
     2
100
AcDbLine
 39
46.08
 10
22.462591
 20
16.579807
 30
0.0
 11
22.462591
 21
16.579807
 31
0.0
  0
LINE
  5
639
100
AcDbEntity
  8
BORDER
  6
CONTINUOUS
 62
     2
100
AcDbLine
 39
46.08
 10
22.687551
 20
16.579807
 30
0.0
 11
22.687551
 21
16.579807
 31
0.0
  0
LINE
  5
63A
100
AcDbEntity
  8
BORDER
  6
CONTINUOUS
 62
     2
100
AcDbLine
 39
46.08
 10
22.912575
 20
16.579807
 30
0.0
 11
22.912575
 21
16.579807
 31
0.0
  0
LINE
  5
63B
100
AcDbEntity
  8
BORDER
  6
CONTINUOUS
 62
     2
100
AcDbLine
 39
46.08
 10
23.137599
 20
16.579807
 30
0.0
 11
23.137599
 21
16.579807
 31
0.0
  0
LINE
  5
63C
100
AcDbEntity
  8
BORDER
  6
CONTINUOUS
 62
     2
100
AcDbLine
 39
46.08
 10
22.575103
 20
16.354847
 30
0.0
 11
22.575103
 21
16.354847
 31
0.0
  0
LINE
  5
63D
100
AcDbEntity
  8
BORDER
  6
CONTINUOUS
 62
     2
100
AcDbLine
 39
46.08
 10
22.800063
 20
16.354847
 30
0.0
 11
22.800063
 21
16.354847
 31
0.0
  0
LINE
  5
63E
100
AcDbEntity
  8
BORDER
  6
CONTINUOUS
 62
     2
100
AcDbLine
 39
46.08
 10
23.025087
 20
16.354847
 30
0.0
 11
23.025087
 21
16.354847
 31
0.0
  0
LINE
  5
63F
100
AcDbEntity
  8
BORDER
  6
CONTINUOUS
 62
     2
100
AcDbLine
 39
46.08
 10
23.250111
 20
16.354847
 30
0.0
 11
23.250111
 21
16.354847
 31
0.0
  0
LINE
  5
640
100
AcDbEntity
  8
BORDER
  6
CONTINUOUS
 62
     2
100
AcDbLine
 39
46.08
 10
22.462591
 20
16.129823
 30
0.0
 11
22.462591
 21
16.129823
 31
0.0
  0
LINE
  5
641
100
AcDbEntity
  8
BORDER
  6
CONTINUOUS
 62
     2
100
AcDbLine
 39
46.08
 10
22.687551
 20
16.129823
 30
0.0
 11
22.687551
 21
16.129823
 31
0.0
  0
LINE
  5
642
100
AcDbEntity
  8
BORDER
  6
CONTINUOUS
 62
     2
100
AcDbLine
 39
46.08
 10
22.912575
 20
16.129823
 30
0.0
 11
22.912575
 21
16.129823
 31
0.0
  0
LINE
  5
643
100
AcDbEntity
  8
BORDER
  6
CONTINUOUS
 62
     2
100
AcDbLine
 39
46.08
 10
23.137599
 20
16.129823
 30
0.0
 11
23.137599
 21
16.129823
 31
0.0
  0
LINE
  5
644
100
AcDbEntity
  8
BORDER
  6
CONTINUOUS
 62
     2
100
AcDbLine
 39
46.08
 10
22.575103
 20
15.904863
 30
0.0
 11
22.575103
 21
15.904863
 31
0.0
  0
LINE
  5
645
100
AcDbEntity
  8
BORDER
  6
CONTINUOUS
 62
     2
100
AcDbLine
 39
46.08
 10
22.800063
 20
15.904863
 30
0.0
 11
22.800063
 21
15.904863
 31
0.0
  0
LINE
  5
646
100
AcDbEntity
  8
BORDER
  6
CONTINUOUS
 62
     2
100
AcDbLine
 39
46.08
 10
23.025087
 20
15.904863
 30
0.0
 11
23.025087
 21
15.904863
 31
0.0
  0
LINE
  5
647
100
AcDbEntity
  8
BORDER
  6
CONTINUOUS
 62
     2
100
AcDbLine
 39
46.08
 10
23.250111
 20
15.904863
 30
0.0
 11
23.250111
 21
15.904863
 31
0.0
  0
LINE
  5
648
100
AcDbEntity
  8
BORDER
  6
CONTINUOUS
 62
     2
100
AcDbLine
 39
46.08
 10
22.462591
 20
15.679839
 30
0.0
 11
22.462591
 21
15.679839
 31
0.0
  0
LINE
  5
649
100
AcDbEntity
  8
BORDER
  6
CONTINUOUS
 62
     2
100
AcDbLine
 39
46.08
 10
22.687551
 20
15.679839
 30
0.0
 11
22.687551
 21
15.679839
 31
0.0
  0
LINE
  5
64A
100
AcDbEntity
  8
BORDER
  6
CONTINUOUS
 62
     2
100
AcDbLine
 39
46.08
 10
22.912575
 20
15.679839
 30
0.0
 11
22.912575
 21
15.679839
 31
0.0
  0
LINE
  5
64B
100
AcDbEntity
  8
BORDER
  6
CONTINUOUS
 62
     2
100
AcDbLine
 39
46.08
 10
23.137599
 20
15.679839
 30
0.0
 11
23.137599
 21
15.679839
 31
0.0
  0
LINE
  5
64C
100
AcDbEntity
  8
BORDER
  6
CONTINUOUS
 62
     2
100
AcDbLine
 39
46.08
 10
22.575103
 20
15.454815
 30
0.0
 11
22.575103
 21
15.454815
 31
0.0
  0
LINE
  5
64D
100
AcDbEntity
  8
BORDER
  6
CONTINUOUS
 62
     2
100
AcDbLine
 39
46.08
 10
22.800063
 20
15.454815
 30
0.0
 11
22.800063
 21
15.454815
 31
0.0
  0
LINE
  5
64E
100
AcDbEntity
  8
BORDER
  6
CONTINUOUS
 62
     2
100
AcDbLine
 39
46.08
 10
23.025087
 20
15.454815
 30
0.0
 11
23.025087
 21
15.454815
 31
0.0
  0
LINE
  5
64F
100
AcDbEntity
  8
BORDER
  6
CONTINUOUS
 62
     2
100
AcDbLine
 39
46.08
 10
23.250111
 20
15.454815
 30
0.0
 11
23.250111
 21
15.454815
 31
0.0
  0
LINE
  5
650
100
AcDbEntity
  8
BORDER
  6
CONTINUOUS
 62
     2
100
AcDbLine
 39
46.08
 10
22.462591
 20
15.229855
 30
0.0
 11
22.462591
 21
15.229855
 31
0.0
  0
LINE
  5
651
100
AcDbEntity
  8
BORDER
  6
CONTINUOUS
 62
     2
100
AcDbLine
 39
46.08
 10
22.687551
 20
15.229855
 30
0.0
 11
22.687551
 21
15.229855
 31
0.0
  0
LINE
  5
652
100
AcDbEntity
  8
BORDER
  6
CONTINUOUS
 62
     2
100
AcDbLine
 39
46.08
 10
22.912575
 20
15.229855
 30
0.0
 11
22.912575
 21
15.229855
 31
0.0
  0
LINE
  5
653
100
AcDbEntity
  8
BORDER
  6
CONTINUOUS
 62
     2
100
AcDbLine
 39
46.08
 10
23.137599
 20
15.229855
 30
0.0
 11
23.137599
 21
15.229855
 31
0.0
  0
LINE
  5
654
100
AcDbEntity
  8
BORDER
  6
CONTINUOUS
 62
     2
100
AcDbLine
 39
46.08
 10
22.575103
 20
15.004831
 30
0.0
 11
22.575103
 21
15.004831
 31
0.0
  0
LINE
  5
655
100
AcDbEntity
  8
BORDER
  6
CONTINUOUS
 62
     2
100
AcDbLine
 39
46.08
 10
22.800063
 20
15.004831
 30
0.0
 11
22.800063
 21
15.004831
 31
0.0
  0
LINE
  5
656
100
AcDbEntity
  8
BORDER
  6
CONTINUOUS
 62
     2
100
AcDbLine
 39
46.08
 10
23.025087
 20
15.004831
 30
0.0
 11
23.025087
 21
15.004831
 31
0.0
  0
LINE
  5
657
100
AcDbEntity
  8
BORDER
  6
CONTINUOUS
 62
     2
100
AcDbLine
 39
46.08
 10
23.250111
 20
15.004831
 30
0.0
 11
23.250111
 21
15.004831
 31
0.0
  0
LINE
  5
658
100
AcDbEntity
  8
BORDER
  6
CONTINUOUS
 62
     2
100
AcDbLine
 39
46.08
 10
22.462591
 20
14.779807
 30
0.0
 11
22.462591
 21
14.779807
 31
0.0
  0
LINE
  5
659
100
AcDbEntity
  8
BORDER
  6
CONTINUOUS
 62
     2
100
AcDbLine
 39
46.08
 10
22.687551
 20
14.779807
 30
0.0
 11
22.687551
 21
14.779807
 31
0.0
  0
LINE
  5
65A
100
AcDbEntity
  8
BORDER
  6
CONTINUOUS
 62
     2
100
AcDbLine
 39
46.08
 10
22.912575
 20
14.779807
 30
0.0
 11
22.912575
 21
14.779807
 31
0.0
  0
LINE
  5
65B
100
AcDbEntity
  8
BORDER
  6
CONTINUOUS
 62
     2
100
AcDbLine
 39
46.08
 10
23.137599
 20
14.779807
 30
0.0
 11
23.137599
 21
14.779807
 31
0.0
  0
LINE
  5
65C
100
AcDbEntity
  8
BORDER
  6
CONTINUOUS
 62
     2
100
AcDbLine
 39
46.08
 10
22.575103
 20
14.554847
 30
0.0
 11
22.575103
 21
14.554847
 31
0.0
  0
LINE
  5
65D
100
AcDbEntity
  8
BORDER
  6
CONTINUOUS
 62
     2
100
AcDbLine
 39
46.08
 10
22.800063
 20
14.554847
 30
0.0
 11
22.800063
 21
14.554847
 31
0.0
  0
LINE
  5
65E
100
AcDbEntity
  8
BORDER
  6
CONTINUOUS
 62
     2
100
AcDbLine
 39
46.08
 10
23.025087
 20
14.554847
 30
0.0
 11
23.025087
 21
14.554847
 31
0.0
  0
LINE
  5
65F
100
AcDbEntity
  8
BORDER
  6
CONTINUOUS
 62
     2
100
AcDbLine
 39
46.08
 10
23.250111
 20
14.554847
 30
0.0
 11
23.250111
 21
14.554847
 31
0.0
  0
LINE
  5
660
100
AcDbEntity
  8
BORDER
  6
CONTINUOUS
 62
     2
100
AcDbLine
 39
46.08
 10
22.462591
 20
14.329823
 30
0.0
 11
22.462591
 21
14.329823
 31
0.0
  0
LINE
  5
661
100
AcDbEntity
  8
BORDER
  6
CONTINUOUS
 62
     2
100
AcDbLine
 39
46.08
 10
22.687551
 20
14.329823
 30
0.0
 11
22.687551
 21
14.329823
 31
0.0
  0
LINE
  5
662
100
AcDbEntity
  8
BORDER
  6
CONTINUOUS
 62
     2
100
AcDbLine
 39
46.08
 10
22.912575
 20
14.329823
 30
0.0
 11
22.912575
 21
14.329823
 31
0.0
  0
LINE
  5
663
100
AcDbEntity
  8
BORDER
  6
CONTINUOUS
 62
     2
100
AcDbLine
 39
46.08
 10
23.137599
 20
14.329823
 30
0.0
 11
23.137599
 21
14.329823
 31
0.0
  0
LINE
  5
664
100
AcDbEntity
  8
BORDER
  6
CONTINUOUS
 62
     2
100
AcDbLine
 39
46.08
 10
22.575103
 20
14.104863
 30
0.0
 11
22.575103
 21
14.104863
 31
0.0
  0
LINE
  5
665
100
AcDbEntity
  8
BORDER
  6
CONTINUOUS
 62
     2
100
AcDbLine
 39
46.08
 10
22.800063
 20
14.104863
 30
0.0
 11
22.800063
 21
14.104863
 31
0.0
  0
LINE
  5
666
100
AcDbEntity
  8
BORDER
  6
CONTINUOUS
 62
     2
100
AcDbLine
 39
46.08
 10
23.025087
 20
14.104863
 30
0.0
 11
23.025087
 21
14.104863
 31
0.0
  0
LINE
  5
667
100
AcDbEntity
  8
BORDER
  6
CONTINUOUS
 62
     2
100
AcDbLine
 39
46.08
 10
23.250111
 20
14.104863
 30
0.0
 11
23.250111
 21
14.104863
 31
0.0
  0
LINE
  5
668
100
AcDbEntity
  8
BORDER
  6
CONTINUOUS
 62
     2
100
AcDbLine
 39
46.08
 10
22.462591
 20
13.879839
 30
0.0
 11
22.462591
 21
13.879839
 31
0.0
  0
LINE
  5
669
100
AcDbEntity
  8
BORDER
  6
CONTINUOUS
 62
     2
100
AcDbLine
 39
46.08
 10
22.687551
 20
13.879839
 30
0.0
 11
22.687551
 21
13.879839
 31
0.0
  0
LINE
  5
66A
100
AcDbEntity
  8
BORDER
  6
CONTINUOUS
 62
     2
100
AcDbLine
 39
46.08
 10
22.912575
 20
13.879839
 30
0.0
 11
22.912575
 21
13.879839
 31
0.0
  0
LINE
  5
66B
100
AcDbEntity
  8
BORDER
  6
CONTINUOUS
 62
     2
100
AcDbLine
 39
46.08
 10
23.137599
 20
13.879839
 30
0.0
 11
23.137599
 21
13.879839
 31
0.0
  0
LINE
  5
66C
100
AcDbEntity
  8
BORDER
  6
CONTINUOUS
 62
     2
100
AcDbLine
 39
46.08
 10
22.575103
 20
13.654815
 30
0.0
 11
22.575103
 21
13.654815
 31
0.0
  0
LINE
  5
66D
100
AcDbEntity
  8
BORDER
  6
CONTINUOUS
 62
     2
100
AcDbLine
 39
46.08
 10
22.800063
 20
13.654815
 30
0.0
 11
22.800063
 21
13.654815
 31
0.0
  0
LINE
  5
66E
100
AcDbEntity
  8
BORDER
  6
CONTINUOUS
 62
     2
100
AcDbLine
 39
46.08
 10
23.025087
 20
13.654815
 30
0.0
 11
23.025087
 21
13.654815
 31
0.0
  0
LINE
  5
66F
100
AcDbEntity
  8
BORDER
  6
CONTINUOUS
 62
     2
100
AcDbLine
 39
46.08
 10
23.250111
 20
13.654815
 30
0.0
 11
23.250111
 21
13.654815
 31
0.0
  0
LINE
  5
670
100
AcDbEntity
  8
BORDER
  6
CONTINUOUS
 62
     2
100
AcDbLine
 39
46.08
 10
22.462591
 20
13.429855
 30
0.0
 11
22.462591
 21
13.429855
 31
0.0
  0
LINE
  5
671
100
AcDbEntity
  8
BORDER
  6
CONTINUOUS
 62
     2
100
AcDbLine
 39
46.08
 10
22.687551
 20
13.429855
 30
0.0
 11
22.687551
 21
13.429855
 31
0.0
  0
LINE
  5
672
100
AcDbEntity
  8
BORDER
  6
CONTINUOUS
 62
     2
100
AcDbLine
 39
46.08
 10
22.912575
 20
13.429855
 30
0.0
 11
22.912575
 21
13.429855
 31
0.0
  0
LINE
  5
673
100
AcDbEntity
  8
BORDER
  6
CONTINUOUS
 62
     2
100
AcDbLine
 39
46.08
 10
23.137599
 20
13.429855
 30
0.0
 11
23.137599
 21
13.429855
 31
0.0
  0
LINE
  5
674
100
AcDbEntity
  8
BORDER
  6
CONTINUOUS
 62
     2
100
AcDbLine
 39
46.08
 10
22.575103
 20
13.204831
 30
0.0
 11
22.575103
 21
13.204831
 31
0.0
  0
LINE
  5
675
100
AcDbEntity
  8
BORDER
  6
CONTINUOUS
 62
     2
100
AcDbLine
 39
46.08
 10
22.800063
 20
13.204831
 30
0.0
 11
22.800063
 21
13.204831
 31
0.0
  0
LINE
  5
676
100
AcDbEntity
  8
BORDER
  6
CONTINUOUS
 62
     2
100
AcDbLine
 39
46.08
 10
23.025087
 20
13.204831
 30
0.0
 11
23.025087
 21
13.204831
 31
0.0
  0
LINE
  5
677
100
AcDbEntity
  8
BORDER
  6
CONTINUOUS
 62
     2
100
AcDbLine
 39
46.08
 10
23.250111
 20
13.204831
 30
0.0
 11
23.250111
 21
13.204831
 31
0.0
  0
LINE
  5
678
100
AcDbEntity
  8
BORDER
  6
CONTINUOUS
 62
     2
100
AcDbLine
 39
46.08
 10
22.462591
 20
12.979807
 30
0.0
 11
22.462591
 21
12.979807
 31
0.0
  0
LINE
  5
679
100
AcDbEntity
  8
BORDER
  6
CONTINUOUS
 62
     2
100
AcDbLine
 39
46.08
 10
22.687551
 20
12.979807
 30
0.0
 11
22.687551
 21
12.979807
 31
0.0
  0
LINE
  5
67A
100
AcDbEntity
  8
BORDER
  6
CONTINUOUS
 62
     2
100
AcDbLine
 39
46.08
 10
22.912575
 20
12.979807
 30
0.0
 11
22.912575
 21
12.979807
 31
0.0
  0
LINE
  5
67B
100
AcDbEntity
  8
BORDER
  6
CONTINUOUS
 62
     2
100
AcDbLine
 39
46.08
 10
23.137599
 20
12.979807
 30
0.0
 11
23.137599
 21
12.979807
 31
0.0
  0
LINE
  5
67C
100
AcDbEntity
  8
BORDER
  6
CONTINUOUS
 62
     2
100
AcDbLine
 39
46.08
 10
22.575103
 20
12.754847
 30
0.0
 11
22.575103
 21
12.754847
 31
0.0
  0
LINE
  5
67D
100
AcDbEntity
  8
BORDER
  6
CONTINUOUS
 62
     2
100
AcDbLine
 39
46.08
 10
22.800063
 20
12.754847
 30
0.0
 11
22.800063
 21
12.754847
 31
0.0
  0
LINE
  5
67E
100
AcDbEntity
  8
BORDER
  6
CONTINUOUS
 62
     2
100
AcDbLine
 39
46.08
 10
23.025087
 20
12.754847
 30
0.0
 11
23.025087
 21
12.754847
 31
0.0
  0
LINE
  5
67F
100
AcDbEntity
  8
BORDER
  6
CONTINUOUS
 62
     2
100
AcDbLine
 39
46.08
 10
23.250111
 20
12.754847
 30
0.0
 11
23.250111
 21
12.754847
 31
0.0
  0
LINE
  5
680
100
AcDbEntity
  8
BORDER
  6
CONTINUOUS
 62
     2
100
AcDbLine
 39
46.08
 10
22.462591
 20
12.529823
 30
0.0
 11
22.462591
 21
12.529823
 31
0.0
  0
LINE
  5
681
100
AcDbEntity
  8
BORDER
  6
CONTINUOUS
 62
     2
100
AcDbLine
 39
46.08
 10
22.687551
 20
12.529823
 30
0.0
 11
22.687551
 21
12.529823
 31
0.0
  0
LINE
  5
682
100
AcDbEntity
  8
BORDER
  6
CONTINUOUS
 62
     2
100
AcDbLine
 39
46.08
 10
22.912575
 20
12.529823
 30
0.0
 11
22.912575
 21
12.529823
 31
0.0
  0
LINE
  5
683
100
AcDbEntity
  8
BORDER
  6
CONTINUOUS
 62
     2
100
AcDbLine
 39
46.08
 10
23.137599
 20
12.529823
 30
0.0
 11
23.137599
 21
12.529823
 31
0.0
  0
LINE
  5
684
100
AcDbEntity
  8
BORDER
  6
CONTINUOUS
 62
     2
100
AcDbLine
 39
46.08
 10
22.575103
 20
12.304863
 30
0.0
 11
22.575103
 21
12.304863
 31
0.0
  0
LINE
  5
685
100
AcDbEntity
  8
BORDER
  6
CONTINUOUS
 62
     2
100
AcDbLine
 39
46.08
 10
22.800063
 20
12.304863
 30
0.0
 11
22.800063
 21
12.304863
 31
0.0
  0
LINE
  5
686
100
AcDbEntity
  8
BORDER
  6
CONTINUOUS
 62
     2
100
AcDbLine
 39
46.08
 10
23.025087
 20
12.304863
 30
0.0
 11
23.025087
 21
12.304863
 31
0.0
  0
LINE
  5
687
100
AcDbEntity
  8
BORDER
  6
CONTINUOUS
 62
     2
100
AcDbLine
 39
46.08
 10
23.250111
 20
12.304863
 30
0.0
 11
23.250111
 21
12.304863
 31
0.0
  0
LINE
  5
688
100
AcDbEntity
  8
BORDER
  6
CONTINUOUS
 62
     2
100
AcDbLine
 39
46.08
 10
22.462591
 20
12.079839
 30
0.0
 11
22.462591
 21
12.079839
 31
0.0
  0
LINE
  5
689
100
AcDbEntity
  8
BORDER
  6
CONTINUOUS
 62
     2
100
AcDbLine
 39
46.08
 10
22.687551
 20
12.079839
 30
0.0
 11
22.687551
 21
12.079839
 31
0.0
  0
LINE
  5
68A
100
AcDbEntity
  8
BORDER
  6
CONTINUOUS
 62
     2
100
AcDbLine
 39
46.08
 10
22.912575
 20
12.079839
 30
0.0
 11
22.912575
 21
12.079839
 31
0.0
  0
LINE
  5
68B
100
AcDbEntity
  8
BORDER
  6
CONTINUOUS
 62
     2
100
AcDbLine
 39
46.08
 10
23.137599
 20
12.079839
 30
0.0
 11
23.137599
 21
12.079839
 31
0.0
  0
LINE
  5
68C
100
AcDbEntity
  8
BORDER
  6
CONTINUOUS
 62
     2
100
AcDbLine
 39
46.08
 10
22.575103
 20
11.854815
 30
0.0
 11
22.575103
 21
11.854815
 31
0.0
  0
LINE
  5
68D
100
AcDbEntity
  8
BORDER
  6
CONTINUOUS
 62
     2
100
AcDbLine
 39
46.08
 10
22.800063
 20
11.854815
 30
0.0
 11
22.800063
 21
11.854815
 31
0.0
  0
LINE
  5
68E
100
AcDbEntity
  8
BORDER
  6
CONTINUOUS
 62
     2
100
AcDbLine
 39
46.08
 10
23.025087
 20
11.854815
 30
0.0
 11
23.025087
 21
11.854815
 31
0.0
  0
LINE
  5
68F
100
AcDbEntity
  8
BORDER
  6
CONTINUOUS
 62
     2
100
AcDbLine
 39
46.08
 10
23.250111
 20
11.854815
 30
0.0
 11
23.250111
 21
11.854815
 31
0.0
  0
LINE
  5
690
100
AcDbEntity
  8
BORDER
  6
CONTINUOUS
 62
     2
100
AcDbLine
 39
46.08
 10
22.462591
 20
11.629855
 30
0.0
 11
22.462591
 21
11.629855
 31
0.0
  0
LINE
  5
691
100
AcDbEntity
  8
BORDER
  6
CONTINUOUS
 62
     2
100
AcDbLine
 39
46.08
 10
22.687551
 20
11.629855
 30
0.0
 11
22.687551
 21
11.629855
 31
0.0
  0
LINE
  5
692
100
AcDbEntity
  8
BORDER
  6
CONTINUOUS
 62
     2
100
AcDbLine
 39
46.08
 10
22.912575
 20
11.629855
 30
0.0
 11
22.912575
 21
11.629855
 31
0.0
  0
LINE
  5
693
100
AcDbEntity
  8
BORDER
  6
CONTINUOUS
 62
     2
100
AcDbLine
 39
46.08
 10
23.137599
 20
11.629855
 30
0.0
 11
23.137599
 21
11.629855
 31
0.0
  0
LINE
  5
694
100
AcDbEntity
  8
BORDER
  6
CONTINUOUS
 62
     2
100
AcDbLine
 39
46.08
 10
22.575103
 20
11.404831
 30
0.0
 11
22.575103
 21
11.404831
 31
0.0
  0
LINE
  5
695
100
AcDbEntity
  8
BORDER
  6
CONTINUOUS
 62
     2
100
AcDbLine
 39
46.08
 10
22.800063
 20
11.404831
 30
0.0
 11
22.800063
 21
11.404831
 31
0.0
  0
LINE
  5
696
100
AcDbEntity
  8
BORDER
  6
CONTINUOUS
 62
     2
100
AcDbLine
 39
46.08
 10
23.025087
 20
11.404831
 30
0.0
 11
23.025087
 21
11.404831
 31
0.0
  0
LINE
  5
697
100
AcDbEntity
  8
BORDER
  6
CONTINUOUS
 62
     2
100
AcDbLine
 39
46.08
 10
23.250111
 20
11.404831
 30
0.0
 11
23.250111
 21
11.404831
 31
0.0
  0
LINE
  5
698
100
AcDbEntity
  8
BORDER
  6
CONTINUOUS
 62
     2
100
AcDbLine
 39
46.08
 10
22.462591
 20
11.179807
 30
0.0
 11
22.462591
 21
11.179807
 31
0.0
  0
LINE
  5
699
100
AcDbEntity
  8
BORDER
  6
CONTINUOUS
 62
     2
100
AcDbLine
 39
46.08
 10
22.687551
 20
11.179807
 30
0.0
 11
22.687551
 21
11.179807
 31
0.0
  0
LINE
  5
69A
100
AcDbEntity
  8
BORDER
  6
CONTINUOUS
 62
     2
100
AcDbLine
 39
46.08
 10
22.912575
 20
11.179807
 30
0.0
 11
22.912575
 21
11.179807
 31
0.0
  0
LINE
  5
69B
100
AcDbEntity
  8
BORDER
  6
CONTINUOUS
 62
     2
100
AcDbLine
 39
46.08
 10
23.137599
 20
11.179807
 30
0.0
 11
23.137599
 21
11.179807
 31
0.0
  0
LINE
  5
69C
100
AcDbEntity
  8
BORDER
  6
CONTINUOUS
 62
     2
100
AcDbLine
 39
46.08
 10
22.575103
 20
10.954847
 30
0.0
 11
22.575103
 21
10.954847
 31
0.0
  0
LINE
  5
69D
100
AcDbEntity
  8
BORDER
  6
CONTINUOUS
 62
     2
100
AcDbLine
 39
46.08
 10
22.800063
 20
10.954847
 30
0.0
 11
22.800063
 21
10.954847
 31
0.0
  0
LINE
  5
69E
100
AcDbEntity
  8
BORDER
  6
CONTINUOUS
 62
     2
100
AcDbLine
 39
46.08
 10
23.025087
 20
10.954847
 30
0.0
 11
23.025087
 21
10.954847
 31
0.0
  0
LINE
  5
69F
100
AcDbEntity
  8
BORDER
  6
CONTINUOUS
 62
     2
100
AcDbLine
 39
46.08
 10
23.250111
 20
10.954847
 30
0.0
 11
23.250111
 21
10.954847
 31
0.0
  0
LINE
  5
6A0
100
AcDbEntity
  8
BORDER
  6
CONTINUOUS
 62
     2
100
AcDbLine
 39
46.08
 10
22.462591
 20
10.729823
 30
0.0
 11
22.462591
 21
10.729823
 31
0.0
  0
LINE
  5
6A1
100
AcDbEntity
  8
BORDER
  6
CONTINUOUS
 62
     2
100
AcDbLine
 39
46.08
 10
22.687551
 20
10.729823
 30
0.0
 11
22.687551
 21
10.729823
 31
0.0
  0
LINE
  5
6A2
100
AcDbEntity
  8
BORDER
  6
CONTINUOUS
 62
     2
100
AcDbLine
 39
46.08
 10
22.912575
 20
10.729823
 30
0.0
 11
22.912575
 21
10.729823
 31
0.0
  0
LINE
  5
6A3
100
AcDbEntity
  8
BORDER
  6
CONTINUOUS
 62
     2
100
AcDbLine
 39
46.08
 10
23.137599
 20
10.729823
 30
0.0
 11
23.137599
 21
10.729823
 31
0.0
  0
LINE
  5
6A4
100
AcDbEntity
  8
BORDER
  6
CONTINUOUS
 62
     2
100
AcDbLine
 39
46.08
 10
22.575103
 20
10.504863
 30
0.0
 11
22.575103
 21
10.504863
 31
0.0
  0
LINE
  5
6A5
100
AcDbEntity
  8
BORDER
  6
CONTINUOUS
 62
     2
100
AcDbLine
 39
46.08
 10
22.800063
 20
10.504863
 30
0.0
 11
22.800063
 21
10.504863
 31
0.0
  0
LINE
  5
6A6
100
AcDbEntity
  8
BORDER
  6
CONTINUOUS
 62
     2
100
AcDbLine
 39
46.08
 10
23.025087
 20
10.504863
 30
0.0
 11
23.025087
 21
10.504863
 31
0.0
  0
LINE
  5
6A7
100
AcDbEntity
  8
BORDER
  6
CONTINUOUS
 62
     2
100
AcDbLine
 39
46.08
 10
23.250111
 20
10.504863
 30
0.0
 11
23.250111
 21
10.504863
 31
0.0
  0
LINE
  5
6A8
100
AcDbEntity
  8
BORDER
  6
CONTINUOUS
 62
     2
100
AcDbLine
 39
46.08
 10
22.462591
 20
10.279839
 30
0.0
 11
22.462591
 21
10.279839
 31
0.0
  0
LINE
  5
6A9
100
AcDbEntity
  8
BORDER
  6
CONTINUOUS
 62
     2
100
AcDbLine
 39
46.08
 10
22.687551
 20
10.279839
 30
0.0
 11
22.687551
 21
10.279839
 31
0.0
  0
LINE
  5
6AA
100
AcDbEntity
  8
BORDER
  6
CONTINUOUS
 62
     2
100
AcDbLine
 39
46.08
 10
22.912575
 20
10.279839
 30
0.0
 11
22.912575
 21
10.279839
 31
0.0
  0
LINE
  5
6AB
100
AcDbEntity
  8
BORDER
  6
CONTINUOUS
 62
     2
100
AcDbLine
 39
46.08
 10
23.137599
 20
10.279839
 30
0.0
 11
23.137599
 21
10.279839
 31
0.0
  0
LINE
  5
6AC
100
AcDbEntity
  8
BORDER
  6
CONTINUOUS
 62
     2
100
AcDbLine
 39
46.08
 10
22.575103
 20
10.054815
 30
0.0
 11
22.575103
 21
10.054815
 31
0.0
  0
LINE
  5
6AD
100
AcDbEntity
  8
BORDER
  6
CONTINUOUS
 62
     2
100
AcDbLine
 39
46.08
 10
22.800063
 20
10.054815
 30
0.0
 11
22.800063
 21
10.054815
 31
0.0
  0
LINE
  5
6AE
100
AcDbEntity
  8
BORDER
  6
CONTINUOUS
 62
     2
100
AcDbLine
 39
46.08
 10
23.025087
 20
10.054815
 30
0.0
 11
23.025087
 21
10.054815
 31
0.0
  0
LINE
  5
6AF
100
AcDbEntity
  8
BORDER
  6
CONTINUOUS
 62
     2
100
AcDbLine
 39
46.08
 10
22.462591
 20
9.829855
 30
0.0
 11
22.462591
 21
9.829855
 31
0.0
  0
LINE
  5
6B0
100
AcDbEntity
  8
BORDER
  6
CONTINUOUS
 62
     2
100
AcDbLine
 39
46.08
 10
22.687551
 20
9.829855
 30
0.0
 11
22.687551
 21
9.829855
 31
0.0
  0
LINE
  5
6B1
100
AcDbEntity
  8
BORDER
  6
CONTINUOUS
 62
     2
100
AcDbLine
 39
46.08
 10
22.912575
 20
9.829855
 30
0.0
 11
22.912575
 21
9.829855
 31
0.0
  0
LINE
  5
6B2
100
AcDbEntity
  8
BORDER
  6
CONTINUOUS
 62
     2
100
AcDbLine
 39
46.08
 10
23.137599
 20
9.829855
 30
0.0
 11
23.137599
 21
9.829855
 31
0.0
  0
LINE
  5
6B3
100
AcDbEntity
  8
BORDER
  6
CONTINUOUS
 62
     2
100
AcDbLine
 39
46.08
 10
22.575103
 20
9.604831
 30
0.0
 11
22.575103
 21
9.604831
 31
0.0
  0
LINE
  5
6B4
100
AcDbEntity
  8
BORDER
  6
CONTINUOUS
 62
     2
100
AcDbLine
 39
46.08
 10
22.800063
 20
9.604831
 30
0.0
 11
22.800063
 21
9.604831
 31
0.0
  0
LINE
  5
6B5
100
AcDbEntity
  8
BORDER
  6
CONTINUOUS
 62
     2
100
AcDbLine
 39
46.08
 10
23.025087
 20
9.604831
 30
0.0
 11
23.025087
 21
9.604831
 31
0.0
  0
LINE
  5
6B6
100
AcDbEntity
  8
BORDER
  6
CONTINUOUS
 62
     2
100
AcDbLine
 39
46.08
 10
23.250111
 20
9.604831
 30
0.0
 11
23.250111
 21
9.604831
 31
0.0
  0
LINE
  5
6B7
100
AcDbEntity
  8
BORDER
  6
CONTINUOUS
 62
     3
100
AcDbLine
 39
46.08
 10
23.335423
 20
9.445023
 30
0.0
 11
22.435391
 21
9.445023
 31
0.0
  0
LINE
  5
6B8
100
AcDbEntity
  8
BORDER
  6
CONTINUOUS
 62
     3
100
AcDbLine
 39
46.08
 10
22.435391
 20
9.445023
 30
0.0
 11
23.335423
 21
9.445023
 31
0.0
  0
LINE
  5
6B9
100
AcDbEntity
  8
BORDER
  6
CONTINUOUS
 62
     3
100
AcDbLine
 39
46.08
 10
23.335423
 20
9.445023
 30
0.0
 11
22.435391
 21
9.445023
 31
0.0
  0
LINE
  5
6BA
100
AcDbEntity
  8
BORDER
  6
CONTINUOUS
 62
     2
100
AcDbLine
 39
46.08
 10
22.462591
 20
9.379807
 30
0.0
 11
22.462591
 21
9.379807
 31
0.0
  0
LINE
  5
6BB
100
AcDbEntity
  8
BORDER
  6
CONTINUOUS
 62
     2
100
AcDbLine
 39
46.08
 10
22.687551
 20
9.379807
 30
0.0
 11
22.687551
 21
9.379807
 31
0.0
  0
LINE
  5
6BC
100
AcDbEntity
  8
BORDER
  6
CONTINUOUS
 62
     2
100
AcDbLine
 39
46.08
 10
22.912575
 20
9.379807
 30
0.0
 11
22.912575
 21
9.379807
 31
0.0
  0
LINE
  5
6BD
100
AcDbEntity
  8
BORDER
  6
CONTINUOUS
 62
     2
100
AcDbLine
 39
46.08
 10
23.137599
 20
9.379807
 30
0.0
 11
23.137599
 21
9.379807
 31
0.0
  0
LINE
  5
6BE
100
AcDbEntity
  8
BORDER
  6
CONTINUOUS
 62
     2
100
AcDbLine
 39
46.08
 10
22.575103
 20
9.154847
 30
0.0
 11
22.575103
 21
9.154847
 31
0.0
  0
LINE
  5
6BF
100
AcDbEntity
  8
BORDER
  6
CONTINUOUS
 62
     2
100
AcDbLine
 39
46.08
 10
22.800063
 20
9.154847
 30
0.0
 11
22.800063
 21
9.154847
 31
0.0
  0
LINE
  5
6C0
100
AcDbEntity
  8
BORDER
  6
CONTINUOUS
 62
     2
100
AcDbLine
 39
46.08
 10
23.025087
 20
9.154847
 30
0.0
 11
23.025087
 21
9.154847
 31
0.0
  0
LINE
  5
6C1
100
AcDbEntity
  8
BORDER
  6
CONTINUOUS
 62
     2
100
AcDbLine
 39
46.08
 10
23.250111
 20
9.154847
 30
0.0
 11
23.250111
 21
9.154847
 31
0.0
  0
LINE
  5
6C2
100
AcDbEntity
  8
BORDER
  6
CONTINUOUS
 62
     2
100
AcDbLine
 39
46.08
 10
22.462591
 20
8.929823
 30
0.0
 11
22.462591
 21
8.929823
 31
0.0
  0
LINE
  5
6C3
100
AcDbEntity
  8
BORDER
  6
CONTINUOUS
 62
     2
100
AcDbLine
 39
46.08
 10
22.687551
 20
8.929823
 30
0.0
 11
22.687551
 21
8.929823
 31
0.0
  0
LINE
  5
6C4
100
AcDbEntity
  8
BORDER
  6
CONTINUOUS
 62
     2
100
AcDbLine
 39
46.08
 10
22.912575
 20
8.929823
 30
0.0
 11
22.912575
 21
8.929823
 31
0.0
  0
LINE
  5
6C5
100
AcDbEntity
  8
BORDER
  6
CONTINUOUS
 62
     2
100
AcDbLine
 39
46.08
 10
23.137599
 20
8.929823
 30
0.0
 11
23.137599
 21
8.929823
 31
0.0
  0
LINE
  5
6C6
100
AcDbEntity
  8
BORDER
  6
CONTINUOUS
 62
     2
100
AcDbLine
 39
46.08
 10
22.575103
 20
8.704863
 30
0.0
 11
22.575103
 21
8.704863
 31
0.0
  0
LINE
  5
6C7
100
AcDbEntity
  8
BORDER
  6
CONTINUOUS
 62
     2
100
AcDbLine
 39
46.08
 10
22.800063
 20
8.704863
 30
0.0
 11
22.800063
 21
8.704863
 31
0.0
  0
LINE
  5
6C8
100
AcDbEntity
  8
BORDER
  6
CONTINUOUS
 62
     2
100
AcDbLine
 39
46.08
 10
23.025087
 20
8.704863
 30
0.0
 11
23.025087
 21
8.704863
 31
0.0
  0
LINE
  5
6C9
100
AcDbEntity
  8
BORDER
  6
CONTINUOUS
 62
     2
100
AcDbLine
 39
46.08
 10
23.250111
 20
8.704863
 30
0.0
 11
23.250111
 21
8.704863
 31
0.0
  0
LINE
  5
6CA
100
AcDbEntity
  8
BORDER
  6
CONTINUOUS
 62
     2
100
AcDbLine
 39
46.08
 10
22.462591
 20
8.479839
 30
0.0
 11
22.462591
 21
8.479839
 31
0.0
  0
LINE
  5
6CB
100
AcDbEntity
  8
BORDER
  6
CONTINUOUS
 62
     2
100
AcDbLine
 39
46.08
 10
22.687551
 20
8.479839
 30
0.0
 11
22.687551
 21
8.479839
 31
0.0
  0
LINE
  5
6CC
100
AcDbEntity
  8
BORDER
  6
CONTINUOUS
 62
     2
100
AcDbLine
 39
46.08
 10
22.912575
 20
8.479839
 30
0.0
 11
22.912575
 21
8.479839
 31
0.0
  0
LINE
  5
6CD
100
AcDbEntity
  8
BORDER
  6
CONTINUOUS
 62
     2
100
AcDbLine
 39
46.08
 10
23.137599
 20
8.479839
 30
0.0
 11
23.137599
 21
8.479839
 31
0.0
  0
INSERT
  5
6CE
100
AcDbEntity
  8
RF-SW
100
AcDbBlockReference
  2
H25
 10
22.401657
 20
17.400655
 30
0.0
 41
0.5
 42
0.5
 43
0.5
 50
270.0
  0
LINE
  5
6CF
100
AcDbEntity
  8
BORDER
  6
CONTINUOUS
 62
    14
100
AcDbLine
 39
46.08
 10
38.523391
 20
23.166367
 30
0.0
 11
26.185407
 21
19.053599
 31
0.0
  0
TEXT
  5
6D0
100
AcDbEntity
  8
BORDER
  6
CONTINUOUS
 62
     1
100
AcDbText
 10
25.967714
 20
11.772274
 30
0.0
 40
0.71982
  1
2 X 6 PL. WITH ANCHOR BOLTS
  7
ROMAN
100
AcDbText
  0
TEXT
  5
6D1
100
AcDbEntity
  8
BORDER
  6
CONTINUOUS
 62
     1
100
AcDbText
 10
26.945954
 20
13.932708
 30
0.0
 40
0.71982
  1
FRAMING ANCHOR AS REQUIRED
  7
ROMAN
100
AcDbText
  0
TEXT
  5
6D2
100
AcDbEntity
  8
BORDER
  6
CONTINUOUS
 62
     1
100
AcDbText
 10
25.967714
 20
10.676239
 30
0.0
 40
0.71982
  1
(MIN.-1/2"%%C A.B. @ 45" O.C.)
  7
ROMAN
100
AcDbText
  0
LEADER
  5
6D3
100
AcDbEntity
  8
RF-SW
 62
    13
100
AcDbLeader
  3
ARCHITECTURAL
 76
     3
 10
23.261734
 20
18.615366
 30
0.0
 10
25.697588
 20
14.394494
 30
0.0
 10
26.76907
 20
14.394494
 30
0.0
 77
    13
1001
ACAD
1000
DSTYLE
1002
{
1070
    40
1040
12.0
1070
   173
1070
     1
1070
     7
1000
_CLOSEDBLANK
1070
     6
1000
_CLOSEDBLANK
1070
    41
1040
0.0625
1002
}
  0
LEADER
  5
6D4
100
AcDbEntity
  8
RF-SW
 62
    13
100
AcDbLeader
  3
ARCHITECTURAL
 76
     3
 10
30.042704
 20
23.45536
 30
0.0
 10
27.661693
 20
25.710194
 30
0.0
 10
26.590211
 20
25.710194
 30
0.0
 77
    13
211
-1.0
221
0.0
231
0.0
1001
ACAD
1000
DSTYLE
1002
{
1070
    40
1040
12.0
1070
   173
1070
     1
1070
     7
1000
_CLOSEDBLANK
1070
     6
1000
_CLOSEDBLANK
1070
    41
1040
0.0625
1002
}
  0
LEADER
  5
6D5
100
AcDbEntity
  8
RF-SW
 62
    13
100
AcDbLeader
  3
ARCHITECTURAL
 76
     3
 10
34.663596
 20
24.662545
 30
0.0
 10
30.996398
 20
28.135407
 30
0.0
 10
29.924916
 20
28.135407
 30
0.0
 77
    13
211
-1.0
221
0.0
231
0.0
1001
ACAD
1000
DSTYLE
1002
{
1070
    40
1040
12.0
1070
   173
1070
     1
1070
     7
1000
_CLOSEDBLANK
1070
     6
1000
_CLOSEDBLANK
1070
    41
1040
0.0625
1002
}
  0
ENDBLK
  5
6D7
100
AcDbEntity
  8
0
100
AcDbBlockEnd
  0
ENDSEC
  0
SECTION
  2
ENTITIES
  0
TEXT
  5
2B
100
AcDbEntity
  8
DRAWING
100
AcDbText
 10
20.510802
 20
12.319209
 30
0.0
 40
2.0
  1
SLANT ROOF CONNECTION
  7
TITLE
 72
     1
 11
41.225088
 21
12.319209
 31
0.0
100
AcDbText
  0
LEADER
  5
6DA
100
AcDbEntity
  8
RF-SW
 62
     6
100
AcDbLeader
  3
ARCHITECTURAL
 76
     3
 10
41.137433
 20
36.746561
 30
0.0
 10
44.104837
 20
32.134626
 30
0.0
 10
45.176319
 20
32.134626
 30
0.0
 77
    13
1001
ACAD
1000
DSTYLE
1002
{
1070
    40
1040
12.0
1070
   173
1070
     1
1070
   176
1070
     6
1070
     7
1000
_CLOSEDBLANK
1070
     6
1000
_CLOSEDBLANK
1070
    41
1040
0.0625
1002
}
  0
LINE
  5
6DB
100
AcDbEntity
  8
BORDER
  6
CONTINUOUS
 62
     3
100
AcDbLine
 39
46.05696
 10
40.758649
 20
25.031734
 30
0.0
 11
43.847225
 21
25.499702
 31
0.0
  0
LINE
  5
6DC
100
AcDbEntity
  8
RF-SW
100
AcDbLine
 10
41.727028
 20
37.088577
 30
0.0
 11
41.087546
 21
37.088577
 31
0.0
  0
LINE
  5
6DD
100
AcDbEntity
  8
BORDER
  6
DASHED
 62
     7
100
AcDbLine
 39
46.08
 10
45.388025
 20
39.13471
 30
0.0
 11
40.434297
 21
37.483574
 31
0.0
  0
TEXT
  5
6DE
100
AcDbEntity
  8
DIM_TEXT
100
AcDbText
 10
36.337943
 20
45.294576
 30
0.0
 40
0.71982
  1
ROOF SHEATHING
 51
15.0
  7
INFO
100
AcDbText
  0
LINE
  5
6DF
100
AcDbEntity
  8
BORDER
  6
CONTINUOUS
 62
     3
100
AcDbLine
 39
46.08
 10
41.586425
 20
37.45471
 30
0.0
 11
38.638009
 21
36.759158
 31
0.0
  0
LINE
  5
6E0
100
AcDbEntity
  8
BORDER
  6
CONTINUOUS
 62
     3
100
AcDbLine
 39
46.08
 10
38.638265
 20
37.363702
 30
0.0
 11
41.586425
 21
36.73471
 31
0.0
  0
LINE
  5
6E1
100
AcDbEntity
  8
BORDER
  6
CONTINUOUS
 62
     3
100
AcDbLine
 39
46.08
 10
41.307769
 20
40.557494
 30
0.0
 11
41.877049
 21
41.12671
 31
0.0
  0
ARC
  5
6E2
100
AcDbEntity
  8
BORDER
  6
CONTINUOUS
 62
     3
100
AcDbCircle
 39
46.08
 10
40.138041
 20
29.526134
 30
0.0
 40
1.44
100
AcDbArc
 50
0.0
 51
180.0
  0
ARC
  5
6E3
100
AcDbEntity
  8
BORDER
  6
CONTINUOUS
 62
     3
100
AcDbCircle
 39
46.08
 10
40.138041
 20
36.726134
 30
0.0
 40
1.44
100
AcDbArc
 50
180.0
 51
0.0
  0
ARC
  5
6E4
100
AcDbEntity
  8
BORDER
  6
CONTINUOUS
 62
     3
100
AcDbCircle
 39
46.08
 10
40.138041
 20
29.526134
 30
0.0
 40
1.44
100
AcDbArc
 50
180.0
 51
0.0
  0
LINE
  5
6E5
100
AcDbEntity
  8
BORDER
  6
CONTINUOUS
 62
     7
100
AcDbLine
 39
46.08
 10
38.638009
 20
36.726134
 30
0.0
 11
41.578041
 21
36.726134
 31
0.0
  0
LINE
  5
6E6
100
AcDbEntity
  8
BORDER
  6
CONTINUOUS
 62
     7
100
AcDbLine
 39
46.08
 10
57.222777
 20
45.862518
 30
0.0
 11
29.220345
 21
36.52831
 31
0.0
  0
LINE
  5
6E7
100
AcDbEntity
  8
BORDER
  6
CONTINUOUS
 62
     7
100
AcDbLine
 39
46.08
 10
57.222777
 20
46.241974
 30
0.0
 11
29.220345
 21
36.90783
 31
0.0
  0
LINE
  5
6E8
100
AcDbEntity
  8
BORDER
  6
CONTINUOUS
 62
     3
100
AcDbLine
 39
46.08
 10
57.170041
 20
46.034678
 30
0.0
 11
29.220345
 21
36.71807
 31
0.0
  0
TEXT
  5
6E9
100
AcDbEntity
  8
DIM_TEXT
100
AcDbText
 10
38.894665
 20
47.680214
 30
0.0
 40
0.71982
  1
RAFTER PER PLAN
 51
15.0
  7
INFO
100
AcDbText
  0
LINE
  5
6EA
100
AcDbEntity
  8
BORDER
  6
CONTINUOUS
 62
     7
100
AcDbLine
 39
46.08
 10
38.638265
 20
37.446134
 30
0.0
 11
57.222521
 21
37.500342
 31
0.0
  0
LINE
  5
6EB
100
AcDbEntity
  8
BORDER
  6
CONTINUOUS
 62
     7
100
AcDbLine
 39
46.08
 10
39.35897
 20
39.508845
 30
0.0
 11
57.222521
 21
39.561014
 31
0.0
  0
LEADER
  5
6EC
100
AcDbEntity
  8
RF-SW
 62
     6
100
AcDbLeader
  3
ARCHITECTURAL
 76
     3
 10
40.30347
 20
29.412856
 30
0.0
 10
33.844699
 20
23.655926
 30
0.0
 10
32.502747
 20
23.655926
 30
0.0
 77
    13
1001
ACAD
1000
DSTYLE
1002
{
1070
    40
1040
12.0
1070
   173
1070
     1
1070
   176
1070
     6
1070
     7
1000
_CLOSEDBLANK
1070
     6
1000
_CLOSEDBLANK
1070
    41
1040
0.0625
1002
}
  0
LEADER
  5
6ED
100
AcDbEntity
  8
RF-SW
 62
     6
100
AcDbLeader
  3
ARCHITECTURAL
 76
     3
 10
39.871778
 20
34.480969
 30
0.0
 10
33.647497
 20
28.366812
 30
0.0
 10
32.305545
 20
28.366812
 30
0.0
 77
    13
1001
ACAD
1000
DSTYLE
1002
{
1070
    40
1040
12.0
1070
   173
1070
     1
1070
   176
1070
     6
1070
     7
1000
_CLOSEDBLANK
1070
     6
1000
_CLOSEDBLANK
1070
    41
1040
0.0625
1002
}
  0
TEXT
  5
6EE
100
AcDbEntity
  8
DIM_TEXT
100
AcDbText
 10
25.307143
 20
28.036399
 30
0.0
 40
0.71982
  1
VERT. REINF.
 51
15.0
  7
INFO
100
AcDbText
  0
LINE
  5
6EF
100
AcDbEntity
  8
BORDER
  6
CONTINUOUS
 62
     3
100
AcDbLine
 39
46.08
 10
37.738041
 20
29.526134
 30
0.0
 11
37.738041
 21
24.574006
 31
0.0
  0
LINE
  5
6F0
100
AcDbEntity
  8
BORDER
  6
CONTINUOUS
 62
     3
100
AcDbLine
 39
46.08
 10
38.638009
 20
29.526134
 30
0.0
 11
38.638009
 21
24.71039
 31
0.0
  0
LINE
  5
6F1
100
AcDbEntity
  8
BORDER
  6
CONTINUOUS
 62
     1
100
AcDbLine
 39
46.08
 10
39.222073
 20
28.437686
 30
0.0
 11
39.226041
 21
28.459894
 31
0.0
  0
LINE
  5
6F2
100
AcDbEntity
  8
BORDER
  6
CONTINUOUS
 62
     7
100
AcDbLine
 39
46.068474
 10
39.831929
 20
26.358104
 30
0.0
 11
39.831929
 21
36.258734
 31
0.0
  0
LINE
  5
6F3
100
AcDbEntity
  8
BORDER
  6
CONTINUOUS
 62
     1
100
AcDbLine
 39
46.08
 10
41.278009
 20
25.298166
 30
0.0
 11
41.295353
 21
25.322678
 31
0.0
  0
LINE
  5
6F4
100
AcDbEntity
  8
BORDER
  6
CONTINUOUS
 62
     3
100
AcDbLine
 39
46.05696
 10
40.347769
 20
22.977782
 30
0.0
 11
40.758649
 21
25.03167
 31
0.0
  0
LINE
  5
6F5
100
AcDbEntity
  8
BORDER
  6
CONTINUOUS
 62
     1
100
AcDbLine
 39
46.08
 10
40.432377
 20
25.681782
 30
0.0
 11
40.460537
 21
25.692022
 31
0.0
  0
LINE
  5
6F6
100
AcDbEntity
  8
BORDER
  6
CONTINUOUS
 62
     1
100
AcDbLine
 39
46.08
 10
40.021753
 20
26.809398
 30
0.0
 11
40.050105
 21
26.819702
 31
0.0
  0
LINE
  5
6F7
100
AcDbEntity
  8
BORDER
  6
CONTINUOUS
 62
     1
100
AcDbLine
 39
46.08
 10
39.312057
 20
26.674678
 30
0.0
 11
39.329401
 21
26.699254
 31
0.0
  0
LINE
  5
6F8
100
AcDbEntity
  8
BORDER
  6
CONTINUOUS
 62
     1
100
AcDbLine
 39
46.08
 10
40.295033
 20
25.986422
 30
0.0
 11
40.312377
 21
26.010998
 31
0.0
  0
LINE
  5
6F9
100
AcDbEntity
  8
BORDER
  6
CONTINUOUS
 62
     1
100
AcDbLine
 39
46.08
 10
39.455033
 20
25.99519
 30
0.0
 11
39.460217
 21
26.024694
 31
0.0
  0
LINE
  5
6FA
100
AcDbEntity
  8
BORDER
  6
CONTINUOUS
 62
     1
100
AcDbLine
 39
46.08
 10
40.636793
 20
25.786806
 30
0.0
 11
40.641913
 21
25.816374
 31
0.0
  0
LINE
  5
6FB
100
AcDbEntity
  8
BORDER
  6
CONTINUOUS
 62
     3
100
AcDbLine
 39
46.05696
 10
39.781305
 20
26.689846
 30
0.0
 11
40.347769
 21
22.977782
 31
0.0
  0
LINE
  5
6FC
100
AcDbEntity
  8
BORDER
  6
CONTINUOUS
 62
     3
100
AcDbLine
 39
46.05696
 10
39.343033
 20
24.838902
 30
0.0
 11
39.781305
 21
26.689846
 31
0.0
  0
LINE
  5
6FD
100
AcDbEntity
  8
BORDER
  6
CONTINUOUS
 62
     1
100
AcDbLine
 39
46.08
 10
38.894201
 20
26.398966
 30
0.0
 11
38.922553
 21
26.40927
 31
0.0
  0
LINE
  5
6FE
100
AcDbEntity
  8
BORDER
  6
CONTINUOUS
 62
     2
100
AcDbLine
 39
46.08
 10
37.840185
 20
26.76095
 30
0.0
 11
37.840185
 21
26.76095
 31
0.0
  0
LINE
  5
6FF
100
AcDbEntity
  8
BORDER
  6
CONTINUOUS
 62
     2
100
AcDbLine
 39
46.08
 10
38.065209
 20
26.76095
 30
0.0
 11
38.065209
 21
26.76095
 31
0.0
  0
LINE
  5
700
100
AcDbEntity
  8
BORDER
  6
CONTINUOUS
 62
     2
100
AcDbLine
 39
46.08
 10
38.290233
 20
26.76095
 30
0.0
 11
38.290233
 21
26.76095
 31
0.0
  0
LINE
  5
701
100
AcDbEntity
  8
BORDER
  6
CONTINUOUS
 62
     2
100
AcDbLine
 39
46.08
 10
38.515193
 20
26.76095
 30
0.0
 11
38.515193
 21
26.76095
 31
0.0
  0
LINE
  5
702
100
AcDbEntity
  8
BORDER
  6
CONTINUOUS
 62
     2
100
AcDbLine
 39
46.08
 10
37.952697
 20
26.535926
 30
0.0
 11
37.952697
 21
26.535926
 31
0.0
  0
LINE
  5
703
100
AcDbEntity
  8
BORDER
  6
CONTINUOUS
 62
     2
100
AcDbLine
 39
46.08
 10
38.177721
 20
26.535926
 30
0.0
 11
38.177721
 21
26.535926
 31
0.0
  0
LINE
  5
704
100
AcDbEntity
  8
BORDER
  6
CONTINUOUS
 62
     2
100
AcDbLine
 39
46.08
 10
38.402681
 20
26.535926
 30
0.0
 11
38.402681
 21
26.535926
 31
0.0
  0
LINE
  5
705
100
AcDbEntity
  8
BORDER
  6
CONTINUOUS
 62
     2
100
AcDbLine
 39
46.08
 10
38.627705
 20
26.535926
 30
0.0
 11
38.627705
 21
26.535926
 31
0.0
  0
LINE
  5
706
100
AcDbEntity
  8
BORDER
  6
CONTINUOUS
 62
     2
100
AcDbLine
 39
46.08
 10
37.840185
 20
26.310966
 30
0.0
 11
37.840185
 21
26.310966
 31
0.0
  0
LINE
  5
707
100
AcDbEntity
  8
BORDER
  6
CONTINUOUS
 62
     2
100
AcDbLine
 39
46.08
 10
38.065209
 20
26.310966
 30
0.0
 11
38.065209
 21
26.310966
 31
0.0
  0
LINE
  5
708
100
AcDbEntity
  8
BORDER
  6
CONTINUOUS
 62
     2
100
AcDbLine
 39
46.08
 10
38.290233
 20
26.310966
 30
0.0
 11
38.290233
 21
26.310966
 31
0.0
  0
LINE
  5
709
100
AcDbEntity
  8
BORDER
  6
CONTINUOUS
 62
     2
100
AcDbLine
 39
46.08
 10
38.515193
 20
26.310966
 30
0.0
 11
38.515193
 21
26.310966
 31
0.0
  0
LINE
  5
70A
100
AcDbEntity
  8
BORDER
  6
CONTINUOUS
 62
     2
100
AcDbLine
 39
46.08
 10
37.952697
 20
26.085942
 30
0.0
 11
37.952697
 21
26.085942
 31
0.0
  0
LINE
  5
70B
100
AcDbEntity
  8
BORDER
  6
CONTINUOUS
 62
     2
100
AcDbLine
 39
46.08
 10
38.177721
 20
26.085942
 30
0.0
 11
38.177721
 21
26.085942
 31
0.0
  0
LINE
  5
70C
100
AcDbEntity
  8
BORDER
  6
CONTINUOUS
 62
     2
100
AcDbLine
 39
46.08
 10
38.402681
 20
26.085942
 30
0.0
 11
38.402681
 21
26.085942
 31
0.0
  0
LINE
  5
70D
100
AcDbEntity
  8
BORDER
  6
CONTINUOUS
 62
     2
100
AcDbLine
 39
46.08
 10
38.627705
 20
26.085942
 30
0.0
 11
38.627705
 21
26.085942
 31
0.0
  0
LINE
  5
70E
100
AcDbEntity
  8
BORDER
  6
CONTINUOUS
 62
     2
100
AcDbLine
 39
46.08
 10
37.840185
 20
25.860918
 30
0.0
 11
37.840185
 21
25.860918
 31
0.0
  0
LINE
  5
70F
100
AcDbEntity
  8
BORDER
  6
CONTINUOUS
 62
     2
100
AcDbLine
 39
46.08
 10
38.065209
 20
25.860918
 30
0.0
 11
38.065209
 21
25.860918
 31
0.0
  0
LINE
  5
710
100
AcDbEntity
  8
BORDER
  6
CONTINUOUS
 62
     2
100
AcDbLine
 39
46.08
 10
38.290233
 20
25.860918
 30
0.0
 11
38.290233
 21
25.860918
 31
0.0
  0
LINE
  5
711
100
AcDbEntity
  8
BORDER
  6
CONTINUOUS
 62
     2
100
AcDbLine
 39
46.08
 10
38.515193
 20
25.860918
 30
0.0
 11
38.515193
 21
25.860918
 31
0.0
  0
LINE
  5
712
100
AcDbEntity
  8
BORDER
  6
CONTINUOUS
 62
     2
100
AcDbLine
 39
46.08
 10
37.952697
 20
25.635958
 30
0.0
 11
37.952697
 21
25.635958
 31
0.0
  0
LINE
  5
713
100
AcDbEntity
  8
BORDER
  6
CONTINUOUS
 62
     2
100
AcDbLine
 39
46.08
 10
38.177721
 20
25.635958
 30
0.0
 11
38.177721
 21
25.635958
 31
0.0
  0
LINE
  5
714
100
AcDbEntity
  8
BORDER
  6
CONTINUOUS
 62
     2
100
AcDbLine
 39
46.08
 10
38.402681
 20
25.635958
 30
0.0
 11
38.402681
 21
25.635958
 31
0.0
  0
LINE
  5
715
100
AcDbEntity
  8
BORDER
  6
CONTINUOUS
 62
     2
100
AcDbLine
 39
46.08
 10
38.627705
 20
25.635958
 30
0.0
 11
38.627705
 21
25.635958
 31
0.0
  0
LINE
  5
716
100
AcDbEntity
  8
BORDER
  6
CONTINUOUS
 62
     2
100
AcDbLine
 39
46.08
 10
37.840185
 20
25.410934
 30
0.0
 11
37.840185
 21
25.410934
 31
0.0
  0
LINE
  5
717
100
AcDbEntity
  8
BORDER
  6
CONTINUOUS
 62
     2
100
AcDbLine
 39
46.08
 10
38.065209
 20
25.410934
 30
0.0
 11
38.065209
 21
25.410934
 31
0.0
  0
LINE
  5
718
100
AcDbEntity
  8
BORDER
  6
CONTINUOUS
 62
     2
100
AcDbLine
 39
46.08
 10
38.290233
 20
25.410934
 30
0.0
 11
38.290233
 21
25.410934
 31
0.0
  0
LINE
  5
719
100
AcDbEntity
  8
BORDER
  6
CONTINUOUS
 62
     2
100
AcDbLine
 39
46.08
 10
38.515193
 20
25.410934
 30
0.0
 11
38.515193
 21
25.410934
 31
0.0
  0
LINE
  5
71A
100
AcDbEntity
  8
BORDER
  6
CONTINUOUS
 62
     2
100
AcDbLine
 39
46.08
 10
37.952697
 20
25.185974
 30
0.0
 11
37.952697
 21
25.185974
 31
0.0
  0
LINE
  5
71B
100
AcDbEntity
  8
BORDER
  6
CONTINUOUS
 62
     2
100
AcDbLine
 39
46.08
 10
38.177721
 20
25.185974
 30
0.0
 11
38.177721
 21
25.185974
 31
0.0
  0
LINE
  5
71C
100
AcDbEntity
  8
BORDER
  6
CONTINUOUS
 62
     2
100
AcDbLine
 39
46.08
 10
38.402681
 20
25.185974
 30
0.0
 11
38.402681
 21
25.185974
 31
0.0
  0
LINE
  5
71D
100
AcDbEntity
  8
BORDER
  6
CONTINUOUS
 62
     2
100
AcDbLine
 39
46.08
 10
38.627705
 20
25.185974
 30
0.0
 11
38.627705
 21
25.185974
 31
0.0
  0
LINE
  5
71E
100
AcDbEntity
  8
BORDER
  6
CONTINUOUS
 62
     2
100
AcDbLine
 39
46.08
 10
37.840185
 20
24.96095
 30
0.0
 11
37.840185
 21
24.96095
 31
0.0
  0
LINE
  5
71F
100
AcDbEntity
  8
BORDER
  6
CONTINUOUS
 62
     2
100
AcDbLine
 39
46.08
 10
38.065209
 20
24.96095
 30
0.0
 11
38.065209
 21
24.96095
 31
0.0
  0
LINE
  5
720
100
AcDbEntity
  8
BORDER
  6
CONTINUOUS
 62
     2
100
AcDbLine
 39
46.08
 10
38.290233
 20
24.96095
 30
0.0
 11
38.290233
 21
24.96095
 31
0.0
  0
LINE
  5
721
100
AcDbEntity
  8
BORDER
  6
CONTINUOUS
 62
     2
100
AcDbLine
 39
46.08
 10
38.515193
 20
24.96095
 30
0.0
 11
38.515193
 21
24.96095
 31
0.0
  0
LINE
  5
722
100
AcDbEntity
  8
BORDER
  6
CONTINUOUS
 62
     2
100
AcDbLine
 39
46.08
 10
37.952697
 20
24.735926
 30
0.0
 11
37.952697
 21
24.735926
 31
0.0
  0
LINE
  5
723
100
AcDbEntity
  8
BORDER
  6
CONTINUOUS
 62
     2
100
AcDbLine
 39
46.08
 10
38.177721
 20
24.735926
 30
0.0
 11
38.177721
 21
24.735926
 31
0.0
  0
LINE
  5
724
100
AcDbEntity
  8
BORDER
  6
CONTINUOUS
 62
     2
100
AcDbLine
 39
46.08
 10
38.402681
 20
24.735926
 30
0.0
 11
38.402681
 21
24.735926
 31
0.0
  0
LINE
  5
725
100
AcDbEntity
  8
BORDER
  6
CONTINUOUS
 62
     2
100
AcDbLine
 39
46.08
 10
38.627705
 20
24.735926
 30
0.0
 11
38.627705
 21
24.735926
 31
0.0
  0
LINE
  5
726
100
AcDbEntity
  8
BORDER
  6
CONTINUOUS
 62
     3
100
AcDbLine
 39
46.05696
 10
36.366905
 20
24.366262
 30
0.0
 11
39.337657
 21
24.816374
 31
0.0
  0
LINE
  5
727
100
AcDbEntity
  8
BORDER
  6
CONTINUOUS
 62
     1
100
AcDbLine
 39
46.08
 10
39.611641
 20
27.937078
 30
0.0
 11
39.639737
 21
27.947318
 31
0.0
  0
LINE
  5
728
100
AcDbEntity
  8
BORDER
  6
CONTINUOUS
 62
     1
100
AcDbLine
 39
46.08
 10
41.149561
 20
27.21983
 30
0.0
 11
41.177721
 21
27.23007
 31
0.0
  0
LINE
  5
729
100
AcDbEntity
  8
BORDER
  6
CONTINUOUS
 62
     1
100
AcDbLine
 39
46.08
 10
39.017209
 20
28.345974
 30
0.0
 11
39.034553
 21
28.37055
 31
0.0
  0
LINE
  5
72A
100
AcDbEntity
  8
BORDER
  6
CONTINUOUS
 62
     1
100
AcDbLine
 39
46.08
 10
40.000441
 20
27.657654
 30
0.0
 11
40.017529
 21
27.68223
 31
0.0
  0
LINE
  5
72B
100
AcDbEntity
  8
BORDER
  6
CONTINUOUS
 62
     1
100
AcDbLine
 39
46.08
 10
40.983417
 20
26.969398
 30
0.0
 11
41.000505
 21
26.993974
 31
0.0
  0
LINE
  5
72C
100
AcDbEntity
  8
BORDER
  6
CONTINUOUS
 62
     1
100
AcDbLine
 39
46.08
 10
39.663673
 20
27.17695
 30
0.0
 11
39.668793
 21
27.206518
 31
0.0
  0
LINE
  5
72D
100
AcDbEntity
  8
BORDER
  6
CONTINUOUS
 62
     1
100
AcDbLine
 39
46.08
 10
40.845113
 20
26.96863
 30
0.0
 11
40.850297
 21
26.998134
 31
0.0
  0
LINE
  5
72E
100
AcDbEntity
  8
BORDER
  6
CONTINUOUS
 62
     1
100
AcDbLine
 39
46.08
 10
41.053497
 20
28.15039
 30
0.0
 11
41.058617
 21
28.179894
 31
0.0
  0
LINE
  5
72F
100
AcDbEntity
  8
BORDER
  6
CONTINUOUS
 62
     2
100
AcDbLine
 39
46.08
 10
37.952697
 20
28.335926
 30
0.0
 11
37.952697
 21
28.335926
 31
0.0
  0
LINE
  5
730
100
AcDbEntity
  8
BORDER
  6
CONTINUOUS
 62
     2
100
AcDbLine
 39
46.08
 10
38.177721
 20
28.335926
 30
0.0
 11
38.177721
 21
28.335926
 31
0.0
  0
LINE
  5
731
100
AcDbEntity
  8
BORDER
  6
CONTINUOUS
 62
     2
100
AcDbLine
 39
46.08
 10
38.402681
 20
28.335926
 30
0.0
 11
38.402681
 21
28.335926
 31
0.0
  0
LINE
  5
732
100
AcDbEntity
  8
BORDER
  6
CONTINUOUS
 62
     2
100
AcDbLine
 39
46.08
 10
38.627705
 20
28.335926
 30
0.0
 11
38.627705
 21
28.335926
 31
0.0
  0
LINE
  5
733
100
AcDbEntity
  8
BORDER
  6
CONTINUOUS
 62
     2
100
AcDbLine
 39
46.08
 10
37.840185
 20
28.110966
 30
0.0
 11
37.840185
 21
28.110966
 31
0.0
  0
LINE
  5
734
100
AcDbEntity
  8
BORDER
  6
CONTINUOUS
 62
     2
100
AcDbLine
 39
46.08
 10
38.065209
 20
28.110966
 30
0.0
 11
38.065209
 21
28.110966
 31
0.0
  0
LINE
  5
735
100
AcDbEntity
  8
BORDER
  6
CONTINUOUS
 62
     2
100
AcDbLine
 39
46.08
 10
38.290233
 20
28.110966
 30
0.0
 11
38.290233
 21
28.110966
 31
0.0
  0
LINE
  5
736
100
AcDbEntity
  8
BORDER
  6
CONTINUOUS
 62
     2
100
AcDbLine
 39
46.08
 10
38.515193
 20
28.110966
 30
0.0
 11
38.515193
 21
28.110966
 31
0.0
  0
LINE
  5
737
100
AcDbEntity
  8
BORDER
  6
CONTINUOUS
 62
     2
100
AcDbLine
 39
46.08
 10
37.952697
 20
27.885942
 30
0.0
 11
37.952697
 21
27.885942
 31
0.0
  0
LINE
  5
738
100
AcDbEntity
  8
BORDER
  6
CONTINUOUS
 62
     2
100
AcDbLine
 39
46.08
 10
38.177721
 20
27.885942
 30
0.0
 11
38.177721
 21
27.885942
 31
0.0
  0
LINE
  5
739
100
AcDbEntity
  8
BORDER
  6
CONTINUOUS
 62
     2
100
AcDbLine
 39
46.08
 10
38.402681
 20
27.885942
 30
0.0
 11
38.402681
 21
27.885942
 31
0.0
  0
LINE
  5
73A
100
AcDbEntity
  8
BORDER
  6
CONTINUOUS
 62
     2
100
AcDbLine
 39
46.08
 10
38.627705
 20
27.885942
 30
0.0
 11
38.627705
 21
27.885942
 31
0.0
  0
LINE
  5
73B
100
AcDbEntity
  8
BORDER
  6
CONTINUOUS
 62
     2
100
AcDbLine
 39
46.08
 10
37.840185
 20
27.660918
 30
0.0
 11
37.840185
 21
27.660918
 31
0.0
  0
LINE
  5
73C
100
AcDbEntity
  8
BORDER
  6
CONTINUOUS
 62
     2
100
AcDbLine
 39
46.08
 10
38.065209
 20
27.660918
 30
0.0
 11
38.065209
 21
27.660918
 31
0.0
  0
LINE
  5
73D
100
AcDbEntity
  8
BORDER
  6
CONTINUOUS
 62
     2
100
AcDbLine
 39
46.08
 10
38.290233
 20
27.660918
 30
0.0
 11
38.290233
 21
27.660918
 31
0.0
  0
LINE
  5
73E
100
AcDbEntity
  8
BORDER
  6
CONTINUOUS
 62
     2
100
AcDbLine
 39
46.08
 10
38.515193
 20
27.660918
 30
0.0
 11
38.515193
 21
27.660918
 31
0.0
  0
LINE
  5
73F
100
AcDbEntity
  8
BORDER
  6
CONTINUOUS
 62
     2
100
AcDbLine
 39
46.08
 10
37.952697
 20
27.435958
 30
0.0
 11
37.952697
 21
27.435958
 31
0.0
  0
LINE
  5
740
100
AcDbEntity
  8
BORDER
  6
CONTINUOUS
 62
     2
100
AcDbLine
 39
46.08
 10
38.177721
 20
27.435958
 30
0.0
 11
38.177721
 21
27.435958
 31
0.0
  0
LINE
  5
741
100
AcDbEntity
  8
BORDER
  6
CONTINUOUS
 62
     2
100
AcDbLine
 39
46.08
 10
38.402681
 20
27.435958
 30
0.0
 11
38.402681
 21
27.435958
 31
0.0
  0
LINE
  5
742
100
AcDbEntity
  8
BORDER
  6
CONTINUOUS
 62
     2
100
AcDbLine
 39
46.08
 10
38.627705
 20
27.435958
 30
0.0
 11
38.627705
 21
27.435958
 31
0.0
  0
LINE
  5
743
100
AcDbEntity
  8
BORDER
  6
CONTINUOUS
 62
     2
100
AcDbLine
 39
46.08
 10
37.840185
 20
27.210934
 30
0.0
 11
37.840185
 21
27.210934
 31
0.0
  0
LINE
  5
744
100
AcDbEntity
  8
BORDER
  6
CONTINUOUS
 62
     2
100
AcDbLine
 39
46.08
 10
38.065209
 20
27.210934
 30
0.0
 11
38.065209
 21
27.210934
 31
0.0
  0
LINE
  5
745
100
AcDbEntity
  8
BORDER
  6
CONTINUOUS
 62
     2
100
AcDbLine
 39
46.08
 10
38.290233
 20
27.210934
 30
0.0
 11
38.290233
 21
27.210934
 31
0.0
  0
LINE
  5
746
100
AcDbEntity
  8
BORDER
  6
CONTINUOUS
 62
     2
100
AcDbLine
 39
46.08
 10
38.515193
 20
27.210934
 30
0.0
 11
38.515193
 21
27.210934
 31
0.0
  0
LINE
  5
747
100
AcDbEntity
  8
BORDER
  6
CONTINUOUS
 62
     2
100
AcDbLine
 39
46.08
 10
37.952697
 20
26.985974
 30
0.0
 11
37.952697
 21
26.985974
 31
0.0
  0
LINE
  5
748
100
AcDbEntity
  8
BORDER
  6
CONTINUOUS
 62
     2
100
AcDbLine
 39
46.08
 10
38.177721
 20
26.985974
 30
0.0
 11
38.177721
 21
26.985974
 31
0.0
  0
LINE
  5
749
100
AcDbEntity
  8
BORDER
  6
CONTINUOUS
 62
     2
100
AcDbLine
 39
46.08
 10
38.402681
 20
26.985974
 30
0.0
 11
38.402681
 21
26.985974
 31
0.0
  0
LINE
  5
74A
100
AcDbEntity
  8
BORDER
  6
CONTINUOUS
 62
     2
100
AcDbLine
 39
46.08
 10
38.627705
 20
26.985974
 30
0.0
 11
38.627705
 21
26.985974
 31
0.0
  0
LINE
  5
74B
100
AcDbEntity
  8
BORDER
  6
CONTINUOUS
 62
     1
100
AcDbLine
 39
46.08
 10
40.133113
 20
28.265014
 30
0.0
 11
40.154169
 21
28.272694
 31
0.0
  0
LINE
  5
74C
100
AcDbEntity
  8
BORDER
  6
CONTINUOUS
 62
     1
100
AcDbLine
 39
46.08
 10
40.365369
 20
28.369334
 30
0.0
 11
40.378041
 21
28.387766
 31
0.0
  0
LINE
  5
74D
100
AcDbEntity
  8
BORDER
  6
CONTINUOUS
 62
     1
100
AcDbLine
 39
46.08
 10
40.108473
 20
28.281462
 30
0.0
 11
40.112249
 21
28.303606
 31
0.0
  0
TEXT
  5
74E
100
AcDbEntity
  8
DIM_TEXT
100
AcDbText
 10
19.06551
 20
20.321051
 30
0.0
 40
0.71982
  1
REQUIRED, PER DESIGN)
 51
15.0
  7
INFO
100
AcDbText
  0
TEXT
  5
74F
100
AcDbEntity
  8
DIM_TEXT
100
AcDbText
 10
19.06551
 20
25.654612
 30
0.0
 40
0.71982
  1
REQUIRED, PER DESIGN)
 51
15.0
  7
INFO
100
AcDbText
  0
TEXT
  5
750
100
AcDbEntity
  8
DIM_TEXT
100
AcDbText
 10
24.908933
 20
23.070453
 30
0.0
 40
0.71982
  1
HORIZ. REINF.
 51
15.0
  7
INFO
100
AcDbText
  0
TEXT
  5
751
100
AcDbEntity
  8
DIM_TEXT
100
AcDbText
 10
20.332527
 20
26.882483
 30
0.0
 40
0.71982
  1
(MIN. #4 @ 30" O.C.
 51
15.0
  7
INFO
100
AcDbText
  0
TEXT
  5
752
100
AcDbEntity
  8
DIM_TEXT
100
AcDbText
 10
20.376972
 20
21.714316
 30
0.0
 40
0.71982
  1
(MIN. #4 @ 30" O.C.
 51
15.0
  7
INFO
100
AcDbText
  0
CIRCLE
  5
753
100
AcDbEntity
  8
BORDER
  6
CONTINUOUS
 62
     7
100
AcDbCircle
 39
46.08
 10
40.150955
 20
29.511285
 30
0.0
 40
0.24
  0
LINE
  5
754
100
AcDbEntity
  8
BORDER
  6
CONTINUOUS
 62
    11
100
AcDbLine
 39
46.08
 10
39.643961
 20
35.444726
 30
0.0
 11
39.658937
 21
35.42975
 31
0.0
  0
LINE
  5
755
100
AcDbEntity
  8
BORDER
  6
CONTINUOUS
 62
     7
100
AcDbLine
 39
46.08
 10
37.721593
 20
36.579254
 30
0.0
 11
29.940345
 21
33.985526
 31
0.0
  0
CIRCLE
  5
756
100
AcDbEntity
  8
BORDER
  6
CONTINUOUS
 62
     7
100
AcDbCircle
 39
46.08
 10
40.150955
 20
36.064246
 30
0.0
 40
0.24
  0
LINE
  5
757
100
AcDbEntity
  8
BORDER
  6
CONTINUOUS
 62
     7
100
AcDbLine
 39
46.08
 10
38.638009
 20
36.726134
 30
0.0
 11
38.639025
 21
39.667891
 31
0.0
  0
LINE
  5
758
100
AcDbEntity
  8
BORDER
  6
CONTINUOUS
 62
     1
100
AcDbLine
 39
34.559136
 10
40.310455
 20
37.45471
 30
0.0
 11
40.310455
 21
37.702198
 31
0.0
  0
LINE
  5
759
100
AcDbEntity
  8
BORDER
  6
CONTINUOUS
 62
     1
100
AcDbLine
 39
34.559136
 10
40.427639
 20
37.45471
 30
0.0
 11
40.427639
 21
37.635446
 31
0.0
  0
LINE
  5
75A
100
AcDbEntity
  8
BORDER
  6
CONTINUOUS
 62
     1
100
AcDbLine
 39
34.559136
 10
40.773111
 20
37.45471
 30
0.0
 11
40.773111
 21
37.635446
 31
0.0
  0
LINE
  5
75B
100
AcDbEntity
  8
BORDER
  6
CONTINUOUS
 62
     1
100
AcDbLine
 39
34.559136
 10
40.427639
 20
37.635446
 30
0.0
 11
40.376503
 21
37.702198
 31
0.0
  0
LINE
  5
75C
100
AcDbEntity
  8
BORDER
  6
CONTINUOUS
 62
     1
100
AcDbLine
 39
34.559136
 10
40.427639
 20
37.635446
 30
0.0
 11
40.478263
 21
37.702198
 31
0.0
  0
LINE
  5
75D
100
AcDbEntity
  8
BORDER
  6
CONTINUOUS
 62
     1
100
AcDbLine
 39
34.559136
 10
40.773111
 20
37.635446
 30
0.0
 11
40.722231
 21
37.702198
 31
0.0
  0
LINE
  5
75E
100
AcDbEntity
  8
BORDER
  6
CONTINUOUS
 62
     1
100
AcDbLine
 39
34.559136
 10
40.773111
 20
37.635446
 30
0.0
 11
40.823735
 21
37.702198
 31
0.0
  0
LINE
  5
75F
100
AcDbEntity
  8
BORDER
  6
CONTINUOUS
 62
     1
100
AcDbLine
 39
34.559136
 10
40.782967
 20
37.702198
 30
0.0
 11
40.782967
 21
37.951286
 31
0.0
  0
LINE
  5
760
100
AcDbEntity
  8
BORDER
  6
CONTINUOUS
 62
     1
100
AcDbLine
 39
34.559136
 10
40.782967
 20
37.951286
 30
0.0
 11
40.422967
 21
37.951286
 31
0.0
  0
LINE
  5
761
100
AcDbEntity
  8
BORDER
  6
CONTINUOUS
 62
     1
100
AcDbLine
 39
34.559136
 10
40.422967
 20
37.951286
 30
0.0
 11
40.422967
 21
37.702198
 31
0.0
  0
LINE
  5
762
100
AcDbEntity
  8
BORDER
  6
CONTINUOUS
 62
     1
100
AcDbLine
 39
34.559136
 10
40.310455
 20
37.702198
 30
0.0
 11
40.895223
 21
37.702198
 31
0.0
  0
LINE
  5
763
100
AcDbEntity
  8
BORDER
  6
CONTINUOUS
 62
     1
100
AcDbLine
 39
34.559136
 10
40.895223
 20
37.702198
 30
0.0
 11
40.895223
 21
37.45471
 31
0.0
  0
ARC
  5
764
100
AcDbEntity
  8
BORDER
  6
CONTINUOUS
 62
     7
100
AcDbCircle
 39
46.078848
 10
40.422711
 20
33.732278
 30
0.0
 40
0.359991
100
AcDbArc
 50
270.0
 51
0.0
  0
ARC
  5
765
100
AcDbEntity
  8
BORDER
  6
CONTINUOUS
 62
     7
100
AcDbCircle
 39
46.078848
 10
40.242743
 20
33.912246
 30
0.0
 40
0.179996
100
AcDbArc
 50
270.0
 51
0.0
  0
LINE
  5
766
100
AcDbEntity
  8
BORDER
  6
CONTINUOUS
 62
     7
100
AcDbLine
 39
46.078848
 10
40.242743
 20
33.732278
 30
0.0
 11
39.814071
 21
33.732278
 31
0.0
  0
LINE
  5
767
100
AcDbEntity
  8
BORDER
  6
CONTINUOUS
 62
     7
100
AcDbLine
 39
46.078848
 10
39.814071
 20
33.732278
 30
0.0
 11
39.814071
 21
33.372278
 31
0.0
  0
LINE
  5
768
100
AcDbEntity
  8
BORDER
  6
CONTINUOUS
 62
     7
100
AcDbLine
 39
46.078848
 10
40.422711
 20
33.372278
 30
0.0
 11
39.814071
 21
33.372278
 31
0.0
  0
LINE
  5
769
100
AcDbEntity
  8
BORDER
  6
CONTINUOUS
 62
     7
100
AcDbLine
 39
46.078848
 10
40.782711
 20
37.45471
 30
0.0
 11
40.782711
 21
33.732278
 31
0.0
  0
LINE
  5
76A
100
AcDbEntity
  8
BORDER
  6
CONTINUOUS
 62
     7
100
AcDbLine
 39
46.078848
 10
40.422711
 20
37.45471
 30
0.0
 11
40.422711
 21
33.912246
 31
0.0
  0
LINE
  5
76B
100
AcDbEntity
  8
BORDER
  6
CONTINUOUS
 62
     3
100
AcDbLine
 39
46.08
 10
29.852729
 20
36.73919
 30
0.0
 11
30.422009
 21
37.308406
 31
0.0
  0
LINE
  5
76C
100
AcDbEntity
  8
BORDER
  6
CONTINUOUS
 62
     3
100
AcDbLine
 39
46.08
 10
31.284729
 20
37.216438
 30
0.0
 11
31.853817
 21
37.785718
 31
0.0
  0
LINE
  5
76D
100
AcDbEntity
  8
BORDER
  6
CONTINUOUS
 62
     3
100
AcDbLine
 39
46.08
 10
32.716537
 20
37.69375
 30
0.0
 11
33.285817
 21
38.262966
 31
0.0
  0
LINE
  5
76E
100
AcDbEntity
  8
BORDER
  6
CONTINUOUS
 62
     3
100
AcDbLine
 39
46.08
 10
34.148345
 20
38.171062
 30
0.0
 11
34.717625
 21
38.740278
 31
0.0
  0
LINE
  5
76F
100
AcDbEntity
  8
BORDER
  6
CONTINUOUS
 62
     3
100
AcDbLine
 39
46.08
 10
35.580345
 20
38.648374
 30
0.0
 11
36.149433
 21
39.217526
 31
0.0
  0
LINE
  5
770
100
AcDbEntity
  8
BORDER
  6
CONTINUOUS
 62
     3
100
AcDbLine
 39
46.08
 10
37.012153
 20
39.125622
 30
0.0
 11
37.581433
 21
39.694838
 31
0.0
  0
LINE
  5
771
100
AcDbEntity
  8
BORDER
  6
CONTINUOUS
 62
     3
100
AcDbLine
 39
46.08
 10
38.443961
 20
39.602934
 30
0.0
 11
39.013241
 21
40.17215
 31
0.0
  0
LINE
  5
772
100
AcDbEntity
  8
BORDER
  6
CONTINUOUS
 62
     3
100
AcDbLine
 39
46.08
 10
39.875961
 20
40.080246
 30
0.0
 11
40.445049
 21
40.649398
 31
0.0
  0
LINE
  5
773
100
AcDbEntity
  8
BORDER
  6
CONTINUOUS
 62
     7
100
AcDbLine
 39
46.08
 10
29.220345
 20
36.90783
 30
0.0
 11
29.220345
 21
32.08831
 31
0.0
  0
LINE
  5
774
100
AcDbEntity
  8
BORDER
  6
CONTINUOUS
 62
     7
100
AcDbLine
 39
46.08
 10
29.940345
 20
36.76831
 30
0.0
 11
29.940345
 21
32.08831
 31
0.0
  0
LINE
  5
775
100
AcDbEntity
  8
BORDER
  6
CONTINUOUS
 62
     7
100
AcDbLine
 39
46.08
 10
29.220345
 20
32.08831
 30
0.0
 11
29.940345
 21
32.08831
 31
0.0
  0
LINE
  5
776
100
AcDbEntity
  8
BORDER
  6
CONTINUOUS
 62
     3
100
AcDbLine
 39
46.08
 10
29.940345
 20
36.76831
 30
0.0
 11
29.220345
 21
32.08831
 31
0.0
  0
LINE
  5
777
100
AcDbEntity
  8
BORDER
  6
CONTINUOUS
 62
     3
100
AcDbLine
 39
46.08
 10
29.940345
 20
32.08831
 30
0.0
 11
29.220345
 21
36.52831
 31
0.0
  0
LINE
  5
778
100
AcDbEntity
  8
BORDER
  6
CONTINUOUS
 62
     3
100
AcDbLine
 39
46.08
 10
37.738041
 20
29.526134
 30
0.0
 11
38.638009
 21
29.526134
 31
0.0
  0
LINE
  5
779
100
AcDbEntity
  8
BORDER
  6
CONTINUOUS
 62
     3
100
AcDbLine
 39
46.08
 10
37.738041
 20
36.726134
 30
0.0
 11
37.738041
 21
29.526134
 31
0.0
  0
LINE
  5
77A
100
AcDbEntity
  8
BORDER
  6
CONTINUOUS
 62
     3
100
AcDbLine
 39
46.08
 10
38.638009
 20
36.726134
 30
0.0
 11
38.638009
 21
29.526134
 31
0.0
  0
LINE
  5
77B
100
AcDbEntity
  8
BORDER
  6
CONTINUOUS
 62
     3
100
AcDbLine
 39
46.08
 10
38.638009
 20
36.726134
 30
0.0
 11
37.738041
 21
36.726134
 31
0.0
  0
LINE
  5
77C
100
AcDbEntity
  8
BORDER
  6
CONTINUOUS
 62
     1
100
AcDbLine
 39
46.08
 10
39.611641
 20
35.137078
 30
0.0
 11
39.639737
 21
35.147318
 31
0.0
  0
LINE
  5
77D
100
AcDbEntity
  8
BORDER
  6
CONTINUOUS
 62
     1
100
AcDbLine
 39
46.08
 10
38.894201
 20
33.598966
 30
0.0
 11
38.922553
 21
33.60927
 31
0.0
  0
LINE
  5
77E
100
AcDbEntity
  8
BORDER
  6
CONTINUOUS
 62
     1
100
AcDbLine
 39
46.08
 10
40.843961
 20
34.009398
 30
0.0
 11
40.872313
 21
34.019702
 31
0.0
  0
LINE
  5
77F
100
AcDbEntity
  8
BORDER
  6
CONTINUOUS
 62
     1
100
AcDbLine
 39
46.08
 10
41.149561
 20
34.41983
 30
0.0
 11
41.177721
 21
34.43007
 31
0.0
  0
LINE
  5
780
100
AcDbEntity
  8
BORDER
  6
CONTINUOUS
 62
     1
100
AcDbLine
 39
46.08
 10
39.304569
 20
32.47135
 30
0.0
 11
39.332729
 21
32.48159
 31
0.0
  0
LINE
  5
781
100
AcDbEntity
  8
BORDER
  6
CONTINUOUS
 62
     1
100
AcDbLine
 39
46.08
 10
40.432377
 20
32.881782
 30
0.0
 11
40.460537
 21
32.892022
 31
0.0
  0
LINE
  5
782
100
AcDbEntity
  8
BORDER
  6
CONTINUOUS
 62
     1
100
AcDbLine
 39
46.08
 10
39.715001
 20
31.343734
 30
0.0
 11
39.743353
 21
31.353974
 31
0.0
  0
LINE
  5
783
100
AcDbEntity
  8
BORDER
  6
CONTINUOUS
 62
     1
100
AcDbLine
 39
46.08
 10
40.842553
 20
31.754166
 30
0.0
 11
40.870905
 21
31.764406
 31
0.0
  0
LINE
  5
784
100
AcDbEntity
  8
BORDER
  6
CONTINUOUS
 62
     1
100
AcDbLine
 39
46.08
 10
41.252921
 20
30.62655
 30
0.0
 11
41.281273
 21
30.63679
 31
0.0
  0
LINE
  5
785
100
AcDbEntity
  8
BORDER
  6
CONTINUOUS
 62
     1
100
AcDbLine
 39
46.08
 10
39.017209
 20
35.545974
 30
0.0
 11
39.034553
 21
35.57055
 31
0.0
  0
LINE
  5
786
100
AcDbEntity
  8
BORDER
  6
CONTINUOUS
 62
     1
100
AcDbLine
 39
46.08
 10
40.566839
 20
33.874678
 30
0.0
 11
40.584183
 21
33.899254
 31
0.0
  0
LINE
  5
787
100
AcDbEntity
  8
BORDER
  6
CONTINUOUS
 62
     1
100
AcDbLine
 39
46.08
 10
40.000441
 20
34.857654
 30
0.0
 11
40.017529
 21
34.88223
 31
0.0
  0
LINE
  5
788
100
AcDbEntity
  8
BORDER
  6
CONTINUOUS
 62
     1
100
AcDbLine
 39
46.08
 10
38.918329
 20
31.22047
 30
0.0
 11
38.935673
 21
31.245046
 31
0.0
  0
LINE
  5
789
100
AcDbEntity
  8
BORDER
  6
CONTINUOUS
 62
     1
100
AcDbLine
 39
46.08
 10
39.606713
 20
32.203446
 30
0.0
 11
39.623801
 21
32.228022
 31
0.0
  0
LINE
  5
78A
100
AcDbEntity
  8
BORDER
  6
CONTINUOUS
 62
     1
100
AcDbLine
 39
46.08
 10
40.295033
 20
33.186422
 30
0.0
 11
40.312377
 21
33.210998
 31
0.0
  0
LINE
  5
78B
100
AcDbEntity
  8
BORDER
  6
CONTINUOUS
 62
     1
100
AcDbLine
 39
46.08
 10
40.983417
 20
34.169398
 30
0.0
 11
41.000505
 21
34.193974
 31
0.0
  0
LINE
  5
78C
100
AcDbEntity
  8
BORDER
  6
CONTINUOUS
 62
     1
100
AcDbLine
 39
46.08
 10
40.589689
 20
31.515126
 30
0.0
 11
40.606777
 21
31.539766
 31
0.0
  0
LINE
  5
78D
100
AcDbEntity
  8
BORDER
  6
CONTINUOUS
 62
     1
100
AcDbLine
 39
46.08
 10
41.278009
 20
32.498166
 30
0.0
 11
41.295353
 21
32.522678
 31
0.0
  0
LINE
  5
78E
100
AcDbEntity
  8
BORDER
  6
CONTINUOUS
 62
     1
100
AcDbLine
 39
46.08
 10
38.690041
 20
35.767094
 30
0.0
 11
38.695225
 21
35.796598
 31
0.0
  0
LINE
  5
78F
100
AcDbEntity
  8
BORDER
  6
CONTINUOUS
 62
     1
100
AcDbLine
 39
46.08
 10
39.038329
 20
30.831606
 30
0.0
 11
39.043513
 21
30.861174
 31
0.0
  0
LINE
  5
790
100
AcDbEntity
  8
BORDER
  6
CONTINUOUS
 62
     1
100
AcDbLine
 39
46.08
 10
39.246905
 20
32.01343
 30
0.0
 11
39.252089
 21
32.042934
 31
0.0
  0
LINE
  5
791
100
AcDbEntity
  8
BORDER
  6
CONTINUOUS
 62
     1
100
AcDbLine
 39
46.08
 10
39.455033
 20
33.19519
 30
0.0
 11
39.460217
 21
33.224694
 31
0.0
  0
LINE
  5
792
100
AcDbEntity
  8
BORDER
  6
CONTINUOUS
 62
     1
100
AcDbLine
 39
46.08
 10
39.663673
 20
34.37695
 30
0.0
 11
39.668793
 21
34.406518
 31
0.0
  0
LINE
  5
793
100
AcDbEntity
  8
BORDER
  6
CONTINUOUS
 62
     1
100
AcDbLine
 39
46.08
 10
40.428409
 20
31.805046
 30
0.0
 11
40.433593
 21
31.83455
 31
0.0
  0
LINE
  5
794
100
AcDbEntity
  8
BORDER
  6
CONTINUOUS
 62
     1
100
AcDbLine
 39
46.08
 10
40.636793
 20
32.986806
 30
0.0
 11
40.641913
 21
33.016374
 31
0.0
  0
LINE
  5
795
100
AcDbEntity
  8
BORDER
  6
CONTINUOUS
 62
     1
100
AcDbLine
 39
46.08
 10
40.845113
 20
34.16863
 30
0.0
 11
40.850297
 21
34.198134
 31
0.0
  0
LINE
  5
796
100
AcDbEntity
  8
BORDER
  6
CONTINUOUS
 62
     1
100
AcDbLine
 39
46.08
 10
41.053497
 20
35.35039
 30
0.0
 11
41.058617
 21
35.379894
 31
0.0
  0
LINE
  5
797
100
AcDbEntity
  8
BORDER
  6
CONTINUOUS
 62
     2
100
AcDbLine
 39
46.08
 10
37.840185
 20
36.660918
 30
0.0
 11
37.840185
 21
36.660918
 31
0.0
  0
LINE
  5
798
100
AcDbEntity
  8
BORDER
  6
CONTINUOUS
 62
     2
100
AcDbLine
 39
46.08
 10
38.065209
 20
36.660918
 30
0.0
 11
38.065209
 21
36.660918
 31
0.0
  0
LINE
  5
799
100
AcDbEntity
  8
BORDER
  6
CONTINUOUS
 62
     2
100
AcDbLine
 39
46.08
 10
38.290233
 20
36.660918
 30
0.0
 11
38.290233
 21
36.660918
 31
0.0
  0
LINE
  5
79A
100
AcDbEntity
  8
BORDER
  6
CONTINUOUS
 62
     2
100
AcDbLine
 39
46.08
 10
38.515193
 20
36.660918
 30
0.0
 11
38.515193
 21
36.660918
 31
0.0
  0
LINE
  5
79B
100
AcDbEntity
  8
BORDER
  6
CONTINUOUS
 62
     2
100
AcDbLine
 39
46.08
 10
37.952697
 20
36.435958
 30
0.0
 11
37.952697
 21
36.435958
 31
0.0
  0
LINE
  5
79C
100
AcDbEntity
  8
BORDER
  6
CONTINUOUS
 62
     2
100
AcDbLine
 39
46.08
 10
38.177721
 20
36.435958
 30
0.0
 11
38.177721
 21
36.435958
 31
0.0
  0
LINE
  5
79D
100
AcDbEntity
  8
BORDER
  6
CONTINUOUS
 62
     2
100
AcDbLine
 39
46.08
 10
38.402681
 20
36.435958
 30
0.0
 11
38.402681
 21
36.435958
 31
0.0
  0
LINE
  5
79E
100
AcDbEntity
  8
BORDER
  6
CONTINUOUS
 62
     2
100
AcDbLine
 39
46.08
 10
38.627705
 20
36.435958
 30
0.0
 11
38.627705
 21
36.435958
 31
0.0
  0
LINE
  5
79F
100
AcDbEntity
  8
BORDER
  6
CONTINUOUS
 62
     2
100
AcDbLine
 39
46.08
 10
37.840185
 20
36.210934
 30
0.0
 11
37.840185
 21
36.210934
 31
0.0
  0
LINE
  5
7A0
100
AcDbEntity
  8
BORDER
  6
CONTINUOUS
 62
     2
100
AcDbLine
 39
46.08
 10
38.065209
 20
36.210934
 30
0.0
 11
38.065209
 21
36.210934
 31
0.0
  0
LINE
  5
7A1
100
AcDbEntity
  8
BORDER
  6
CONTINUOUS
 62
     2
100
AcDbLine
 39
46.08
 10
38.290233
 20
36.210934
 30
0.0
 11
38.290233
 21
36.210934
 31
0.0
  0
LINE
  5
7A2
100
AcDbEntity
  8
BORDER
  6
CONTINUOUS
 62
     2
100
AcDbLine
 39
46.08
 10
38.515193
 20
36.210934
 30
0.0
 11
38.515193
 21
36.210934
 31
0.0
  0
LINE
  5
7A3
100
AcDbEntity
  8
BORDER
  6
CONTINUOUS
 62
     2
100
AcDbLine
 39
46.08
 10
37.952697
 20
35.985974
 30
0.0
 11
37.952697
 21
35.985974
 31
0.0
  0
LINE
  5
7A4
100
AcDbEntity
  8
BORDER
  6
CONTINUOUS
 62
     2
100
AcDbLine
 39
46.08
 10
38.177721
 20
35.985974
 30
0.0
 11
38.177721
 21
35.985974
 31
0.0
  0
LINE
  5
7A5
100
AcDbEntity
  8
BORDER
  6
CONTINUOUS
 62
     2
100
AcDbLine
 39
46.08
 10
38.402681
 20
35.985974
 30
0.0
 11
38.402681
 21
35.985974
 31
0.0
  0
LINE
  5
7A6
100
AcDbEntity
  8
BORDER
  6
CONTINUOUS
 62
     2
100
AcDbLine
 39
46.08
 10
38.627705
 20
35.985974
 30
0.0
 11
38.627705
 21
35.985974
 31
0.0
  0
LINE
  5
7A7
100
AcDbEntity
  8
BORDER
  6
CONTINUOUS
 62
     2
100
AcDbLine
 39
46.08
 10
37.840185
 20
35.76095
 30
0.0
 11
37.840185
 21
35.76095
 31
0.0
  0
LINE
  5
7A8
100
AcDbEntity
  8
BORDER
  6
CONTINUOUS
 62
     2
100
AcDbLine
 39
46.08
 10
38.065209
 20
35.76095
 30
0.0
 11
38.065209
 21
35.76095
 31
0.0
  0
LINE
  5
7A9
100
AcDbEntity
  8
BORDER
  6
CONTINUOUS
 62
     2
100
AcDbLine
 39
46.08
 10
38.290233
 20
35.76095
 30
0.0
 11
38.290233
 21
35.76095
 31
0.0
  0
LINE
  5
7AA
100
AcDbEntity
  8
BORDER
  6
CONTINUOUS
 62
     2
100
AcDbLine
 39
46.08
 10
38.515193
 20
35.76095
 30
0.0
 11
38.515193
 21
35.76095
 31
0.0
  0
LINE
  5
7AB
100
AcDbEntity
  8
BORDER
  6
CONTINUOUS
 62
     2
100
AcDbLine
 39
46.08
 10
37.952697
 20
35.535926
 30
0.0
 11
37.952697
 21
35.535926
 31
0.0
  0
LINE
  5
7AC
100
AcDbEntity
  8
BORDER
  6
CONTINUOUS
 62
     2
100
AcDbLine
 39
46.08
 10
38.177721
 20
35.535926
 30
0.0
 11
38.177721
 21
35.535926
 31
0.0
  0
LINE
  5
7AD
100
AcDbEntity
  8
BORDER
  6
CONTINUOUS
 62
     2
100
AcDbLine
 39
46.08
 10
38.402681
 20
35.535926
 30
0.0
 11
38.402681
 21
35.535926
 31
0.0
  0
LINE
  5
7AE
100
AcDbEntity
  8
BORDER
  6
CONTINUOUS
 62
     2
100
AcDbLine
 39
46.08
 10
38.627705
 20
35.535926
 30
0.0
 11
38.627705
 21
35.535926
 31
0.0
  0
LINE
  5
7AF
100
AcDbEntity
  8
BORDER
  6
CONTINUOUS
 62
     2
100
AcDbLine
 39
46.08
 10
37.840185
 20
35.310966
 30
0.0
 11
37.840185
 21
35.310966
 31
0.0
  0
LINE
  5
7B0
100
AcDbEntity
  8
BORDER
  6
CONTINUOUS
 62
     2
100
AcDbLine
 39
46.08
 10
38.065209
 20
35.310966
 30
0.0
 11
38.065209
 21
35.310966
 31
0.0
  0
LINE
  5
7B1
100
AcDbEntity
  8
BORDER
  6
CONTINUOUS
 62
     2
100
AcDbLine
 39
46.08
 10
38.290233
 20
35.310966
 30
0.0
 11
38.290233
 21
35.310966
 31
0.0
  0
LINE
  5
7B2
100
AcDbEntity
  8
BORDER
  6
CONTINUOUS
 62
     2
100
AcDbLine
 39
46.08
 10
38.515193
 20
35.310966
 30
0.0
 11
38.515193
 21
35.310966
 31
0.0
  0
LINE
  5
7B3
100
AcDbEntity
  8
BORDER
  6
CONTINUOUS
 62
     2
100
AcDbLine
 39
46.08
 10
37.952697
 20
35.085942
 30
0.0
 11
37.952697
 21
35.085942
 31
0.0
  0
LINE
  5
7B4
100
AcDbEntity
  8
BORDER
  6
CONTINUOUS
 62
     2
100
AcDbLine
 39
46.08
 10
38.177721
 20
35.085942
 30
0.0
 11
38.177721
 21
35.085942
 31
0.0
  0
LINE
  5
7B5
100
AcDbEntity
  8
BORDER
  6
CONTINUOUS
 62
     2
100
AcDbLine
 39
46.08
 10
38.402681
 20
35.085942
 30
0.0
 11
38.402681
 21
35.085942
 31
0.0
  0
LINE
  5
7B6
100
AcDbEntity
  8
BORDER
  6
CONTINUOUS
 62
     2
100
AcDbLine
 39
46.08
 10
38.627705
 20
35.085942
 30
0.0
 11
38.627705
 21
35.085942
 31
0.0
  0
LINE
  5
7B7
100
AcDbEntity
  8
BORDER
  6
CONTINUOUS
 62
     2
100
AcDbLine
 39
46.08
 10
37.840185
 20
34.860918
 30
0.0
 11
37.840185
 21
34.860918
 31
0.0
  0
LINE
  5
7B8
100
AcDbEntity
  8
BORDER
  6
CONTINUOUS
 62
     2
100
AcDbLine
 39
46.08
 10
38.065209
 20
34.860918
 30
0.0
 11
38.065209
 21
34.860918
 31
0.0
  0
LINE
  5
7B9
100
AcDbEntity
  8
BORDER
  6
CONTINUOUS
 62
     2
100
AcDbLine
 39
46.08
 10
38.290233
 20
34.860918
 30
0.0
 11
38.290233
 21
34.860918
 31
0.0
  0
LINE
  5
7BA
100
AcDbEntity
  8
BORDER
  6
CONTINUOUS
 62
     2
100
AcDbLine
 39
46.08
 10
38.515193
 20
34.860918
 30
0.0
 11
38.515193
 21
34.860918
 31
0.0
  0
LINE
  5
7BB
100
AcDbEntity
  8
BORDER
  6
CONTINUOUS
 62
     2
100
AcDbLine
 39
46.08
 10
37.952697
 20
34.635958
 30
0.0
 11
37.952697
 21
34.635958
 31
0.0
  0
LINE
  5
7BC
100
AcDbEntity
  8
BORDER
  6
CONTINUOUS
 62
     2
100
AcDbLine
 39
46.08
 10
38.177721
 20
34.635958
 30
0.0
 11
38.177721
 21
34.635958
 31
0.0
  0
LINE
  5
7BD
100
AcDbEntity
  8
BORDER
  6
CONTINUOUS
 62
     2
100
AcDbLine
 39
46.08
 10
38.402681
 20
34.635958
 30
0.0
 11
38.402681
 21
34.635958
 31
0.0
  0
LINE
  5
7BE
100
AcDbEntity
  8
BORDER
  6
CONTINUOUS
 62
     2
100
AcDbLine
 39
46.08
 10
38.627705
 20
34.635958
 30
0.0
 11
38.627705
 21
34.635958
 31
0.0
  0
LINE
  5
7BF
100
AcDbEntity
  8
BORDER
  6
CONTINUOUS
 62
     2
100
AcDbLine
 39
46.08
 10
37.840185
 20
34.410934
 30
0.0
 11
37.840185
 21
34.410934
 31
0.0
  0
LINE
  5
7C0
100
AcDbEntity
  8
BORDER
  6
CONTINUOUS
 62
     2
100
AcDbLine
 39
46.08
 10
38.065209
 20
34.410934
 30
0.0
 11
38.065209
 21
34.410934
 31
0.0
  0
LINE
  5
7C1
100
AcDbEntity
  8
BORDER
  6
CONTINUOUS
 62
     2
100
AcDbLine
 39
46.08
 10
38.290233
 20
34.410934
 30
0.0
 11
38.290233
 21
34.410934
 31
0.0
  0
LINE
  5
7C2
100
AcDbEntity
  8
BORDER
  6
CONTINUOUS
 62
     2
100
AcDbLine
 39
46.08
 10
38.515193
 20
34.410934
 30
0.0
 11
38.515193
 21
34.410934
 31
0.0
  0
LINE
  5
7C3
100
AcDbEntity
  8
BORDER
  6
CONTINUOUS
 62
     2
100
AcDbLine
 39
46.08
 10
37.952697
 20
34.185974
 30
0.0
 11
37.952697
 21
34.185974
 31
0.0
  0
LINE
  5
7C4
100
AcDbEntity
  8
BORDER
  6
CONTINUOUS
 62
     2
100
AcDbLine
 39
46.08
 10
38.177721
 20
34.185974
 30
0.0
 11
38.177721
 21
34.185974
 31
0.0
  0
LINE
  5
7C5
100
AcDbEntity
  8
BORDER
  6
CONTINUOUS
 62
     2
100
AcDbLine
 39
46.08
 10
38.402681
 20
34.185974
 30
0.0
 11
38.402681
 21
34.185974
 31
0.0
  0
LINE
  5
7C6
100
AcDbEntity
  8
BORDER
  6
CONTINUOUS
 62
     2
100
AcDbLine
 39
46.08
 10
38.627705
 20
34.185974
 30
0.0
 11
38.627705
 21
34.185974
 31
0.0
  0
LINE
  5
7C7
100
AcDbEntity
  8
BORDER
  6
CONTINUOUS
 62
     2
100
AcDbLine
 39
46.08
 10
37.840185
 20
33.96095
 30
0.0
 11
37.840185
 21
33.96095
 31
0.0
  0
LINE
  5
7C8
100
AcDbEntity
  8
BORDER
  6
CONTINUOUS
 62
     2
100
AcDbLine
 39
46.08
 10
38.065209
 20
33.96095
 30
0.0
 11
38.065209
 21
33.96095
 31
0.0
  0
LINE
  5
7C9
100
AcDbEntity
  8
BORDER
  6
CONTINUOUS
 62
     2
100
AcDbLine
 39
46.08
 10
38.290233
 20
33.96095
 30
0.0
 11
38.290233
 21
33.96095
 31
0.0
  0
LINE
  5
7CA
100
AcDbEntity
  8
BORDER
  6
CONTINUOUS
 62
     2
100
AcDbLine
 39
46.08
 10
38.515193
 20
33.96095
 30
0.0
 11
38.515193
 21
33.96095
 31
0.0
  0
LINE
  5
7CB
100
AcDbEntity
  8
BORDER
  6
CONTINUOUS
 62
     2
100
AcDbLine
 39
46.08
 10
37.952697
 20
33.735926
 30
0.0
 11
37.952697
 21
33.735926
 31
0.0
  0
LINE
  5
7CC
100
AcDbEntity
  8
BORDER
  6
CONTINUOUS
 62
     2
100
AcDbLine
 39
46.08
 10
38.177721
 20
33.735926
 30
0.0
 11
38.177721
 21
33.735926
 31
0.0
  0
LINE
  5
7CD
100
AcDbEntity
  8
BORDER
  6
CONTINUOUS
 62
     2
100
AcDbLine
 39
46.08
 10
38.402681
 20
33.735926
 30
0.0
 11
38.402681
 21
33.735926
 31
0.0
  0
LINE
  5
7CE
100
AcDbEntity
  8
BORDER
  6
CONTINUOUS
 62
     2
100
AcDbLine
 39
46.08
 10
38.627705
 20
33.735926
 30
0.0
 11
38.627705
 21
33.735926
 31
0.0
  0
LINE
  5
7CF
100
AcDbEntity
  8
BORDER
  6
CONTINUOUS
 62
     2
100
AcDbLine
 39
46.08
 10
37.840185
 20
33.510966
 30
0.0
 11
37.840185
 21
33.510966
 31
0.0
  0
LINE
  5
7D0
100
AcDbEntity
  8
BORDER
  6
CONTINUOUS
 62
     2
100
AcDbLine
 39
46.08
 10
38.065209
 20
33.510966
 30
0.0
 11
38.065209
 21
33.510966
 31
0.0
  0
LINE
  5
7D1
100
AcDbEntity
  8
BORDER
  6
CONTINUOUS
 62
     2
100
AcDbLine
 39
46.08
 10
38.290233
 20
33.510966
 30
0.0
 11
38.290233
 21
33.510966
 31
0.0
  0
LINE
  5
7D2
100
AcDbEntity
  8
BORDER
  6
CONTINUOUS
 62
     2
100
AcDbLine
 39
46.08
 10
38.515193
 20
33.510966
 30
0.0
 11
38.515193
 21
33.510966
 31
0.0
  0
LINE
  5
7D3
100
AcDbEntity
  8
BORDER
  6
CONTINUOUS
 62
     2
100
AcDbLine
 39
46.08
 10
37.952697
 20
33.285942
 30
0.0
 11
37.952697
 21
33.285942
 31
0.0
  0
LINE
  5
7D4
100
AcDbEntity
  8
BORDER
  6
CONTINUOUS
 62
     2
100
AcDbLine
 39
46.08
 10
38.177721
 20
33.285942
 30
0.0
 11
38.177721
 21
33.285942
 31
0.0
  0
LINE
  5
7D5
100
AcDbEntity
  8
BORDER
  6
CONTINUOUS
 62
     2
100
AcDbLine
 39
46.08
 10
38.402681
 20
33.285942
 30
0.0
 11
38.402681
 21
33.285942
 31
0.0
  0
LINE
  5
7D6
100
AcDbEntity
  8
BORDER
  6
CONTINUOUS
 62
     2
100
AcDbLine
 39
46.08
 10
38.627705
 20
33.285942
 30
0.0
 11
38.627705
 21
33.285942
 31
0.0
  0
LINE
  5
7D7
100
AcDbEntity
  8
BORDER
  6
CONTINUOUS
 62
     2
100
AcDbLine
 39
46.08
 10
37.840185
 20
33.060918
 30
0.0
 11
37.840185
 21
33.060918
 31
0.0
  0
LINE
  5
7D8
100
AcDbEntity
  8
BORDER
  6
CONTINUOUS
 62
     2
100
AcDbLine
 39
46.08
 10
38.065209
 20
33.060918
 30
0.0
 11
38.065209
 21
33.060918
 31
0.0
  0
LINE
  5
7D9
100
AcDbEntity
  8
BORDER
  6
CONTINUOUS
 62
     2
100
AcDbLine
 39
46.08
 10
38.290233
 20
33.060918
 30
0.0
 11
38.290233
 21
33.060918
 31
0.0
  0
LINE
  5
7DA
100
AcDbEntity
  8
BORDER
  6
CONTINUOUS
 62
     2
100
AcDbLine
 39
46.08
 10
38.515193
 20
33.060918
 30
0.0
 11
38.515193
 21
33.060918
 31
0.0
  0
LINE
  5
7DB
100
AcDbEntity
  8
BORDER
  6
CONTINUOUS
 62
     2
100
AcDbLine
 39
46.08
 10
37.952697
 20
32.835958
 30
0.0
 11
37.952697
 21
32.835958
 31
0.0
  0
LINE
  5
7DC
100
AcDbEntity
  8
BORDER
  6
CONTINUOUS
 62
     2
100
AcDbLine
 39
46.08
 10
38.177721
 20
32.835958
 30
0.0
 11
38.177721
 21
32.835958
 31
0.0
  0
LINE
  5
7DD
100
AcDbEntity
  8
BORDER
  6
CONTINUOUS
 62
     2
100
AcDbLine
 39
46.08
 10
38.402681
 20
32.835958
 30
0.0
 11
38.402681
 21
32.835958
 31
0.0
  0
LINE
  5
7DE
100
AcDbEntity
  8
BORDER
  6
CONTINUOUS
 62
     2
100
AcDbLine
 39
46.08
 10
38.627705
 20
32.835958
 30
0.0
 11
38.627705
 21
32.835958
 31
0.0
  0
LINE
  5
7DF
100
AcDbEntity
  8
BORDER
  6
CONTINUOUS
 62
     2
100
AcDbLine
 39
46.08
 10
37.840185
 20
32.610934
 30
0.0
 11
37.840185
 21
32.610934
 31
0.0
  0
LINE
  5
7E0
100
AcDbEntity
  8
BORDER
  6
CONTINUOUS
 62
     2
100
AcDbLine
 39
46.08
 10
38.065209
 20
32.610934
 30
0.0
 11
38.065209
 21
32.610934
 31
0.0
  0
LINE
  5
7E1
100
AcDbEntity
  8
BORDER
  6
CONTINUOUS
 62
     2
100
AcDbLine
 39
46.08
 10
38.290233
 20
32.610934
 30
0.0
 11
38.290233
 21
32.610934
 31
0.0
  0
LINE
  5
7E2
100
AcDbEntity
  8
BORDER
  6
CONTINUOUS
 62
     2
100
AcDbLine
 39
46.08
 10
38.515193
 20
32.610934
 30
0.0
 11
38.515193
 21
32.610934
 31
0.0
  0
LINE
  5
7E3
100
AcDbEntity
  8
BORDER
  6
CONTINUOUS
 62
     2
100
AcDbLine
 39
46.08
 10
37.952697
 20
32.385974
 30
0.0
 11
37.952697
 21
32.385974
 31
0.0
  0
LINE
  5
7E4
100
AcDbEntity
  8
BORDER
  6
CONTINUOUS
 62
     2
100
AcDbLine
 39
46.08
 10
38.177721
 20
32.385974
 30
0.0
 11
38.177721
 21
32.385974
 31
0.0
  0
LINE
  5
7E5
100
AcDbEntity
  8
BORDER
  6
CONTINUOUS
 62
     2
100
AcDbLine
 39
46.08
 10
38.402681
 20
32.385974
 30
0.0
 11
38.402681
 21
32.385974
 31
0.0
  0
LINE
  5
7E6
100
AcDbEntity
  8
BORDER
  6
CONTINUOUS
 62
     2
100
AcDbLine
 39
46.08
 10
38.627705
 20
32.385974
 30
0.0
 11
38.627705
 21
32.385974
 31
0.0
  0
LINE
  5
7E7
100
AcDbEntity
  8
BORDER
  6
CONTINUOUS
 62
     2
100
AcDbLine
 39
46.08
 10
37.840185
 20
32.16095
 30
0.0
 11
37.840185
 21
32.16095
 31
0.0
  0
LINE
  5
7E8
100
AcDbEntity
  8
BORDER
  6
CONTINUOUS
 62
     2
100
AcDbLine
 39
46.08
 10
38.065209
 20
32.16095
 30
0.0
 11
38.065209
 21
32.16095
 31
0.0
  0
LINE
  5
7E9
100
AcDbEntity
  8
BORDER
  6
CONTINUOUS
 62
     2
100
AcDbLine
 39
46.08
 10
38.290233
 20
32.16095
 30
0.0
 11
38.290233
 21
32.16095
 31
0.0
  0
LINE
  5
7EA
100
AcDbEntity
  8
BORDER
  6
CONTINUOUS
 62
     2
100
AcDbLine
 39
46.08
 10
38.515193
 20
32.16095
 30
0.0
 11
38.515193
 21
32.16095
 31
0.0
  0
LINE
  5
7EB
100
AcDbEntity
  8
BORDER
  6
CONTINUOUS
 62
     2
100
AcDbLine
 39
46.08
 10
37.952697
 20
31.935926
 30
0.0
 11
37.952697
 21
31.935926
 31
0.0
  0
LINE
  5
7EC
100
AcDbEntity
  8
BORDER
  6
CONTINUOUS
 62
     2
100
AcDbLine
 39
46.08
 10
38.177721
 20
31.935926
 30
0.0
 11
38.177721
 21
31.935926
 31
0.0
  0
LINE
  5
7ED
100
AcDbEntity
  8
BORDER
  6
CONTINUOUS
 62
     2
100
AcDbLine
 39
46.08
 10
38.402681
 20
31.935926
 30
0.0
 11
38.402681
 21
31.935926
 31
0.0
  0
LINE
  5
7EE
100
AcDbEntity
  8
BORDER
  6
CONTINUOUS
 62
     2
100
AcDbLine
 39
46.08
 10
38.627705
 20
31.935926
 30
0.0
 11
38.627705
 21
31.935926
 31
0.0
  0
LINE
  5
7EF
100
AcDbEntity
  8
BORDER
  6
CONTINUOUS
 62
     2
100
AcDbLine
 39
46.08
 10
37.840185
 20
31.710966
 30
0.0
 11
37.840185
 21
31.710966
 31
0.0
  0
LINE
  5
7F0
100
AcDbEntity
  8
BORDER
  6
CONTINUOUS
 62
     2
100
AcDbLine
 39
46.08
 10
38.065209
 20
31.710966
 30
0.0
 11
38.065209
 21
31.710966
 31
0.0
  0
LINE
  5
7F1
100
AcDbEntity
  8
BORDER
  6
CONTINUOUS
 62
     2
100
AcDbLine
 39
46.08
 10
38.290233
 20
31.710966
 30
0.0
 11
38.290233
 21
31.710966
 31
0.0
  0
LINE
  5
7F2
100
AcDbEntity
  8
BORDER
  6
CONTINUOUS
 62
     2
100
AcDbLine
 39
46.08
 10
38.515193
 20
31.710966
 30
0.0
 11
38.515193
 21
31.710966
 31
0.0
  0
LINE
  5
7F3
100
AcDbEntity
  8
BORDER
  6
CONTINUOUS
 62
     2
100
AcDbLine
 39
46.08
 10
37.952697
 20
31.485942
 30
0.0
 11
37.952697
 21
31.485942
 31
0.0
  0
LINE
  5
7F4
100
AcDbEntity
  8
BORDER
  6
CONTINUOUS
 62
     2
100
AcDbLine
 39
46.08
 10
38.177721
 20
31.485942
 30
0.0
 11
38.177721
 21
31.485942
 31
0.0
  0
LINE
  5
7F5
100
AcDbEntity
  8
BORDER
  6
CONTINUOUS
 62
     2
100
AcDbLine
 39
46.08
 10
38.402681
 20
31.485942
 30
0.0
 11
38.402681
 21
31.485942
 31
0.0
  0
LINE
  5
7F6
100
AcDbEntity
  8
BORDER
  6
CONTINUOUS
 62
     2
100
AcDbLine
 39
46.08
 10
38.627705
 20
31.485942
 30
0.0
 11
38.627705
 21
31.485942
 31
0.0
  0
LINE
  5
7F7
100
AcDbEntity
  8
BORDER
  6
CONTINUOUS
 62
     2
100
AcDbLine
 39
46.08
 10
37.840185
 20
31.260918
 30
0.0
 11
37.840185
 21
31.260918
 31
0.0
  0
LINE
  5
7F8
100
AcDbEntity
  8
BORDER
  6
CONTINUOUS
 62
     2
100
AcDbLine
 39
46.08
 10
38.065209
 20
31.260918
 30
0.0
 11
38.065209
 21
31.260918
 31
0.0
  0
LINE
  5
7F9
100
AcDbEntity
  8
BORDER
  6
CONTINUOUS
 62
     2
100
AcDbLine
 39
46.08
 10
38.290233
 20
31.260918
 30
0.0
 11
38.290233
 21
31.260918
 31
0.0
  0
LINE
  5
7FA
100
AcDbEntity
  8
BORDER
  6
CONTINUOUS
 62
     2
100
AcDbLine
 39
46.08
 10
38.515193
 20
31.260918
 30
0.0
 11
38.515193
 21
31.260918
 31
0.0
  0
LINE
  5
7FB
100
AcDbEntity
  8
BORDER
  6
CONTINUOUS
 62
     2
100
AcDbLine
 39
46.08
 10
37.952697
 20
31.035958
 30
0.0
 11
37.952697
 21
31.035958
 31
0.0
  0
LINE
  5
7FC
100
AcDbEntity
  8
BORDER
  6
CONTINUOUS
 62
     2
100
AcDbLine
 39
46.08
 10
38.177721
 20
31.035958
 30
0.0
 11
38.177721
 21
31.035958
 31
0.0
  0
LINE
  5
7FD
100
AcDbEntity
  8
BORDER
  6
CONTINUOUS
 62
     2
100
AcDbLine
 39
46.08
 10
38.402681
 20
31.035958
 30
0.0
 11
38.402681
 21
31.035958
 31
0.0
  0
LINE
  5
7FE
100
AcDbEntity
  8
BORDER
  6
CONTINUOUS
 62
     2
100
AcDbLine
 39
46.08
 10
38.627705
 20
31.035958
 30
0.0
 11
38.627705
 21
31.035958
 31
0.0
  0
LINE
  5
7FF
100
AcDbEntity
  8
BORDER
  6
CONTINUOUS
 62
     2
100
AcDbLine
 39
46.08
 10
37.840185
 20
30.810934
 30
0.0
 11
37.840185
 21
30.810934
 31
0.0
  0
LINE
  5
800
100
AcDbEntity
  8
BORDER
  6
CONTINUOUS
 62
     2
100
AcDbLine
 39
46.08
 10
38.065209
 20
30.810934
 30
0.0
 11
38.065209
 21
30.810934
 31
0.0
  0
LINE
  5
801
100
AcDbEntity
  8
BORDER
  6
CONTINUOUS
 62
     2
100
AcDbLine
 39
46.08
 10
38.290233
 20
30.810934
 30
0.0
 11
38.290233
 21
30.810934
 31
0.0
  0
LINE
  5
802
100
AcDbEntity
  8
BORDER
  6
CONTINUOUS
 62
     2
100
AcDbLine
 39
46.08
 10
38.515193
 20
30.810934
 30
0.0
 11
38.515193
 21
30.810934
 31
0.0
  0
LINE
  5
803
100
AcDbEntity
  8
BORDER
  6
CONTINUOUS
 62
     2
100
AcDbLine
 39
46.08
 10
37.952697
 20
30.585974
 30
0.0
 11
37.952697
 21
30.585974
 31
0.0
  0
LINE
  5
804
100
AcDbEntity
  8
BORDER
  6
CONTINUOUS
 62
     2
100
AcDbLine
 39
46.08
 10
38.177721
 20
30.585974
 30
0.0
 11
38.177721
 21
30.585974
 31
0.0
  0
LINE
  5
805
100
AcDbEntity
  8
BORDER
  6
CONTINUOUS
 62
     2
100
AcDbLine
 39
46.08
 10
38.402681
 20
30.585974
 30
0.0
 11
38.402681
 21
30.585974
 31
0.0
  0
LINE
  5
806
100
AcDbEntity
  8
BORDER
  6
CONTINUOUS
 62
     2
100
AcDbLine
 39
46.08
 10
38.627705
 20
30.585974
 30
0.0
 11
38.627705
 21
30.585974
 31
0.0
  0
LINE
  5
807
100
AcDbEntity
  8
BORDER
  6
CONTINUOUS
 62
     2
100
AcDbLine
 39
46.08
 10
37.840185
 20
30.36095
 30
0.0
 11
37.840185
 21
30.36095
 31
0.0
  0
LINE
  5
808
100
AcDbEntity
  8
BORDER
  6
CONTINUOUS
 62
     2
100
AcDbLine
 39
46.08
 10
38.065209
 20
30.36095
 30
0.0
 11
38.065209
 21
30.36095
 31
0.0
  0
LINE
  5
809
100
AcDbEntity
  8
BORDER
  6
CONTINUOUS
 62
     2
100
AcDbLine
 39
46.08
 10
38.290233
 20
30.36095
 30
0.0
 11
38.290233
 21
30.36095
 31
0.0
  0
LINE
  5
80A
100
AcDbEntity
  8
BORDER
  6
CONTINUOUS
 62
     2
100
AcDbLine
 39
46.08
 10
38.515193
 20
30.36095
 30
0.0
 11
38.515193
 21
30.36095
 31
0.0
  0
LINE
  5
80B
100
AcDbEntity
  8
BORDER
  6
CONTINUOUS
 62
     2
100
AcDbLine
 39
46.08
 10
37.952697
 20
30.135926
 30
0.0
 11
37.952697
 21
30.135926
 31
0.0
  0
LINE
  5
80C
100
AcDbEntity
  8
BORDER
  6
CONTINUOUS
 62
     2
100
AcDbLine
 39
46.08
 10
38.177721
 20
30.135926
 30
0.0
 11
38.177721
 21
30.135926
 31
0.0
  0
LINE
  5
80D
100
AcDbEntity
  8
BORDER
  6
CONTINUOUS
 62
     2
100
AcDbLine
 39
46.08
 10
38.402681
 20
30.135926
 30
0.0
 11
38.402681
 21
30.135926
 31
0.0
  0
LINE
  5
80E
100
AcDbEntity
  8
BORDER
  6
CONTINUOUS
 62
     2
100
AcDbLine
 39
46.08
 10
38.627705
 20
30.135926
 30
0.0
 11
38.627705
 21
30.135926
 31
0.0
  0
LINE
  5
80F
100
AcDbEntity
  8
BORDER
  6
CONTINUOUS
 62
     2
100
AcDbLine
 39
46.08
 10
37.840185
 20
29.910966
 30
0.0
 11
37.840185
 21
29.910966
 31
0.0
  0
LINE
  5
810
100
AcDbEntity
  8
BORDER
  6
CONTINUOUS
 62
     2
100
AcDbLine
 39
46.08
 10
38.065209
 20
29.910966
 30
0.0
 11
38.065209
 21
29.910966
 31
0.0
  0
LINE
  5
811
100
AcDbEntity
  8
BORDER
  6
CONTINUOUS
 62
     2
100
AcDbLine
 39
46.08
 10
38.290233
 20
29.910966
 30
0.0
 11
38.290233
 21
29.910966
 31
0.0
  0
LINE
  5
812
100
AcDbEntity
  8
BORDER
  6
CONTINUOUS
 62
     2
100
AcDbLine
 39
46.08
 10
38.515193
 20
29.910966
 30
0.0
 11
38.515193
 21
29.910966
 31
0.0
  0
LINE
  5
813
100
AcDbEntity
  8
BORDER
  6
CONTINUOUS
 62
     2
100
AcDbLine
 39
46.08
 10
37.952697
 20
29.685942
 30
0.0
 11
37.952697
 21
29.685942
 31
0.0
  0
LINE
  5
814
100
AcDbEntity
  8
BORDER
  6
CONTINUOUS
 62
     2
100
AcDbLine
 39
46.08
 10
38.177721
 20
29.685942
 30
0.0
 11
38.177721
 21
29.685942
 31
0.0
  0
LINE
  5
815
100
AcDbEntity
  8
BORDER
  6
CONTINUOUS
 62
     2
100
AcDbLine
 39
46.08
 10
38.402681
 20
29.685942
 30
0.0
 11
38.402681
 21
29.685942
 31
0.0
  0
LINE
  5
816
100
AcDbEntity
  8
BORDER
  6
CONTINUOUS
 62
     2
100
AcDbLine
 39
46.08
 10
38.627705
 20
29.685942
 30
0.0
 11
38.627705
 21
29.685942
 31
0.0
  0
LINE
  5
817
100
AcDbEntity
  8
BORDER
  6
CONTINUOUS
 62
     3
100
AcDbLine
 39
46.08
 10
37.738041
 20
29.526134
 30
0.0
 11
38.638009
 21
29.526134
 31
0.0
  0
LINE
  5
818
100
AcDbEntity
  8
BORDER
  6
CONTINUOUS
 62
     3
100
AcDbLine
 39
46.08
 10
38.638009
 20
29.526134
 30
0.0
 11
37.738041
 21
29.526134
 31
0.0
  0
LINE
  5
819
100
AcDbEntity
  8
BORDER
  6
CONTINUOUS
 62
     3
100
AcDbLine
 39
46.08
 10
38.638009
 20
29.526134
 30
0.0
 11
37.738041
 21
29.526134
 31
0.0
  0
LINE
  5
81A
100
AcDbEntity
  8
BORDER
  6
CONTINUOUS
 62
     1
100
AcDbLine
 39
46.08
 10
38.690041
 20
28.567094
 30
0.0
 11
38.695225
 21
28.596598
 31
0.0
  0
LINE
  5
81B
100
AcDbEntity
  8
BORDER
  6
CONTINUOUS
 62
     2
100
AcDbLine
 39
46.08
 10
37.840185
 20
29.460918
 30
0.0
 11
37.840185
 21
29.460918
 31
0.0
  0
LINE
  5
81C
100
AcDbEntity
  8
BORDER
  6
CONTINUOUS
 62
     2
100
AcDbLine
 39
46.08
 10
38.065209
 20
29.460918
 30
0.0
 11
38.065209
 21
29.460918
 31
0.0
  0
LINE
  5
81D
100
AcDbEntity
  8
BORDER
  6
CONTINUOUS
 62
     2
100
AcDbLine
 39
46.08
 10
38.290233
 20
29.460918
 30
0.0
 11
38.290233
 21
29.460918
 31
0.0
  0
LINE
  5
81E
100
AcDbEntity
  8
BORDER
  6
CONTINUOUS
 62
     2
100
AcDbLine
 39
46.08
 10
38.515193
 20
29.460918
 30
0.0
 11
38.515193
 21
29.460918
 31
0.0
  0
LINE
  5
81F
100
AcDbEntity
  8
BORDER
  6
CONTINUOUS
 62
     2
100
AcDbLine
 39
46.08
 10
37.952697
 20
29.235958
 30
0.0
 11
37.952697
 21
29.235958
 31
0.0
  0
LINE
  5
820
100
AcDbEntity
  8
BORDER
  6
CONTINUOUS
 62
     2
100
AcDbLine
 39
46.08
 10
38.177721
 20
29.235958
 30
0.0
 11
38.177721
 21
29.235958
 31
0.0
  0
LINE
  5
821
100
AcDbEntity
  8
BORDER
  6
CONTINUOUS
 62
     2
100
AcDbLine
 39
46.08
 10
38.402681
 20
29.235958
 30
0.0
 11
38.402681
 21
29.235958
 31
0.0
  0
LINE
  5
822
100
AcDbEntity
  8
BORDER
  6
CONTINUOUS
 62
     2
100
AcDbLine
 39
46.08
 10
38.627705
 20
29.235958
 30
0.0
 11
38.627705
 21
29.235958
 31
0.0
  0
LINE
  5
823
100
AcDbEntity
  8
BORDER
  6
CONTINUOUS
 62
     2
100
AcDbLine
 39
46.08
 10
37.840185
 20
29.010934
 30
0.0
 11
37.840185
 21
29.010934
 31
0.0
  0
LINE
  5
824
100
AcDbEntity
  8
BORDER
  6
CONTINUOUS
 62
     2
100
AcDbLine
 39
46.08
 10
38.065209
 20
29.010934
 30
0.0
 11
38.065209
 21
29.010934
 31
0.0
  0
LINE
  5
825
100
AcDbEntity
  8
BORDER
  6
CONTINUOUS
 62
     2
100
AcDbLine
 39
46.08
 10
38.290233
 20
29.010934
 30
0.0
 11
38.290233
 21
29.010934
 31
0.0
  0
LINE
  5
826
100
AcDbEntity
  8
BORDER
  6
CONTINUOUS
 62
     2
100
AcDbLine
 39
46.08
 10
38.515193
 20
29.010934
 30
0.0
 11
38.515193
 21
29.010934
 31
0.0
  0
LINE
  5
827
100
AcDbEntity
  8
BORDER
  6
CONTINUOUS
 62
     2
100
AcDbLine
 39
46.08
 10
37.952697
 20
28.785974
 30
0.0
 11
37.952697
 21
28.785974
 31
0.0
  0
LINE
  5
828
100
AcDbEntity
  8
BORDER
  6
CONTINUOUS
 62
     2
100
AcDbLine
 39
46.08
 10
38.177721
 20
28.785974
 30
0.0
 11
38.177721
 21
28.785974
 31
0.0
  0
LINE
  5
829
100
AcDbEntity
  8
BORDER
  6
CONTINUOUS
 62
     2
100
AcDbLine
 39
46.08
 10
38.402681
 20
28.785974
 30
0.0
 11
38.402681
 21
28.785974
 31
0.0
  0
LINE
  5
82A
100
AcDbEntity
  8
BORDER
  6
CONTINUOUS
 62
     2
100
AcDbLine
 39
46.08
 10
38.627705
 20
28.785974
 30
0.0
 11
38.627705
 21
28.785974
 31
0.0
  0
LINE
  5
82B
100
AcDbEntity
  8
BORDER
  6
CONTINUOUS
 62
     2
100
AcDbLine
 39
46.08
 10
37.840185
 20
28.56095
 30
0.0
 11
37.840185
 21
28.56095
 31
0.0
  0
LINE
  5
82C
100
AcDbEntity
  8
BORDER
  6
CONTINUOUS
 62
     2
100
AcDbLine
 39
46.08
 10
38.065209
 20
28.56095
 30
0.0
 11
38.065209
 21
28.56095
 31
0.0
  0
LINE
  5
82D
100
AcDbEntity
  8
BORDER
  6
CONTINUOUS
 62
     2
100
AcDbLine
 39
46.08
 10
38.290233
 20
28.56095
 30
0.0
 11
38.290233
 21
28.56095
 31
0.0
  0
LINE
  5
82E
100
AcDbEntity
  8
BORDER
  6
CONTINUOUS
 62
     2
100
AcDbLine
 39
46.08
 10
38.515193
 20
28.56095
 30
0.0
 11
38.515193
 21
28.56095
 31
0.0
  0
LINE
  5
82F
100
AcDbEntity
  8
BORDER
  6
CONTINUOUS
 62
     1
100
AcDbLine
 39
46.08
 10
38.979513
 20
28.802934
 30
0.0
 11
39.000569
 21
28.810614
 31
0.0
  0
LINE
  5
830
100
AcDbEntity
  8
BORDER
  6
CONTINUOUS
 62
     1
100
AcDbLine
 39
46.08
 10
39.825145
 20
29.11071
 30
0.0
 11
39.846201
 21
29.11839
 31
0.0
  0
LINE
  5
831
100
AcDbEntity
  8
BORDER
  6
CONTINUOUS
 62
     1
100
AcDbLine
 39
46.08
 10
40.670777
 20
29.41855
 30
0.0
 11
40.691833
 21
29.42623
 31
0.0
  0
LINE
  5
832
100
AcDbEntity
  8
BORDER
  6
CONTINUOUS
 62
     1
100
AcDbLine
 39
46.08
 10
40.978745
 20
28.572854
 30
0.0
 11
40.999801
 21
28.580534
 31
0.0
  0
LINE
  5
833
100
AcDbEntity
  8
BORDER
  6
CONTINUOUS
 62
     1
100
AcDbLine
 39
46.08
 10
38.890937
 20
29.401718
 30
0.0
 11
38.903801
 21
29.42015
 31
0.0
  0
LINE
  5
834
100
AcDbEntity
  8
BORDER
  6
CONTINUOUS
 62
     1
100
AcDbLine
 39
46.08
 10
39.628025
 20
28.885494
 30
0.0
 11
39.641145
 21
28.903926
 31
0.0
  0
LINE
  5
835
100
AcDbEntity
  8
BORDER
  6
CONTINUOUS
 62
     1
100
AcDbLine
 39
46.08
 10
40.881465
 20
29.10655
 30
0.0
 11
40.894329
 21
29.124982
 31
0.0
  0
LINE
  5
836
100
AcDbEntity
  8
BORDER
  6
CONTINUOUS
 62
     1
100
AcDbLine
 39
46.08
 10
39.378425
 20
29.324086
 30
0.0
 11
39.382393
 21
29.34623
 31
0.0
  0
LINE
  5
837
100
AcDbEntity
  8
BORDER
  6
CONTINUOUS
 62
     1
100
AcDbLine
 39
46.08
 10
40.264569
 20
29.167734
 30
0.0
 11
40.268345
 21
29.189942
 31
0.0
  0
LINE
  5
838
100
AcDbEntity
  8
BORDER
  6
CONTINUOUS
 62
     1
100
AcDbLine
 39
46.08
 10
41.150969
 20
29.011446
 30
0.0
 11
41.154745
 21
29.033654
 31
0.0
  0
LINE
  5
839
100
AcDbEntity
  8
BORDER
  6
CONTINUOUS
 62
     1
100
AcDbLine
 39
46.08
 10
39.591929
 20
30.445686
 30
0.0
 11
39.613049
 21
30.45343
 31
0.0
  0
LINE
  5
83A
100
AcDbEntity
  8
BORDER
  6
CONTINUOUS
 62
     1
100
AcDbLine
 39
46.08
 10
40.437561
 20
30.753526
 30
0.0
 11
40.458617
 21
30.761206
 31
0.0
  0
LINE
  5
83B
100
AcDbEntity
  8
BORDER
  6
CONTINUOUS
 62
     1
100
AcDbLine
 39
46.08
 10
39.899897
 20
29.599926
 30
0.0
 11
39.921017
 21
29.60767
 31
0.0
  0
LINE
  5
83C
100
AcDbEntity
  8
BORDER
  6
CONTINUOUS
 62
     1
100
AcDbLine
 39
46.08
 10
40.745529
 20
29.907766
 30
0.0
 11
40.766585
 21
29.915446
 31
0.0
  0
LINE
  5
83D
100
AcDbEntity
  8
BORDER
  6
CONTINUOUS
 62
     1
100
AcDbLine
 39
46.08
 10
38.818233
 20
29.943478
 30
0.0
 11
38.831161
 21
29.96191
 31
0.0
  0
LINE
  5
83E
100
AcDbEntity
  8
BORDER
  6
CONTINUOUS
 62
     1
100
AcDbLine
 39
46.08
 10
39.334585
 20
30.680694
 30
0.0
 11
39.347257
 21
30.699126
 31
0.0
  0
LINE
  5
83F
100
AcDbEntity
  8
BORDER
  6
CONTINUOUS
 62
     1
100
AcDbLine
 39
46.08
 10
40.071481
 20
30.164534
 30
0.0
 11
40.084601
 21
30.182966
 31
0.0
  0
LINE
  5
840
100
AcDbEntity
  8
BORDER
  6
CONTINUOUS
 62
     1
100
AcDbLine
 39
46.08
 10
40.808761
 20
29.648246
 30
0.0
 11
40.821945
 21
29.666678
 31
0.0
  0
LINE
  5
841
100
AcDbEntity
  8
BORDER
  6
CONTINUOUS
 62
     1
100
AcDbLine
 39
46.08
 10
38.855993
 20
29.527222
 30
0.0
 11
38.859769
 21
29.54943
 31
0.0
  0
LINE
  5
842
100
AcDbEntity
  8
BORDER
  6
CONTINUOUS
 62
     1
100
AcDbLine
 39
46.08
 10
39.012089
 20
30.413558
 30
0.0
 11
39.014457
 21
30.426806
 31
0.0
  0
LINE
  5
843
100
AcDbEntity
  8
BORDER
  6
CONTINUOUS
 62
     1
100
AcDbLine
 39
46.08
 10
39.898233
 20
30.25727
 30
0.0
 11
39.902265
 21
30.279478
 31
0.0
  0
LINE
  5
844
100
AcDbEntity
  8
BORDER
  6
CONTINUOUS
 62
     1
100
AcDbLine
 39
46.08
 10
40.784633
 20
30.100982
 30
0.0
 11
40.788665
 21
30.12319
 31
0.0
  0
LINE
  5
845
100
AcDbEntity
  8
BORDER
  6
CONTINUOUS
 62
     1
100
AcDbLine
 39
46.08
 10
39.436281
 20
36.135734
 30
0.0
 11
39.457401
 21
36.143414
 31
0.0
  0
LINE
  5
846
100
AcDbEntity
  8
BORDER
  6
CONTINUOUS
 62
     1
100
AcDbLine
 39
46.08
 10
40.281913
 20
36.443574
 30
0.0
 11
40.303033
 21
36.451254
 31
0.0
  0
LINE
  5
847
100
AcDbEntity
  8
BORDER
  6
CONTINUOUS
 62
     1
100
AcDbLine
 39
46.08
 10
40.589881
 20
35.597814
 30
0.0
 11
40.611001
 21
35.605494
 31
0.0
  0
LINE
  5
848
100
AcDbEntity
  8
BORDER
  6
CONTINUOUS
 62
     1
100
AcDbLine
 39
46.08
 10
38.966585
 20
36.431734
 30
0.0
 11
38.979513
 21
36.450166
 31
0.0
  0
LINE
  5
849
100
AcDbEntity
  8
BORDER
  6
CONTINUOUS
 62
     1
100
AcDbLine
 39
46.08
 10
39.703737
 20
35.91551
 30
0.0
 11
39.716601
 21
35.933942
 31
0.0
  0
LINE
  5
84A
100
AcDbEntity
  8
BORDER
  6
CONTINUOUS
 62
     1
100
AcDbLine
 39
46.08
 10
40.440825
 20
35.399286
 30
0.0
 11
40.453945
 21
35.417718
 31
0.0
  0
LINE
  5
84B
100
AcDbEntity
  8
BORDER
  6
CONTINUOUS
 62
     1
100
AcDbLine
 39
46.08
 10
40.957177
 20
36.136566
 30
0.0
 11
40.970041
 21
36.154998
 31
0.0
  0
LINE
  5
84C
100
AcDbEntity
  8
BORDER
  6
CONTINUOUS
 62
     1
100
AcDbLine
 39
46.08
 10
39.063673
 20
35.887798
 30
0.0
 11
39.067385
 21
35.909942
 31
0.0
  0
LINE
  5
84D
100
AcDbEntity
  8
BORDER
  6
CONTINUOUS
 62
     1
100
AcDbLine
 39
46.08
 10
39.950073
 20
35.73151
 30
0.0
 11
39.953785
 21
35.753654
 31
0.0
  0
LINE
  5
84E
100
AcDbEntity
  8
BORDER
  6
CONTINUOUS
 62
     1
100
AcDbLine
 39
46.08
 10
40.106169
 20
36.617846
 30
0.0
 11
40.110137
 21
36.63999
 31
0.0
  0
LINE
  5
84F
100
AcDbEntity
  8
BORDER
  6
CONTINUOUS
 62
     1
100
AcDbLine
 39
46.08
 10
40.836217
 20
35.575222
 30
0.0
 11
40.840185
 21
35.597366
 31
0.0
  0
LINE
  5
850
100
AcDbEntity
  8
BORDER
  6
CONTINUOUS
 62
     1
100
AcDbLine
 39
46.08
 10
40.992569
 20
36.461558
 30
0.0
 11
40.996281
 21
36.483702
 31
0.0
  0
LINE
  5
851
100
AcDbEntity
  8
BORDER
  6
CONTINUOUS
 62
     7
100
AcDbLine
 39
46.08
 10
39.358259
 20
37.448234
 30
0.0
 11
39.359108
 21
39.90792
 31
0.0
  0
LEADER
  5
852
100
AcDbEntity
  8
RF-SW
 62
     6
100
AcDbLeader
  3
ARCHITECTURAL
 76
     3
 10
39.946887
 20
37.554114
 30
0.0
 10
40.950664
 20
43.297477
 30
0.0
 10
39.879182
 20
43.297477
 30
0.0
 77
    13
211
-1.0
221
0.0
231
0.0
1001
ACAD
1000
DSTYLE
1002
{
1070
    40
1040
12.0
1070
   173
1070
     1
1070
   176
1070
     6
1070
     7
1000
_CLOSEDBLANK
1070
     6
1000
_CLOSEDBLANK
1070
    41
1040
0.0625
1002
}
  0
TEXT
  5
853
100
AcDbEntity
  8
DIM_TEXT
100
AcDbText
 10
28.510177
 20
40.026334
 30
0.0
 40
0.71982
  1
2x BLOCKING
 51
15.0
  7
INFO
100
AcDbText
  0
LEADER
  5
854
100
AcDbEntity
  8
RF-SW
 62
     6
100
AcDbLeader
  3
ARCHITECTURAL
 76
     3
 10
38.673061
 20
38.23223
 30
0.0
 10
36.882894
 20
40.393705
 30
0.0
 10
35.811413
 20
40.393705
 30
0.0
 77
    13
211
-1.0
221
0.0
231
0.0
1001
ACAD
1000
DSTYLE
1002
{
1070
    40
1040
12.0
1070
   173
1070
     1
1070
   176
1070
     6
1070
     7
1000
_CLOSEDBLANK
1070
     6
1000
_CLOSEDBLANK
1070
    41
1040
0.0625
1002
}
  0
LINE
  5
855
100
AcDbEntity
  8
RF-SW
100
AcDbLine
 10
38.639025
 20
39.667891
 30
0.0
 11
39.358259
 21
37.448234
 31
0.0
  0
LWPOLYLINE
  5
856
100
AcDbEntity
  8
RF-SW
 62
     5
100
AcDbPolyline
 90
        6
 70
     1
 43
0.0
 10
39.38658
 20
38.226519
 10
39.38658
 20
37.476519
 10
40.13658
 20
37.476519
 10
40.13658
 20
37.507769
 10
39.41783
 20
37.507769
 10
39.41783
 20
38.226519
  0
LINE
  5
857
100
AcDbEntity
  8
RF-SW
100
AcDbLine
 10
39.726531
 20
37.553722
 30
0.0
 11
39.726531
 21
36.952107
 31
0.0
  0
LINE
  5
858
100
AcDbEntity
  8
RF-SW
100
AcDbLine
 10
39.004574
 20
39.176798
 30
0.0
 11
39.004574
 21
40.241396
 31
0.0
  0
LINE
  5
859
100
AcDbEntity
  8
RF-SW
100
AcDbLine
 10
39.441216
 20
37.885863
 30
0.0
 11
38.748309
 21
37.885863
 31
0.0
  0
TEXT
  5
85A
100
AcDbEntity
  8
DIM_TEXT
100
AcDbText
 10
30.284343
 20
42.895944
 30
0.0
 40
0.71982
  1
SHEAR TRANSFER
 51
15.0
  7
INFO
100
AcDbText
  0
LINE
  5
85B
100
AcDbEntity
  8
BORDER
  6
CONTINUOUS
 62
     3
100
AcDbLine
 39
46.08
 10
42.538041
 20
25.301366
 30
0.0
 11
42.538041
 21
29.526134
 31
0.0
  0
LINE
  5
85C
100
AcDbEntity
  8
BORDER
  6
CONTINUOUS
 62
     3
100
AcDbLine
 39
46.08
 10
41.638009
 20
25.164982
 30
0.0
 11
41.638009
 21
29.526134
 31
0.0
  0
LINE
  5
85D
100
AcDbEntity
  8
BORDER
  6
CONTINUOUS
 62
     1
100
AcDbLine
 39
46.08
 10
41.559993
 20
26.092214
 30
0.0
 11
41.588345
 21
26.102454
 31
0.0
  0
LINE
  5
85E
100
AcDbEntity
  8
BORDER
  6
CONTINUOUS
 62
     2
100
AcDbLine
 39
46.08
 10
41.665209
 20
26.76095
 30
0.0
 11
41.665209
 21
26.76095
 31
0.0
  0
LINE
  5
85F
100
AcDbEntity
  8
BORDER
  6
CONTINUOUS
 62
     2
100
AcDbLine
 39
46.08
 10
41.890169
 20
26.76095
 30
0.0
 11
41.890169
 21
26.76095
 31
0.0
  0
LINE
  5
860
100
AcDbEntity
  8
BORDER
  6
CONTINUOUS
 62
     2
100
AcDbLine
 39
46.08
 10
42.115193
 20
26.76095
 30
0.0
 11
42.115193
 21
26.76095
 31
0.0
  0
LINE
  5
861
100
AcDbEntity
  8
BORDER
  6
CONTINUOUS
 62
     2
100
AcDbLine
 39
46.08
 10
42.340217
 20
26.76095
 30
0.0
 11
42.340217
 21
26.76095
 31
0.0
  0
LINE
  5
862
100
AcDbEntity
  8
BORDER
  6
CONTINUOUS
 62
     2
100
AcDbLine
 39
46.08
 10
41.777721
 20
26.535926
 30
0.0
 11
41.777721
 21
26.535926
 31
0.0
  0
LINE
  5
863
100
AcDbEntity
  8
BORDER
  6
CONTINUOUS
 62
     2
100
AcDbLine
 39
46.08
 10
42.002681
 20
26.535926
 30
0.0
 11
42.002681
 21
26.535926
 31
0.0
  0
LINE
  5
864
100
AcDbEntity
  8
BORDER
  6
CONTINUOUS
 62
     2
100
AcDbLine
 39
46.08
 10
42.227705
 20
26.535926
 30
0.0
 11
42.227705
 21
26.535926
 31
0.0
  0
LINE
  5
865
100
AcDbEntity
  8
BORDER
  6
CONTINUOUS
 62
     2
100
AcDbLine
 39
46.08
 10
42.452729
 20
26.535926
 30
0.0
 11
42.452729
 21
26.535926
 31
0.0
  0
LINE
  5
866
100
AcDbEntity
  8
BORDER
  6
CONTINUOUS
 62
     2
100
AcDbLine
 39
46.08
 10
41.665209
 20
26.310966
 30
0.0
 11
41.665209
 21
26.310966
 31
0.0
  0
LINE
  5
867
100
AcDbEntity
  8
BORDER
  6
CONTINUOUS
 62
     2
100
AcDbLine
 39
46.08
 10
41.890169
 20
26.310966
 30
0.0
 11
41.890169
 21
26.310966
 31
0.0
  0
LINE
  5
868
100
AcDbEntity
  8
BORDER
  6
CONTINUOUS
 62
     2
100
AcDbLine
 39
46.08
 10
42.115193
 20
26.310966
 30
0.0
 11
42.115193
 21
26.310966
 31
0.0
  0
LINE
  5
869
100
AcDbEntity
  8
BORDER
  6
CONTINUOUS
 62
     2
100
AcDbLine
 39
46.08
 10
42.340217
 20
26.310966
 30
0.0
 11
42.340217
 21
26.310966
 31
0.0
  0
LINE
  5
86A
100
AcDbEntity
  8
BORDER
  6
CONTINUOUS
 62
     2
100
AcDbLine
 39
46.08
 10
41.777721
 20
26.085942
 30
0.0
 11
41.777721
 21
26.085942
 31
0.0
  0
LINE
  5
86B
100
AcDbEntity
  8
BORDER
  6
CONTINUOUS
 62
     2
100
AcDbLine
 39
46.08
 10
42.002681
 20
26.085942
 30
0.0
 11
42.002681
 21
26.085942
 31
0.0
  0
LINE
  5
86C
100
AcDbEntity
  8
BORDER
  6
CONTINUOUS
 62
     2
100
AcDbLine
 39
46.08
 10
42.227705
 20
26.085942
 30
0.0
 11
42.227705
 21
26.085942
 31
0.0
  0
LINE
  5
86D
100
AcDbEntity
  8
BORDER
  6
CONTINUOUS
 62
     2
100
AcDbLine
 39
46.08
 10
42.452729
 20
26.085942
 30
0.0
 11
42.452729
 21
26.085942
 31
0.0
  0
LINE
  5
86E
100
AcDbEntity
  8
BORDER
  6
CONTINUOUS
 62
     2
100
AcDbLine
 39
46.08
 10
41.665209
 20
25.860918
 30
0.0
 11
41.665209
 21
25.860918
 31
0.0
  0
LINE
  5
86F
100
AcDbEntity
  8
BORDER
  6
CONTINUOUS
 62
     2
100
AcDbLine
 39
46.08
 10
41.890169
 20
25.860918
 30
0.0
 11
41.890169
 21
25.860918
 31
0.0
  0
LINE
  5
870
100
AcDbEntity
  8
BORDER
  6
CONTINUOUS
 62
     2
100
AcDbLine
 39
46.08
 10
42.115193
 20
25.860918
 30
0.0
 11
42.115193
 21
25.860918
 31
0.0
  0
LINE
  5
871
100
AcDbEntity
  8
BORDER
  6
CONTINUOUS
 62
     2
100
AcDbLine
 39
46.08
 10
42.340217
 20
25.860918
 30
0.0
 11
42.340217
 21
25.860918
 31
0.0
  0
LINE
  5
872
100
AcDbEntity
  8
BORDER
  6
CONTINUOUS
 62
     2
100
AcDbLine
 39
46.08
 10
41.777721
 20
25.635958
 30
0.0
 11
41.777721
 21
25.635958
 31
0.0
  0
LINE
  5
873
100
AcDbEntity
  8
BORDER
  6
CONTINUOUS
 62
     2
100
AcDbLine
 39
46.08
 10
42.002681
 20
25.635958
 30
0.0
 11
42.002681
 21
25.635958
 31
0.0
  0
LINE
  5
874
100
AcDbEntity
  8
BORDER
  6
CONTINUOUS
 62
     2
100
AcDbLine
 39
46.08
 10
42.227705
 20
25.635958
 30
0.0
 11
42.227705
 21
25.635958
 31
0.0
  0
LINE
  5
875
100
AcDbEntity
  8
BORDER
  6
CONTINUOUS
 62
     2
100
AcDbLine
 39
46.08
 10
42.452729
 20
25.635958
 30
0.0
 11
42.452729
 21
25.635958
 31
0.0
  0
LINE
  5
876
100
AcDbEntity
  8
BORDER
  6
CONTINUOUS
 62
     2
100
AcDbLine
 39
46.08
 10
41.665209
 20
25.410934
 30
0.0
 11
41.665209
 21
25.410934
 31
0.0
  0
LINE
  5
877
100
AcDbEntity
  8
BORDER
  6
CONTINUOUS
 62
     2
100
AcDbLine
 39
46.08
 10
41.890169
 20
25.410934
 30
0.0
 11
41.890169
 21
25.410934
 31
0.0
  0
LINE
  5
878
100
AcDbEntity
  8
BORDER
  6
CONTINUOUS
 62
     2
100
AcDbLine
 39
46.08
 10
42.115193
 20
25.410934
 30
0.0
 11
42.115193
 21
25.410934
 31
0.0
  0
LINE
  5
879
100
AcDbEntity
  8
BORDER
  6
CONTINUOUS
 62
     2
100
AcDbLine
 39
46.08
 10
42.340217
 20
25.410934
 30
0.0
 11
42.340217
 21
25.410934
 31
0.0
  0
LINE
  5
87A
100
AcDbEntity
  8
BORDER
  6
CONTINUOUS
 62
     2
100
AcDbLine
 39
46.08
 10
41.777721
 20
28.335926
 30
0.0
 11
41.777721
 21
28.335926
 31
0.0
  0
LINE
  5
87B
100
AcDbEntity
  8
BORDER
  6
CONTINUOUS
 62
     2
100
AcDbLine
 39
46.08
 10
42.002681
 20
28.335926
 30
0.0
 11
42.002681
 21
28.335926
 31
0.0
  0
LINE
  5
87C
100
AcDbEntity
  8
BORDER
  6
CONTINUOUS
 62
     2
100
AcDbLine
 39
46.08
 10
42.227705
 20
28.335926
 30
0.0
 11
42.227705
 21
28.335926
 31
0.0
  0
LINE
  5
87D
100
AcDbEntity
  8
BORDER
  6
CONTINUOUS
 62
     2
100
AcDbLine
 39
46.08
 10
42.452729
 20
28.335926
 30
0.0
 11
42.452729
 21
28.335926
 31
0.0
  0
LINE
  5
87E
100
AcDbEntity
  8
BORDER
  6
CONTINUOUS
 62
     2
100
AcDbLine
 39
46.08
 10
41.665209
 20
28.110966
 30
0.0
 11
41.665209
 21
28.110966
 31
0.0
  0
LINE
  5
87F
100
AcDbEntity
  8
BORDER
  6
CONTINUOUS
 62
     2
100
AcDbLine
 39
46.08
 10
41.890169
 20
28.110966
 30
0.0
 11
41.890169
 21
28.110966
 31
0.0
  0
LINE
  5
880
100
AcDbEntity
  8
BORDER
  6
CONTINUOUS
 62
     2
100
AcDbLine
 39
46.08
 10
42.115193
 20
28.110966
 30
0.0
 11
42.115193
 21
28.110966
 31
0.0
  0
LINE
  5
881
100
AcDbEntity
  8
BORDER
  6
CONTINUOUS
 62
     2
100
AcDbLine
 39
46.08
 10
42.340217
 20
28.110966
 30
0.0
 11
42.340217
 21
28.110966
 31
0.0
  0
LINE
  5
882
100
AcDbEntity
  8
BORDER
  6
CONTINUOUS
 62
     2
100
AcDbLine
 39
46.08
 10
41.777721
 20
27.885942
 30
0.0
 11
41.777721
 21
27.885942
 31
0.0
  0
LINE
  5
883
100
AcDbEntity
  8
BORDER
  6
CONTINUOUS
 62
     2
100
AcDbLine
 39
46.08
 10
42.002681
 20
27.885942
 30
0.0
 11
42.002681
 21
27.885942
 31
0.0
  0
LINE
  5
884
100
AcDbEntity
  8
BORDER
  6
CONTINUOUS
 62
     2
100
AcDbLine
 39
46.08
 10
42.227705
 20
27.885942
 30
0.0
 11
42.227705
 21
27.885942
 31
0.0
  0
LINE
  5
885
100
AcDbEntity
  8
BORDER
  6
CONTINUOUS
 62
     2
100
AcDbLine
 39
46.08
 10
42.452729
 20
27.885942
 30
0.0
 11
42.452729
 21
27.885942
 31
0.0
  0
LINE
  5
886
100
AcDbEntity
  8
BORDER
  6
CONTINUOUS
 62
     2
100
AcDbLine
 39
46.08
 10
41.665209
 20
27.660918
 30
0.0
 11
41.665209
 21
27.660918
 31
0.0
  0
LINE
  5
887
100
AcDbEntity
  8
BORDER
  6
CONTINUOUS
 62
     2
100
AcDbLine
 39
46.08
 10
41.890169
 20
27.660918
 30
0.0
 11
41.890169
 21
27.660918
 31
0.0
  0
LINE
  5
888
100
AcDbEntity
  8
BORDER
  6
CONTINUOUS
 62
     2
100
AcDbLine
 39
46.08
 10
42.115193
 20
27.660918
 30
0.0
 11
42.115193
 21
27.660918
 31
0.0
  0
LINE
  5
889
100
AcDbEntity
  8
BORDER
  6
CONTINUOUS
 62
     2
100
AcDbLine
 39
46.08
 10
42.340217
 20
27.660918
 30
0.0
 11
42.340217
 21
27.660918
 31
0.0
  0
LINE
  5
88A
100
AcDbEntity
  8
BORDER
  6
CONTINUOUS
 62
     2
100
AcDbLine
 39
46.08
 10
41.777721
 20
27.435958
 30
0.0
 11
41.777721
 21
27.435958
 31
0.0
  0
LINE
  5
88B
100
AcDbEntity
  8
BORDER
  6
CONTINUOUS
 62
     2
100
AcDbLine
 39
46.08
 10
42.002681
 20
27.435958
 30
0.0
 11
42.002681
 21
27.435958
 31
0.0
  0
LINE
  5
88C
100
AcDbEntity
  8
BORDER
  6
CONTINUOUS
 62
     2
100
AcDbLine
 39
46.08
 10
42.227705
 20
27.435958
 30
0.0
 11
42.227705
 21
27.435958
 31
0.0
  0
LINE
  5
88D
100
AcDbEntity
  8
BORDER
  6
CONTINUOUS
 62
     2
100
AcDbLine
 39
46.08
 10
42.452729
 20
27.435958
 30
0.0
 11
42.452729
 21
27.435958
 31
0.0
  0
LINE
  5
88E
100
AcDbEntity
  8
BORDER
  6
CONTINUOUS
 62
     2
100
AcDbLine
 39
46.08
 10
41.665209
 20
27.210934
 30
0.0
 11
41.665209
 21
27.210934
 31
0.0
  0
LINE
  5
88F
100
AcDbEntity
  8
BORDER
  6
CONTINUOUS
 62
     2
100
AcDbLine
 39
46.08
 10
41.890169
 20
27.210934
 30
0.0
 11
41.890169
 21
27.210934
 31
0.0
  0
LINE
  5
890
100
AcDbEntity
  8
BORDER
  6
CONTINUOUS
 62
     2
100
AcDbLine
 39
46.08
 10
42.115193
 20
27.210934
 30
0.0
 11
42.115193
 21
27.210934
 31
0.0
  0
LINE
  5
891
100
AcDbEntity
  8
BORDER
  6
CONTINUOUS
 62
     2
100
AcDbLine
 39
46.08
 10
42.340217
 20
27.210934
 30
0.0
 11
42.340217
 21
27.210934
 31
0.0
  0
LINE
  5
892
100
AcDbEntity
  8
BORDER
  6
CONTINUOUS
 62
     2
100
AcDbLine
 39
46.08
 10
41.777721
 20
26.985974
 30
0.0
 11
41.777721
 21
26.985974
 31
0.0
  0
LINE
  5
893
100
AcDbEntity
  8
BORDER
  6
CONTINUOUS
 62
     2
100
AcDbLine
 39
46.08
 10
42.002681
 20
26.985974
 30
0.0
 11
42.002681
 21
26.985974
 31
0.0
  0
LINE
  5
894
100
AcDbEntity
  8
BORDER
  6
CONTINUOUS
 62
     2
100
AcDbLine
 39
46.08
 10
42.227705
 20
26.985974
 30
0.0
 11
42.227705
 21
26.985974
 31
0.0
  0
LINE
  5
895
100
AcDbEntity
  8
BORDER
  6
CONTINUOUS
 62
     2
100
AcDbLine
 39
46.08
 10
42.452729
 20
26.985974
 30
0.0
 11
42.452729
 21
26.985974
 31
0.0
  0
LINE
  5
896
100
AcDbEntity
  8
BORDER
  6
CONTINUOUS
 62
     3
100
AcDbLine
 39
46.08
 10
57.222777
 20
36.869302
 30
0.0
 11
57.222777
 21
40.483062
 31
0.0
  0
LINE
  5
897
100
AcDbEntity
  8
BORDER
  6
CONTINUOUS
 62
     3
100
AcDbLine
 39
46.08
 10
57.222777
 20
43.418166
 30
0.0
 11
57.222777
 21
47.104438
 31
0.0
  0
LINE
  5
898
100
AcDbEntity
  8
BORDER
  6
CONTINUOUS
 62
     3
100
AcDbLine
 39
46.08
 10
57.293817
 20
43.418166
 30
0.0
 11
58.371001
 21
42.992886
 31
0.0
  0
LINE
  5
899
100
AcDbEntity
  8
BORDER
  6
CONTINUOUS
 62
     3
100
AcDbLine
 39
46.08
 10
58.371001
 20
42.992886
 30
0.0
 11
55.876281
 21
40.923318
 31
0.0
  0
LINE
  5
89A
100
AcDbEntity
  8
BORDER
  6
CONTINUOUS
 62
     3
100
AcDbLine
 39
46.08
 10
55.876281
 20
40.923318
 30
0.0
 11
57.350521
 21
40.441398
 31
0.0
  0
LINE
  5
89B
100
AcDbEntity
  8
BORDER
  6
CONTINUOUS
 62
     3
100
AcDbLine
 39
46.08
 10
47.035193
 20
42.466678
 30
0.0
 11
47.604281
 21
43.035894
 31
0.0
  0
LINE
  5
89C
100
AcDbEntity
  8
BORDER
  6
CONTINUOUS
 62
     3
100
AcDbLine
 39
46.08
 10
48.467257
 20
42.943926
 30
0.0
 11
49.036281
 21
43.513206
 31
0.0
  0
LINE
  5
89D
100
AcDbEntity
  8
BORDER
  6
CONTINUOUS
 62
     3
100
AcDbLine
 39
46.08
 10
49.898809
 20
43.421238
 30
0.0
 11
50.468345
 21
43.990454
 31
0.0
  0
LINE
  5
89E
100
AcDbEntity
  8
BORDER
  6
CONTINUOUS
 62
     3
100
AcDbLine
 39
46.08
 10
51.330809
 20
43.89855
 30
0.0
 11
51.899897
 21
44.467766
 31
0.0
  0
LINE
  5
89F
100
AcDbEntity
  8
BORDER
  6
CONTINUOUS
 62
     3
100
AcDbLine
 39
46.08
 10
52.762873
 20
44.375798
 30
0.0
 11
53.331897
 21
44.945014
 31
0.0
  0
LINE
  5
8A0
100
AcDbEntity
  8
BORDER
  6
CONTINUOUS
 62
     3
100
AcDbLine
 39
46.08
 10
54.194425
 20
44.85311
 30
0.0
 11
54.763961
 21
45.422326
 31
0.0
  0
LINE
  5
8A1
100
AcDbEntity
  8
BORDER
  6
CONTINUOUS
 62
     3
100
AcDbLine
 39
46.08
 10
55.626425
 20
45.330422
 30
0.0
 11
56.195513
 21
45.899574
 31
0.0
  0
LINE
  5
8A2
100
AcDbEntity
  8
BORDER
  6
CONTINUOUS
 62
     1
100
AcDbLine
 39
46.08
 10
57.058489
 20
45.80767
 30
0.0
 11
57.222777
 21
45.972214
 31
0.0
  0
LINE
  5
8A3
100
AcDbEntity
  8
BORDER
  6
CONTINUOUS
 62
    14
100
AcDbLine
 39
46.08
 10
41.586425
 20
36.73471
 30
0.0
 11
41.586425
 21
37.45471
 31
0.0
  0
LINE
  5
8A4
100
AcDbEntity
  8
BORDER
  6
CONTINUOUS
 62
     3
100
AcDbLine
 39
46.08
 10
42.739577
 20
41.034806
 30
0.0
 11
43.308857
 21
41.604022
 31
0.0
  0
LINE
  5
8A5
100
AcDbEntity
  8
BORDER
  6
CONTINUOUS
 62
     3
100
AcDbLine
 39
46.08
 10
44.171577
 20
41.512054
 30
0.0
 11
44.740665
 21
42.08127
 31
0.0
  0
LINE
  5
8A6
100
AcDbEntity
  8
BORDER
  6
CONTINUOUS
 62
     3
100
AcDbLine
 39
46.08
 10
45.603385
 20
41.989366
 30
0.0
 11
46.172729
 21
42.558582
 31
0.0
  0
LINE
  5
8A7
100
AcDbEntity
  8
BORDER
  6
CONTINUOUS
 62
     3
100
AcDbLine
 39
46.08
 10
42.538041
 20
29.526134
 30
0.0
 11
42.538041
 21
36.726134
 31
0.0
  0
LINE
  5
8A8
100
AcDbEntity
  8
BORDER
  6
CONTINUOUS
 62
     3
100
AcDbLine
 39
46.08
 10
42.538041
 20
36.726134
 30
0.0
 11
41.638009
 21
36.726134
 31
0.0
  0
LINE
  5
8A9
100
AcDbEntity
  8
BORDER
  6
CONTINUOUS
 62
     3
100
AcDbLine
 39
46.08
 10
41.638009
 20
29.526134
 30
0.0
 11
41.638009
 21
36.726134
 31
0.0
  0
LINE
  5
8AA
100
AcDbEntity
  8
BORDER
  6
CONTINUOUS
 62
     3
100
AcDbLine
 39
46.08
 10
41.638009
 20
29.526134
 30
0.0
 11
42.538041
 21
29.526134
 31
0.0
  0
LINE
  5
8AB
100
AcDbEntity
  8
BORDER
  6
CONTINUOUS
 62
     1
100
AcDbLine
 39
46.08
 10
41.559993
 20
33.292214
 30
0.0
 11
41.588345
 21
33.302454
 31
0.0
  0
LINE
  5
8AC
100
AcDbEntity
  8
BORDER
  6
CONTINUOUS
 62
     1
100
AcDbLine
 39
46.08
 10
41.572409
 20
30.826934
 30
0.0
 11
41.589753
 21
30.85151
 31
0.0
  0
LINE
  5
8AD
100
AcDbEntity
  8
BORDER
  6
CONTINUOUS
 62
     1
100
AcDbLine
 39
46.08
 10
41.401785
 20
30.414902
 30
0.0
 11
41.406905
 21
30.444406
 31
0.0
  0
LINE
  5
8AE
100
AcDbEntity
  8
BORDER
  6
CONTINUOUS
 62
     1
100
AcDbLine
 39
46.08
 10
41.610105
 20
31.596662
 30
0.0
 11
41.615289
 21
31.62623
 31
0.0
  0
LINE
  5
8AF
100
AcDbEntity
  8
BORDER
  6
CONTINUOUS
 62
     2
100
AcDbLine
 39
46.08
 10
41.665209
 20
36.660918
 30
0.0
 11
41.665209
 21
36.660918
 31
0.0
  0
LINE
  5
8B0
100
AcDbEntity
  8
BORDER
  6
CONTINUOUS
 62
     2
100
AcDbLine
 39
46.08
 10
41.890169
 20
36.660918
 30
0.0
 11
41.890169
 21
36.660918
 31
0.0
  0
LINE
  5
8B1
100
AcDbEntity
  8
BORDER
  6
CONTINUOUS
 62
     2
100
AcDbLine
 39
46.08
 10
42.115193
 20
36.660918
 30
0.0
 11
42.115193
 21
36.660918
 31
0.0
  0
LINE
  5
8B2
100
AcDbEntity
  8
BORDER
  6
CONTINUOUS
 62
     2
100
AcDbLine
 39
46.08
 10
42.340217
 20
36.660918
 30
0.0
 11
42.340217
 21
36.660918
 31
0.0
  0
LINE
  5
8B3
100
AcDbEntity
  8
BORDER
  6
CONTINUOUS
 62
     2
100
AcDbLine
 39
46.08
 10
41.777721
 20
36.435958
 30
0.0
 11
41.777721
 21
36.435958
 31
0.0
  0
LINE
  5
8B4
100
AcDbEntity
  8
BORDER
  6
CONTINUOUS
 62
     2
100
AcDbLine
 39
46.08
 10
42.002681
 20
36.435958
 30
0.0
 11
42.002681
 21
36.435958
 31
0.0
  0
LINE
  5
8B5
100
AcDbEntity
  8
BORDER
  6
CONTINUOUS
 62
     2
100
AcDbLine
 39
46.08
 10
42.227705
 20
36.435958
 30
0.0
 11
42.227705
 21
36.435958
 31
0.0
  0
LINE
  5
8B6
100
AcDbEntity
  8
BORDER
  6
CONTINUOUS
 62
     2
100
AcDbLine
 39
46.08
 10
42.452729
 20
36.435958
 30
0.0
 11
42.452729
 21
36.435958
 31
0.0
  0
LINE
  5
8B7
100
AcDbEntity
  8
BORDER
  6
CONTINUOUS
 62
     2
100
AcDbLine
 39
46.08
 10
41.665209
 20
36.210934
 30
0.0
 11
41.665209
 21
36.210934
 31
0.0
  0
LINE
  5
8B8
100
AcDbEntity
  8
BORDER
  6
CONTINUOUS
 62
     2
100
AcDbLine
 39
46.08
 10
41.890169
 20
36.210934
 30
0.0
 11
41.890169
 21
36.210934
 31
0.0
  0
LINE
  5
8B9
100
AcDbEntity
  8
BORDER
  6
CONTINUOUS
 62
     2
100
AcDbLine
 39
46.08
 10
42.115193
 20
36.210934
 30
0.0
 11
42.115193
 21
36.210934
 31
0.0
  0
LINE
  5
8BA
100
AcDbEntity
  8
BORDER
  6
CONTINUOUS
 62
     2
100
AcDbLine
 39
46.08
 10
42.340217
 20
36.210934
 30
0.0
 11
42.340217
 21
36.210934
 31
0.0
  0
LINE
  5
8BB
100
AcDbEntity
  8
BORDER
  6
CONTINUOUS
 62
     2
100
AcDbLine
 39
46.08
 10
41.777721
 20
35.985974
 30
0.0
 11
41.777721
 21
35.985974
 31
0.0
  0
LINE
  5
8BC
100
AcDbEntity
  8
BORDER
  6
CONTINUOUS
 62
     2
100
AcDbLine
 39
46.08
 10
42.002681
 20
35.985974
 30
0.0
 11
42.002681
 21
35.985974
 31
0.0
  0
LINE
  5
8BD
100
AcDbEntity
  8
BORDER
  6
CONTINUOUS
 62
     2
100
AcDbLine
 39
46.08
 10
42.227705
 20
35.985974
 30
0.0
 11
42.227705
 21
35.985974
 31
0.0
  0
LINE
  5
8BE
100
AcDbEntity
  8
BORDER
  6
CONTINUOUS
 62
     2
100
AcDbLine
 39
46.08
 10
42.452729
 20
35.985974
 30
0.0
 11
42.452729
 21
35.985974
 31
0.0
  0
LINE
  5
8BF
100
AcDbEntity
  8
BORDER
  6
CONTINUOUS
 62
     2
100
AcDbLine
 39
46.08
 10
41.665209
 20
35.76095
 30
0.0
 11
41.665209
 21
35.76095
 31
0.0
  0
LINE
  5
8C0
100
AcDbEntity
  8
BORDER
  6
CONTINUOUS
 62
     2
100
AcDbLine
 39
46.08
 10
41.890169
 20
35.76095
 30
0.0
 11
41.890169
 21
35.76095
 31
0.0
  0
LINE
  5
8C1
100
AcDbEntity
  8
BORDER
  6
CONTINUOUS
 62
     2
100
AcDbLine
 39
46.08
 10
42.115193
 20
35.76095
 30
0.0
 11
42.115193
 21
35.76095
 31
0.0
  0
LINE
  5
8C2
100
AcDbEntity
  8
BORDER
  6
CONTINUOUS
 62
     2
100
AcDbLine
 39
46.08
 10
42.340217
 20
35.76095
 30
0.0
 11
42.340217
 21
35.76095
 31
0.0
  0
LINE
  5
8C3
100
AcDbEntity
  8
BORDER
  6
CONTINUOUS
 62
     2
100
AcDbLine
 39
46.08
 10
41.777721
 20
35.535926
 30
0.0
 11
41.777721
 21
35.535926
 31
0.0
  0
LINE
  5
8C4
100
AcDbEntity
  8
BORDER
  6
CONTINUOUS
 62
     2
100
AcDbLine
 39
46.08
 10
42.002681
 20
35.535926
 30
0.0
 11
42.002681
 21
35.535926
 31
0.0
  0
LINE
  5
8C5
100
AcDbEntity
  8
BORDER
  6
CONTINUOUS
 62
     2
100
AcDbLine
 39
46.08
 10
42.227705
 20
35.535926
 30
0.0
 11
42.227705
 21
35.535926
 31
0.0
  0
LINE
  5
8C6
100
AcDbEntity
  8
BORDER
  6
CONTINUOUS
 62
     2
100
AcDbLine
 39
46.08
 10
42.452729
 20
35.535926
 30
0.0
 11
42.452729
 21
35.535926
 31
0.0
  0
LINE
  5
8C7
100
AcDbEntity
  8
BORDER
  6
CONTINUOUS
 62
     2
100
AcDbLine
 39
46.08
 10
41.665209
 20
35.310966
 30
0.0
 11
41.665209
 21
35.310966
 31
0.0
  0
LINE
  5
8C8
100
AcDbEntity
  8
BORDER
  6
CONTINUOUS
 62
     2
100
AcDbLine
 39
46.08
 10
41.890169
 20
35.310966
 30
0.0
 11
41.890169
 21
35.310966
 31
0.0
  0
LINE
  5
8C9
100
AcDbEntity
  8
BORDER
  6
CONTINUOUS
 62
     2
100
AcDbLine
 39
46.08
 10
42.115193
 20
35.310966
 30
0.0
 11
42.115193
 21
35.310966
 31
0.0
  0
LINE
  5
8CA
100
AcDbEntity
  8
BORDER
  6
CONTINUOUS
 62
     2
100
AcDbLine
 39
46.08
 10
42.340217
 20
35.310966
 30
0.0
 11
42.340217
 21
35.310966
 31
0.0
  0
LINE
  5
8CB
100
AcDbEntity
  8
BORDER
  6
CONTINUOUS
 62
     2
100
AcDbLine
 39
46.08
 10
41.777721
 20
35.085942
 30
0.0
 11
41.777721
 21
35.085942
 31
0.0
  0
LINE
  5
8CC
100
AcDbEntity
  8
BORDER
  6
CONTINUOUS
 62
     2
100
AcDbLine
 39
46.08
 10
42.002681
 20
35.085942
 30
0.0
 11
42.002681
 21
35.085942
 31
0.0
  0
LINE
  5
8CD
100
AcDbEntity
  8
BORDER
  6
CONTINUOUS
 62
     2
100
AcDbLine
 39
46.08
 10
42.227705
 20
35.085942
 30
0.0
 11
42.227705
 21
35.085942
 31
0.0
  0
LINE
  5
8CE
100
AcDbEntity
  8
BORDER
  6
CONTINUOUS
 62
     2
100
AcDbLine
 39
46.08
 10
42.452729
 20
35.085942
 30
0.0
 11
42.452729
 21
35.085942
 31
0.0
  0
LINE
  5
8CF
100
AcDbEntity
  8
BORDER
  6
CONTINUOUS
 62
     2
100
AcDbLine
 39
46.08
 10
41.665209
 20
34.860918
 30
0.0
 11
41.665209
 21
34.860918
 31
0.0
  0
LINE
  5
8D0
100
AcDbEntity
  8
BORDER
  6
CONTINUOUS
 62
     2
100
AcDbLine
 39
46.08
 10
41.890169
 20
34.860918
 30
0.0
 11
41.890169
 21
34.860918
 31
0.0
  0
LINE
  5
8D1
100
AcDbEntity
  8
BORDER
  6
CONTINUOUS
 62
     2
100
AcDbLine
 39
46.08
 10
42.115193
 20
34.860918
 30
0.0
 11
42.115193
 21
34.860918
 31
0.0
  0
LINE
  5
8D2
100
AcDbEntity
  8
BORDER
  6
CONTINUOUS
 62
     2
100
AcDbLine
 39
46.08
 10
42.340217
 20
34.860918
 30
0.0
 11
42.340217
 21
34.860918
 31
0.0
  0
LINE
  5
8D3
100
AcDbEntity
  8
BORDER
  6
CONTINUOUS
 62
     2
100
AcDbLine
 39
46.08
 10
41.777721
 20
34.635958
 30
0.0
 11
41.777721
 21
34.635958
 31
0.0
  0
LINE
  5
8D4
100
AcDbEntity
  8
BORDER
  6
CONTINUOUS
 62
     2
100
AcDbLine
 39
46.08
 10
42.002681
 20
34.635958
 30
0.0
 11
42.002681
 21
34.635958
 31
0.0
  0
LINE
  5
8D5
100
AcDbEntity
  8
BORDER
  6
CONTINUOUS
 62
     2
100
AcDbLine
 39
46.08
 10
42.227705
 20
34.635958
 30
0.0
 11
42.227705
 21
34.635958
 31
0.0
  0
LINE
  5
8D6
100
AcDbEntity
  8
BORDER
  6
CONTINUOUS
 62
     2
100
AcDbLine
 39
46.08
 10
42.452729
 20
34.635958
 30
0.0
 11
42.452729
 21
34.635958
 31
0.0
  0
LINE
  5
8D7
100
AcDbEntity
  8
BORDER
  6
CONTINUOUS
 62
     2
100
AcDbLine
 39
46.08
 10
41.665209
 20
34.410934
 30
0.0
 11
41.665209
 21
34.410934
 31
0.0
  0
LINE
  5
8D8
100
AcDbEntity
  8
BORDER
  6
CONTINUOUS
 62
     2
100
AcDbLine
 39
46.08
 10
41.890169
 20
34.410934
 30
0.0
 11
41.890169
 21
34.410934
 31
0.0
  0
LINE
  5
8D9
100
AcDbEntity
  8
BORDER
  6
CONTINUOUS
 62
     2
100
AcDbLine
 39
46.08
 10
42.115193
 20
34.410934
 30
0.0
 11
42.115193
 21
34.410934
 31
0.0
  0
LINE
  5
8DA
100
AcDbEntity
  8
BORDER
  6
CONTINUOUS
 62
     2
100
AcDbLine
 39
46.08
 10
42.340217
 20
34.410934
 30
0.0
 11
42.340217
 21
34.410934
 31
0.0
  0
LINE
  5
8DB
100
AcDbEntity
  8
BORDER
  6
CONTINUOUS
 62
     2
100
AcDbLine
 39
46.08
 10
41.777721
 20
34.185974
 30
0.0
 11
41.777721
 21
34.185974
 31
0.0
  0
LINE
  5
8DC
100
AcDbEntity
  8
BORDER
  6
CONTINUOUS
 62
     2
100
AcDbLine
 39
46.08
 10
42.002681
 20
34.185974
 30
0.0
 11
42.002681
 21
34.185974
 31
0.0
  0
LINE
  5
8DD
100
AcDbEntity
  8
BORDER
  6
CONTINUOUS
 62
     2
100
AcDbLine
 39
46.08
 10
42.227705
 20
34.185974
 30
0.0
 11
42.227705
 21
34.185974
 31
0.0
  0
LINE
  5
8DE
100
AcDbEntity
  8
BORDER
  6
CONTINUOUS
 62
     2
100
AcDbLine
 39
46.08
 10
42.452729
 20
34.185974
 30
0.0
 11
42.452729
 21
34.185974
 31
0.0
  0
LINE
  5
8DF
100
AcDbEntity
  8
BORDER
  6
CONTINUOUS
 62
     2
100
AcDbLine
 39
46.08
 10
41.665209
 20
33.96095
 30
0.0
 11
41.665209
 21
33.96095
 31
0.0
  0
LINE
  5
8E0
100
AcDbEntity
  8
BORDER
  6
CONTINUOUS
 62
     2
100
AcDbLine
 39
46.08
 10
41.890169
 20
33.96095
 30
0.0
 11
41.890169
 21
33.96095
 31
0.0
  0
LINE
  5
8E1
100
AcDbEntity
  8
BORDER
  6
CONTINUOUS
 62
     2
100
AcDbLine
 39
46.08
 10
42.115193
 20
33.96095
 30
0.0
 11
42.115193
 21
33.96095
 31
0.0
  0
LINE
  5
8E2
100
AcDbEntity
  8
BORDER
  6
CONTINUOUS
 62
     2
100
AcDbLine
 39
46.08
 10
42.340217
 20
33.96095
 30
0.0
 11
42.340217
 21
33.96095
 31
0.0
  0
LINE
  5
8E3
100
AcDbEntity
  8
BORDER
  6
CONTINUOUS
 62
     2
100
AcDbLine
 39
46.08
 10
41.777721
 20
33.735926
 30
0.0
 11
41.777721
 21
33.735926
 31
0.0
  0
LINE
  5
8E4
100
AcDbEntity
  8
BORDER
  6
CONTINUOUS
 62
     2
100
AcDbLine
 39
46.08
 10
42.002681
 20
33.735926
 30
0.0
 11
42.002681
 21
33.735926
 31
0.0
  0
LINE
  5
8E5
100
AcDbEntity
  8
BORDER
  6
CONTINUOUS
 62
     2
100
AcDbLine
 39
46.08
 10
42.227705
 20
33.735926
 30
0.0
 11
42.227705
 21
33.735926
 31
0.0
  0
LINE
  5
8E6
100
AcDbEntity
  8
BORDER
  6
CONTINUOUS
 62
     2
100
AcDbLine
 39
46.08
 10
42.452729
 20
33.735926
 30
0.0
 11
42.452729
 21
33.735926
 31
0.0
  0
LINE
  5
8E7
100
AcDbEntity
  8
BORDER
  6
CONTINUOUS
 62
     2
100
AcDbLine
 39
46.08
 10
41.665209
 20
33.510966
 30
0.0
 11
41.665209
 21
33.510966
 31
0.0
  0
LINE
  5
8E8
100
AcDbEntity
  8
BORDER
  6
CONTINUOUS
 62
     2
100
AcDbLine
 39
46.08
 10
41.890169
 20
33.510966
 30
0.0
 11
41.890169
 21
33.510966
 31
0.0
  0
LINE
  5
8E9
100
AcDbEntity
  8
BORDER
  6
CONTINUOUS
 62
     2
100
AcDbLine
 39
46.08
 10
42.115193
 20
33.510966
 30
0.0
 11
42.115193
 21
33.510966
 31
0.0
  0
LINE
  5
8EA
100
AcDbEntity
  8
BORDER
  6
CONTINUOUS
 62
     2
100
AcDbLine
 39
46.08
 10
42.340217
 20
33.510966
 30
0.0
 11
42.340217
 21
33.510966
 31
0.0
  0
LINE
  5
8EB
100
AcDbEntity
  8
BORDER
  6
CONTINUOUS
 62
     2
100
AcDbLine
 39
46.08
 10
41.777721
 20
33.285942
 30
0.0
 11
41.777721
 21
33.285942
 31
0.0
  0
LINE
  5
8EC
100
AcDbEntity
  8
BORDER
  6
CONTINUOUS
 62
     2
100
AcDbLine
 39
46.08
 10
42.002681
 20
33.285942
 30
0.0
 11
42.002681
 21
33.285942
 31
0.0
  0
LINE
  5
8ED
100
AcDbEntity
  8
BORDER
  6
CONTINUOUS
 62
     2
100
AcDbLine
 39
46.08
 10
42.227705
 20
33.285942
 30
0.0
 11
42.227705
 21
33.285942
 31
0.0
  0
LINE
  5
8EE
100
AcDbEntity
  8
BORDER
  6
CONTINUOUS
 62
     2
100
AcDbLine
 39
46.08
 10
42.452729
 20
33.285942
 30
0.0
 11
42.452729
 21
33.285942
 31
0.0
  0
LINE
  5
8EF
100
AcDbEntity
  8
BORDER
  6
CONTINUOUS
 62
     2
100
AcDbLine
 39
46.08
 10
41.665209
 20
33.060918
 30
0.0
 11
41.665209
 21
33.060918
 31
0.0
  0
LINE
  5
8F0
100
AcDbEntity
  8
BORDER
  6
CONTINUOUS
 62
     2
100
AcDbLine
 39
46.08
 10
41.890169
 20
33.060918
 30
0.0
 11
41.890169
 21
33.060918
 31
0.0
  0
LINE
  5
8F1
100
AcDbEntity
  8
BORDER
  6
CONTINUOUS
 62
     2
100
AcDbLine
 39
46.08
 10
42.115193
 20
33.060918
 30
0.0
 11
42.115193
 21
33.060918
 31
0.0
  0
LINE
  5
8F2
100
AcDbEntity
  8
BORDER
  6
CONTINUOUS
 62
     2
100
AcDbLine
 39
46.08
 10
42.340217
 20
33.060918
 30
0.0
 11
42.340217
 21
33.060918
 31
0.0
  0
LINE
  5
8F3
100
AcDbEntity
  8
BORDER
  6
CONTINUOUS
 62
     2
100
AcDbLine
 39
46.08
 10
41.777721
 20
32.835958
 30
0.0
 11
41.777721
 21
32.835958
 31
0.0
  0
LINE
  5
8F4
100
AcDbEntity
  8
BORDER
  6
CONTINUOUS
 62
     2
100
AcDbLine
 39
46.08
 10
42.002681
 20
32.835958
 30
0.0
 11
42.002681
 21
32.835958
 31
0.0
  0
LINE
  5
8F5
100
AcDbEntity
  8
BORDER
  6
CONTINUOUS
 62
     2
100
AcDbLine
 39
46.08
 10
42.227705
 20
32.835958
 30
0.0
 11
42.227705
 21
32.835958
 31
0.0
  0
LINE
  5
8F6
100
AcDbEntity
  8
BORDER
  6
CONTINUOUS
 62
     2
100
AcDbLine
 39
46.08
 10
42.452729
 20
32.835958
 30
0.0
 11
42.452729
 21
32.835958
 31
0.0
  0
LINE
  5
8F7
100
AcDbEntity
  8
BORDER
  6
CONTINUOUS
 62
     2
100
AcDbLine
 39
46.08
 10
41.665209
 20
32.610934
 30
0.0
 11
41.665209
 21
32.610934
 31
0.0
  0
LINE
  5
8F8
100
AcDbEntity
  8
BORDER
  6
CONTINUOUS
 62
     2
100
AcDbLine
 39
46.08
 10
41.890169
 20
32.610934
 30
0.0
 11
41.890169
 21
32.610934
 31
0.0
  0
LINE
  5
8F9
100
AcDbEntity
  8
BORDER
  6
CONTINUOUS
 62
     2
100
AcDbLine
 39
46.08
 10
42.115193
 20
32.610934
 30
0.0
 11
42.115193
 21
32.610934
 31
0.0
  0
LINE
  5
8FA
100
AcDbEntity
  8
BORDER
  6
CONTINUOUS
 62
     2
100
AcDbLine
 39
46.08
 10
42.340217
 20
32.610934
 30
0.0
 11
42.340217
 21
32.610934
 31
0.0
  0
LINE
  5
8FB
100
AcDbEntity
  8
BORDER
  6
CONTINUOUS
 62
     2
100
AcDbLine
 39
46.08
 10
41.777721
 20
32.385974
 30
0.0
 11
41.777721
 21
32.385974
 31
0.0
  0
LINE
  5
8FC
100
AcDbEntity
  8
BORDER
  6
CONTINUOUS
 62
     2
100
AcDbLine
 39
46.08
 10
42.002681
 20
32.385974
 30
0.0
 11
42.002681
 21
32.385974
 31
0.0
  0
LINE
  5
8FD
100
AcDbEntity
  8
BORDER
  6
CONTINUOUS
 62
     2
100
AcDbLine
 39
46.08
 10
42.227705
 20
32.385974
 30
0.0
 11
42.227705
 21
32.385974
 31
0.0
  0
LINE
  5
8FE
100
AcDbEntity
  8
BORDER
  6
CONTINUOUS
 62
     2
100
AcDbLine
 39
46.08
 10
42.452729
 20
32.385974
 30
0.0
 11
42.452729
 21
32.385974
 31
0.0
  0
LINE
  5
8FF
100
AcDbEntity
  8
BORDER
  6
CONTINUOUS
 62
     2
100
AcDbLine
 39
46.08
 10
41.665209
 20
32.16095
 30
0.0
 11
41.665209
 21
32.16095
 31
0.0
  0
LINE
  5
900
100
AcDbEntity
  8
BORDER
  6
CONTINUOUS
 62
     2
100
AcDbLine
 39
46.08
 10
41.890169
 20
32.16095
 30
0.0
 11
41.890169
 21
32.16095
 31
0.0
  0
LINE
  5
901
100
AcDbEntity
  8
BORDER
  6
CONTINUOUS
 62
     2
100
AcDbLine
 39
46.08
 10
42.115193
 20
32.16095
 30
0.0
 11
42.115193
 21
32.16095
 31
0.0
  0
LINE
  5
902
100
AcDbEntity
  8
BORDER
  6
CONTINUOUS
 62
     2
100
AcDbLine
 39
46.08
 10
42.340217
 20
32.16095
 30
0.0
 11
42.340217
 21
32.16095
 31
0.0
  0
LINE
  5
903
100
AcDbEntity
  8
BORDER
  6
CONTINUOUS
 62
     2
100
AcDbLine
 39
46.08
 10
41.777721
 20
31.935926
 30
0.0
 11
41.777721
 21
31.935926
 31
0.0
  0
LINE
  5
904
100
AcDbEntity
  8
BORDER
  6
CONTINUOUS
 62
     2
100
AcDbLine
 39
46.08
 10
42.002681
 20
31.935926
 30
0.0
 11
42.002681
 21
31.935926
 31
0.0
  0
LINE
  5
905
100
AcDbEntity
  8
BORDER
  6
CONTINUOUS
 62
     2
100
AcDbLine
 39
46.08
 10
42.227705
 20
31.935926
 30
0.0
 11
42.227705
 21
31.935926
 31
0.0
  0
LINE
  5
906
100
AcDbEntity
  8
BORDER
  6
CONTINUOUS
 62
     2
100
AcDbLine
 39
46.08
 10
42.452729
 20
31.935926
 30
0.0
 11
42.452729
 21
31.935926
 31
0.0
  0
LINE
  5
907
100
AcDbEntity
  8
BORDER
  6
CONTINUOUS
 62
     2
100
AcDbLine
 39
46.08
 10
41.665209
 20
31.710966
 30
0.0
 11
41.665209
 21
31.710966
 31
0.0
  0
LINE
  5
908
100
AcDbEntity
  8
BORDER
  6
CONTINUOUS
 62
     2
100
AcDbLine
 39
46.08
 10
41.890169
 20
31.710966
 30
0.0
 11
41.890169
 21
31.710966
 31
0.0
  0
LINE
  5
909
100
AcDbEntity
  8
BORDER
  6
CONTINUOUS
 62
     2
100
AcDbLine
 39
46.08
 10
42.115193
 20
31.710966
 30
0.0
 11
42.115193
 21
31.710966
 31
0.0
  0
LINE
  5
90A
100
AcDbEntity
  8
BORDER
  6
CONTINUOUS
 62
     2
100
AcDbLine
 39
46.08
 10
42.340217
 20
31.710966
 30
0.0
 11
42.340217
 21
31.710966
 31
0.0
  0
LINE
  5
90B
100
AcDbEntity
  8
BORDER
  6
CONTINUOUS
 62
     2
100
AcDbLine
 39
46.08
 10
41.777721
 20
31.485942
 30
0.0
 11
41.777721
 21
31.485942
 31
0.0
  0
LINE
  5
90C
100
AcDbEntity
  8
BORDER
  6
CONTINUOUS
 62
     2
100
AcDbLine
 39
46.08
 10
42.002681
 20
31.485942
 30
0.0
 11
42.002681
 21
31.485942
 31
0.0
  0
LINE
  5
90D
100
AcDbEntity
  8
BORDER
  6
CONTINUOUS
 62
     2
100
AcDbLine
 39
46.08
 10
42.227705
 20
31.485942
 30
0.0
 11
42.227705
 21
31.485942
 31
0.0
  0
LINE
  5
90E
100
AcDbEntity
  8
BORDER
  6
CONTINUOUS
 62
     2
100
AcDbLine
 39
46.08
 10
42.452729
 20
31.485942
 30
0.0
 11
42.452729
 21
31.485942
 31
0.0
  0
LINE
  5
90F
100
AcDbEntity
  8
BORDER
  6
CONTINUOUS
 62
     2
100
AcDbLine
 39
46.08
 10
41.665209
 20
31.260918
 30
0.0
 11
41.665209
 21
31.260918
 31
0.0
  0
LINE
  5
910
100
AcDbEntity
  8
BORDER
  6
CONTINUOUS
 62
     2
100
AcDbLine
 39
46.08
 10
41.890169
 20
31.260918
 30
0.0
 11
41.890169
 21
31.260918
 31
0.0
  0
LINE
  5
911
100
AcDbEntity
  8
BORDER
  6
CONTINUOUS
 62
     2
100
AcDbLine
 39
46.08
 10
42.115193
 20
31.260918
 30
0.0
 11
42.115193
 21
31.260918
 31
0.0
  0
LINE
  5
912
100
AcDbEntity
  8
BORDER
  6
CONTINUOUS
 62
     2
100
AcDbLine
 39
46.08
 10
42.340217
 20
31.260918
 30
0.0
 11
42.340217
 21
31.260918
 31
0.0
  0
LINE
  5
913
100
AcDbEntity
  8
BORDER
  6
CONTINUOUS
 62
     2
100
AcDbLine
 39
46.08
 10
41.777721
 20
31.035958
 30
0.0
 11
41.777721
 21
31.035958
 31
0.0
  0
LINE
  5
914
100
AcDbEntity
  8
BORDER
  6
CONTINUOUS
 62
     2
100
AcDbLine
 39
46.08
 10
42.002681
 20
31.035958
 30
0.0
 11
42.002681
 21
31.035958
 31
0.0
  0
LINE
  5
915
100
AcDbEntity
  8
BORDER
  6
CONTINUOUS
 62
     2
100
AcDbLine
 39
46.08
 10
42.227705
 20
31.035958
 30
0.0
 11
42.227705
 21
31.035958
 31
0.0
  0
LINE
  5
916
100
AcDbEntity
  8
BORDER
  6
CONTINUOUS
 62
     2
100
AcDbLine
 39
46.08
 10
42.452729
 20
31.035958
 30
0.0
 11
42.452729
 21
31.035958
 31
0.0
  0
LINE
  5
917
100
AcDbEntity
  8
BORDER
  6
CONTINUOUS
 62
     2
100
AcDbLine
 39
46.08
 10
41.665209
 20
30.810934
 30
0.0
 11
41.665209
 21
30.810934
 31
0.0
  0
LINE
  5
918
100
AcDbEntity
  8
BORDER
  6
CONTINUOUS
 62
     2
100
AcDbLine
 39
46.08
 10
41.890169
 20
30.810934
 30
0.0
 11
41.890169
 21
30.810934
 31
0.0
  0
LINE
  5
919
100
AcDbEntity
  8
BORDER
  6
CONTINUOUS
 62
     2
100
AcDbLine
 39
46.08
 10
42.115193
 20
30.810934
 30
0.0
 11
42.115193
 21
30.810934
 31
0.0
  0
LINE
  5
91A
100
AcDbEntity
  8
BORDER
  6
CONTINUOUS
 62
     2
100
AcDbLine
 39
46.08
 10
42.340217
 20
30.810934
 30
0.0
 11
42.340217
 21
30.810934
 31
0.0
  0
LINE
  5
91B
100
AcDbEntity
  8
BORDER
  6
CONTINUOUS
 62
     2
100
AcDbLine
 39
46.08
 10
41.777721
 20
30.585974
 30
0.0
 11
41.777721
 21
30.585974
 31
0.0
  0
LINE
  5
91C
100
AcDbEntity
  8
BORDER
  6
CONTINUOUS
 62
     2
100
AcDbLine
 39
46.08
 10
42.002681
 20
30.585974
 30
0.0
 11
42.002681
 21
30.585974
 31
0.0
  0
LINE
  5
91D
100
AcDbEntity
  8
BORDER
  6
CONTINUOUS
 62
     2
100
AcDbLine
 39
46.08
 10
42.227705
 20
30.585974
 30
0.0
 11
42.227705
 21
30.585974
 31
0.0
  0
LINE
  5
91E
100
AcDbEntity
  8
BORDER
  6
CONTINUOUS
 62
     2
100
AcDbLine
 39
46.08
 10
42.452729
 20
30.585974
 30
0.0
 11
42.452729
 21
30.585974
 31
0.0
  0
LINE
  5
91F
100
AcDbEntity
  8
BORDER
  6
CONTINUOUS
 62
     2
100
AcDbLine
 39
46.08
 10
41.665209
 20
30.36095
 30
0.0
 11
41.665209
 21
30.36095
 31
0.0
  0
LINE
  5
920
100
AcDbEntity
  8
BORDER
  6
CONTINUOUS
 62
     2
100
AcDbLine
 39
46.08
 10
41.890169
 20
30.36095
 30
0.0
 11
41.890169
 21
30.36095
 31
0.0
  0
LINE
  5
921
100
AcDbEntity
  8
BORDER
  6
CONTINUOUS
 62
     2
100
AcDbLine
 39
46.08
 10
42.115193
 20
30.36095
 30
0.0
 11
42.115193
 21
30.36095
 31
0.0
  0
LINE
  5
922
100
AcDbEntity
  8
BORDER
  6
CONTINUOUS
 62
     2
100
AcDbLine
 39
46.08
 10
42.340217
 20
30.36095
 30
0.0
 11
42.340217
 21
30.36095
 31
0.0
  0
LINE
  5
923
100
AcDbEntity
  8
BORDER
  6
CONTINUOUS
 62
     2
100
AcDbLine
 39
46.08
 10
41.777721
 20
30.135926
 30
0.0
 11
41.777721
 21
30.135926
 31
0.0
  0
LINE
  5
924
100
AcDbEntity
  8
BORDER
  6
CONTINUOUS
 62
     2
100
AcDbLine
 39
46.08
 10
42.002681
 20
30.135926
 30
0.0
 11
42.002681
 21
30.135926
 31
0.0
  0
LINE
  5
925
100
AcDbEntity
  8
BORDER
  6
CONTINUOUS
 62
     2
100
AcDbLine
 39
46.08
 10
42.227705
 20
30.135926
 30
0.0
 11
42.227705
 21
30.135926
 31
0.0
  0
LINE
  5
926
100
AcDbEntity
  8
BORDER
  6
CONTINUOUS
 62
     2
100
AcDbLine
 39
46.08
 10
41.665209
 20
29.910966
 30
0.0
 11
41.665209
 21
29.910966
 31
0.0
  0
LINE
  5
927
100
AcDbEntity
  8
BORDER
  6
CONTINUOUS
 62
     2
100
AcDbLine
 39
46.08
 10
41.890169
 20
29.910966
 30
0.0
 11
41.890169
 21
29.910966
 31
0.0
  0
LINE
  5
928
100
AcDbEntity
  8
BORDER
  6
CONTINUOUS
 62
     2
100
AcDbLine
 39
46.08
 10
42.115193
 20
29.910966
 30
0.0
 11
42.115193
 21
29.910966
 31
0.0
  0
LINE
  5
929
100
AcDbEntity
  8
BORDER
  6
CONTINUOUS
 62
     2
100
AcDbLine
 39
46.08
 10
42.340217
 20
29.910966
 30
0.0
 11
42.340217
 21
29.910966
 31
0.0
  0
LINE
  5
92A
100
AcDbEntity
  8
BORDER
  6
CONTINUOUS
 62
     2
100
AcDbLine
 39
46.08
 10
41.777721
 20
29.685942
 30
0.0
 11
41.777721
 21
29.685942
 31
0.0
  0
LINE
  5
92B
100
AcDbEntity
  8
BORDER
  6
CONTINUOUS
 62
     2
100
AcDbLine
 39
46.08
 10
42.002681
 20
29.685942
 30
0.0
 11
42.002681
 21
29.685942
 31
0.0
  0
LINE
  5
92C
100
AcDbEntity
  8
BORDER
  6
CONTINUOUS
 62
     2
100
AcDbLine
 39
46.08
 10
42.227705
 20
29.685942
 30
0.0
 11
42.227705
 21
29.685942
 31
0.0
  0
LINE
  5
92D
100
AcDbEntity
  8
BORDER
  6
CONTINUOUS
 62
     2
100
AcDbLine
 39
46.08
 10
42.452729
 20
29.685942
 30
0.0
 11
42.452729
 21
29.685942
 31
0.0
  0
LINE
  5
92E
100
AcDbEntity
  8
BORDER
  6
CONTINUOUS
 62
     3
100
AcDbLine
 39
46.08
 10
42.538041
 20
29.526134
 30
0.0
 11
41.638009
 21
29.526134
 31
0.0
  0
LINE
  5
92F
100
AcDbEntity
  8
BORDER
  6
CONTINUOUS
 62
     3
100
AcDbLine
 39
46.08
 10
41.638009
 20
29.526134
 30
0.0
 11
42.538041
 21
29.526134
 31
0.0
  0
LINE
  5
930
100
AcDbEntity
  8
BORDER
  6
CONTINUOUS
 62
     3
100
AcDbLine
 39
46.08
 10
42.538041
 20
29.526134
 30
0.0
 11
41.638009
 21
29.526134
 31
0.0
  0
LINE
  5
931
100
AcDbEntity
  8
BORDER
  6
CONTINUOUS
 62
     2
100
AcDbLine
 39
46.08
 10
41.665209
 20
29.460918
 30
0.0
 11
41.665209
 21
29.460918
 31
0.0
  0
LINE
  5
932
100
AcDbEntity
  8
BORDER
  6
CONTINUOUS
 62
     2
100
AcDbLine
 39
46.08
 10
41.890169
 20
29.460918
 30
0.0
 11
41.890169
 21
29.460918
 31
0.0
  0
LINE
  5
933
100
AcDbEntity
  8
BORDER
  6
CONTINUOUS
 62
     2
100
AcDbLine
 39
46.08
 10
42.115193
 20
29.460918
 30
0.0
 11
42.115193
 21
29.460918
 31
0.0
  0
LINE
  5
934
100
AcDbEntity
  8
BORDER
  6
CONTINUOUS
 62
     2
100
AcDbLine
 39
46.08
 10
42.340217
 20
29.460918
 30
0.0
 11
42.340217
 21
29.460918
 31
0.0
  0
LINE
  5
935
100
AcDbEntity
  8
BORDER
  6
CONTINUOUS
 62
     2
100
AcDbLine
 39
46.08
 10
41.777721
 20
29.235958
 30
0.0
 11
41.777721
 21
29.235958
 31
0.0
  0
LINE
  5
936
100
AcDbEntity
  8
BORDER
  6
CONTINUOUS
 62
     2
100
AcDbLine
 39
46.08
 10
42.002681
 20
29.235958
 30
0.0
 11
42.002681
 21
29.235958
 31
0.0
  0
LINE
  5
937
100
AcDbEntity
  8
BORDER
  6
CONTINUOUS
 62
     2
100
AcDbLine
 39
46.08
 10
42.227705
 20
29.235958
 30
0.0
 11
42.227705
 21
29.235958
 31
0.0
  0
LINE
  5
938
100
AcDbEntity
  8
BORDER
  6
CONTINUOUS
 62
     2
100
AcDbLine
 39
46.08
 10
42.452729
 20
29.235958
 30
0.0
 11
42.452729
 21
29.235958
 31
0.0
  0
LINE
  5
939
100
AcDbEntity
  8
BORDER
  6
CONTINUOUS
 62
     2
100
AcDbLine
 39
46.08
 10
41.665209
 20
29.010934
 30
0.0
 11
41.665209
 21
29.010934
 31
0.0
  0
LINE
  5
93A
100
AcDbEntity
  8
BORDER
  6
CONTINUOUS
 62
     2
100
AcDbLine
 39
46.08
 10
41.890169
 20
29.010934
 30
0.0
 11
41.890169
 21
29.010934
 31
0.0
  0
LINE
  5
93B
100
AcDbEntity
  8
BORDER
  6
CONTINUOUS
 62
     2
100
AcDbLine
 39
46.08
 10
42.115193
 20
29.010934
 30
0.0
 11
42.115193
 21
29.010934
 31
0.0
  0
LINE
  5
93C
100
AcDbEntity
  8
BORDER
  6
CONTINUOUS
 62
     2
100
AcDbLine
 39
46.08
 10
42.340217
 20
29.010934
 30
0.0
 11
42.340217
 21
29.010934
 31
0.0
  0
LINE
  5
93D
100
AcDbEntity
  8
BORDER
  6
CONTINUOUS
 62
     2
100
AcDbLine
 39
46.08
 10
41.777721
 20
28.785974
 30
0.0
 11
41.777721
 21
28.785974
 31
0.0
  0
LINE
  5
93E
100
AcDbEntity
  8
BORDER
  6
CONTINUOUS
 62
     2
100
AcDbLine
 39
46.08
 10
42.002681
 20
28.785974
 30
0.0
 11
42.002681
 21
28.785974
 31
0.0
  0
LINE
  5
93F
100
AcDbEntity
  8
BORDER
  6
CONTINUOUS
 62
     2
100
AcDbLine
 39
46.08
 10
42.227705
 20
28.785974
 30
0.0
 11
42.227705
 21
28.785974
 31
0.0
  0
LINE
  5
940
100
AcDbEntity
  8
BORDER
  6
CONTINUOUS
 62
     2
100
AcDbLine
 39
46.08
 10
42.452729
 20
28.785974
 30
0.0
 11
42.452729
 21
28.785974
 31
0.0
  0
LINE
  5
941
100
AcDbEntity
  8
BORDER
  6
CONTINUOUS
 62
     2
100
AcDbLine
 39
46.08
 10
41.665209
 20
28.56095
 30
0.0
 11
41.665209
 21
28.56095
 31
0.0
  0
LINE
  5
942
100
AcDbEntity
  8
BORDER
  6
CONTINUOUS
 62
     2
100
AcDbLine
 39
46.08
 10
41.890169
 20
28.56095
 30
0.0
 11
41.890169
 21
28.56095
 31
0.0
  0
LINE
  5
943
100
AcDbEntity
  8
BORDER
  6
CONTINUOUS
 62
     2
100
AcDbLine
 39
46.08
 10
42.115193
 20
28.56095
 30
0.0
 11
42.115193
 21
28.56095
 31
0.0
  0
LINE
  5
944
100
AcDbEntity
  8
BORDER
  6
CONTINUOUS
 62
     2
100
AcDbLine
 39
46.08
 10
42.340217
 20
28.56095
 30
0.0
 11
42.340217
 21
28.56095
 31
0.0
  0
INSERT
  5
945
100
AcDbEntity
  8
RF-SW
100
AcDbBlockReference
  2
H25
 10
41.604276
 20
37.481766
 30
0.0
 41
0.5
 42
0.5
 43
0.5
 50
270.0
  0
LINE
  5
946
100
AcDbEntity
  8
BORDER
  6
CONTINUOUS
 62
     7
100
AcDbLine
 39
46.08
 10
57.726009
 20
43.247478
 30
0.0
 11
45.388025
 21
39.13471
 31
0.0
  0
TEXT
  5
947
100
AcDbEntity
  8
DIM_TEXT
100
AcDbText
 10
45.170333
 20
31.853385
 30
0.0
 40
0.71982
  1
2 X 6 PL. WITH ANCHOR BOLTS
 51
15.0
  7
INFO
100
AcDbText
  0
TEXT
  5
948
100
AcDbEntity
  8
DIM_TEXT
100
AcDbText
 10
46.148573
 20
34.013819
 30
0.0
 40
0.71982
  1
FRAMING ANCHOR AS REQUIRED
 51
15.0
  7
INFO
100
AcDbText
  0
TEXT
  5
949
100
AcDbEntity
  8
DIM_TEXT
100
AcDbText
 10
45.170333
 20
30.75735
 30
0.0
 40
0.71982
  1
(MIN.-1/2"%%C A.B. @ 45" O.C.)
 51
15.0
  7
INFO
100
AcDbText
  0
LEADER
  5
94A
100
AcDbEntity
  8
RF-SW
 62
     6
100
AcDbLeader
  3
ARCHITECTURAL
 76
     3
 10
42.464353
 20
38.696477
 30
0.0
 10
44.900207
 20
34.475605
 30
0.0
 10
45.971689
 20
34.475605
 30
0.0
 77
    13
1001
ACAD
1000
DSTYLE
1002
{
1070
    40
1040
12.0
1070
   173
1070
     1
1070
   176
1070
     6
1070
     7
1000
_CLOSEDBLANK
1070
     6
1000
_CLOSEDBLANK
1070
    41
1040
0.0625
1002
}
  0
LEADER
  5
94B
100
AcDbEntity
  8
RF-SW
 62
     6
100
AcDbLeader
  3
ARCHITECTURAL
 76
     3
 10
49.245323
 20
43.536471
 30
0.0
 10
46.864312
 20
45.791305
 30
0.0
 10
45.79283
 20
45.791305
 30
0.0
 77
    13
211
-1.0
221
0.0
231
0.0
1001
ACAD
1000
DSTYLE
1002
{
1070
    40
1040
12.0
1070
   173
1070
     1
1070
   176
1070
     6
1070
     7
1000
_CLOSEDBLANK
1070
     6
1000
_CLOSEDBLANK
1070
    41
1040
0.0625
1002
}
  0
LEADER
  5
94C
100
AcDbEntity
  8
RF-SW
 62
     6
100
AcDbLeader
  3
ARCHITECTURAL
 76
     3
 10
53.866215
 20
44.743656
 30
0.0
 10
50.199017
 20
48.216518
 30
0.0
 10
49.127535
 20
48.216518
 30
0.0
 77
     6
211
-1.0
221
0.0
231
0.0
1001
ACAD
1000
DSTYLE
1002
{
1070
    40
1040
12.0
1070
   173
1070
     1
1070
   176
1070
     6
1070
     7
1000
_CLOSEDBLANK
1070
     6
1000
_CLOSEDBLANK
1070
    41
1040
0.0625
1002
}
  0
ENDSEC
  0
SECTION
  2
OBJECTS
  0
DICTIONARY
  5
C
100
AcDbDictionary
  3
ACAD_GROUP
350
D
  3
ACAD_MLINESTYLE
350
1A
  3
ACDBVARIABLEDICTIONARY
350
29
  0
DICTIONARY
  5
D
102
{ACAD_REACTORS
330
C
102
}
100
AcDbDictionary
  0
DICTIONARY
  5
1A
102
{ACAD_REACTORS
330
C
102
}
100
AcDbDictionary
  3
STANDARD
350
1B
  0
DICTIONARY
  5
29
102
{ACAD_REACTORS
330
C
102
}
100
AcDbDictionary
  3
DIMADEC
350
2A
  0
MLINESTYLE
  5
1B
102
{ACAD_REACTORS
330
1A
102
}
100
AcDbMlineStyle
  2
STANDARD
 70
     0
  3

 62
   256
 51
90.0
 52
90.0
 71
     2
 49
0.5
 62
   256
  6
BYLAYER
 49
-0.5
 62
   256
  6
BYLAYER
  0
DICTIONARYVAR
  5
2A
102
{ACAD_REACTORS
330
29
102
}
100
DictionaryVariables
280
     0
  1
0
  0
ENDSEC
  0
EOF
